  0
SECTION
  2
HEADER
  9
$ACADVER
  1
AC1009
  9
$INSBASE
 10
0.000000000
 20
0.000000000
  9
$EXTMIN
 10
-18363.856708090
 20
-23960.873701930
  9
$EXTMAX
 10
17798.143289767
 20
24512.114896350
  9
$LIMMIN
 10
-18363.856708090
 20
-23960.873701930
  9
$LIMMAX
 10
17798.143289767
 20
24512.114896350
  9
$SNAPBASE
 10
0.000000000
 20
0.000000000
  9
$SNAPANG
 50
0.000000000
  9
$SNAPSTYLE
 70
0
  9
$GRIDMODE
 70
0
  9
$GRIDUNIT
 10
0.000000000
 20
0.000000000
  9
$DIMEXO
 40
0.000000000
  9
$DIMDLI
 40
8.000000000
  9
$DIMDLE
 40
0.000000000
  9
$DIMEXE
 40
1.000000000
  9
$DIMTIH
 70
1
  9
$DIMTOH
 70
1
  9
$DIMTAD
 70
2
  9
$DIMZIN
 70
0
  9
$FILLETRAD
 40
1.000000000
  9
$CHAMFERA
 40
1.000000000
  9
$CHAMFERB
 40
1.000000000
  9
$TEXTSTYLE
  7
STANDARD
  9
$TDCREATE
 40
2454638.410046296
  9
$TDUPDATE
 40
2454638.410046296
  9
$ANGBASE
 50
0.000000000
  9
$ANGDIR
 70
0
  0
ENDSEC
  0
SECTION
  2
TABLES
  0
TABLE
  2
LTYPE
 70
5
  0
LTYPE
  2
CENTER
 70
64
  3
___ _ ___ _ __
 72
65
 73
4
 40
13.000000000
 49
8.500000000
 49
-1.500000000
 49
1.500000000
 49
-1.500000000
  0
LTYPE
  2
CENTER2
 70
64
  3
__ _ __ _ __ _
 72
65
 73
4
 40
10.000000000
 49
7.000000000
 49
-1.000000000
 49
1.000000000
 49
-1.000000000
  0
LTYPE
  2
CONTINUOUS
 70
64
  3
______________
 72
65
 73
0
 40
0.000000000
  0
LTYPE
  2
DIVIDE
 70
64
  3
___ . . ___ . 
 72
65
 73
6
 40
12.999999523
 49
5.199999809
 49
-2.599999905
 49
0.000000000
 49
-2.599999905
 49
0.000000000
 49
-2.599999905
  0
LTYPE
  2
HIDDEN2
 70
64
  3
_ _ _ _ _ _ _ 
 72
65
 73
2
 40
2.000000000
 49
1.399999976
 49
-0.600000024
  0
ENDTAB
  0
TABLE
  2
LAYER
 70
1
  0
LAYER
  2
1
 70
0
 62
7
  6
CONTINUOUS
  0
LAYER
  2
_CONSTR
 70
0
 62
5
  6
CONTINUOUS
  0
ENDTAB
  0
TABLE
  2
STYLE
 70
1
  0
STYLE
  2
STANDARD
 70
64
 40
0.000000000
 42
3.200000000
 41
0.600000000
 50
0.000000000
 71
0
  3
TXT
  4
BIGFONT
  0
STYLE
  2
VISION_STANDARD
 70
64
 40
0.000000000
 42
3.200000000
 41
0.600000000
 50
0.000000000
 71
0
  3
TXT
  4
BIGFONT
  0
ENDTAB
  0
TABLE
  2
VPORT
 70
2
  0
VPORT
  2
*ACTIVE
 70
0
 10
0.000000000
 20
0.000000000
 11
1.000000000
 21
1.000000000
 12
-282.856709162
 22
275.620597210
 13
0.000000000
 23
0.000000000
 14
1.000000000
 24
1.000000000
 15
0.000000000
 25
0.000000000
 16
0.000000000
 26
0.000000000
 36
1.000000000
 17
0.000000000
 27
0.000000000
 37
0.000000000
 40
48472.988598280
 41
0.746023735
 42
50.000000000
 43
0.000000000
 44
0.000000000
 50
0.000000000
 51
0.000000000
 71
0
 72
100
 73
1
 74
1
 75
0
 76
0
 77
0
 78
0
  0
ENDTAB
  0
TABLE
  2
VIEW
 70
0
  0
ENDTAB
  0
TABLE
  2
DIMSTYLE
 70
1
  0
DIMSTYLE
  2
STANDARD
 70
0
  3

  4

  5

  6

  7

 40
1.000000000
 41
2.500000000
 42
0.000000000
 43
8.000000000
 44
1.000000000
 45
0.000000000
 46
0.000000000
 47
0.000000000
 48
0.000000000
140
3.200000000
141
2.500000000
142
0.000000000
143
0.039400000
144
1.000000000
145
0.000000000
146
1.000000000
147
0.625000000
 71
0
 72
0
 73
1
 74
1
 75
0
 76
0
 77
2
 78
8
170
0
171
2
172
0
173
0
174
0
175
0
176
0
177
0
178
0
  0
ENDTAB
  0
ENDSEC
  0
SECTION
  2
BLOCKS
  0
ENDSEC
  0
SECTION
  2
ENTITIES
  0
LINE
  8
1
 62
1
  6
HIDDEN2
 10
283.006571592
 20
-222.324653228
 11
305.006571592
 21
-222.324653228
  0
LINE
  8
1
 62
1
  6
HIDDEN2
 10
305.006571592
 20
-223.724653228
 11
136.506571592
 21
-223.724653228
  0
LINE
  8
1
 62
1
  6
HIDDEN2
 10
293.506571592
 20
-221.724653228
 11
293.506571592
 21
-222.324653228
  0
LINE
  8
1
 62
1
  6
HIDDEN2
 10
278.006571592
 20
-289.324653228
 11
278.506571592
 21
-283.324653228
  0
LINE
  8
1
 62
1
  6
HIDDEN2
 10
305.006571592
 20
-221.724653228
 11
293.506571592
 21
-221.724653228
  0
LINE
  8
1
 62
1
  6
HIDDEN2
 10
279.506571592
 20
-270.324653228
 11
279.506571592
 21
-268.324653228
  0
LINE
  8
1
 62
1
  6
HIDDEN2
 10
294.006571592
 20
-224.324653228
 11
167.006571592
 21
-224.324653228
  0
ARC
  8
1
 62
1
  6
HIDDEN2
 10
305.006571592
 20
-222.724653228
 40
0.400000000
 50
270.000000000
 51
90.000000000
  0
ARC
  8
1
 62
1
  6
HIDDEN2
 10
305.006571592
 20
-222.724653228
 40
1.000000000
 50
270.000000000
 51
90.000000000
  0
LINE
  8
1
 62
1
  6
HIDDEN2
 10
181.506571592
 20
-248.324653228
 11
279.506571592
 21
-248.324653228
  0
LINE
  8
1
 62
7
  6
CONTINUOUS
 10
286.506571592
 20
44.625346772
 11
286.506571592
 21
-15.624653228
  0
LINE
  8
1
 62
7
  6
CONTINUOUS
 10
306.506571592
 20
-68.374653228
 11
306.506571592
 21
39.625346772
  0
LINE
  8
1
 62
7
  6
CONTINUOUS
 10
301.506571592
 20
44.625346772
 11
256.506571592
 21
44.625346772
  0
LINE
  8
1
 62
1
  6
HIDDEN2
 10
-478.956709162
 20
391.527689349
 11
-478.956709162
 21
380.027689349
  0
ARC
  8
1
 62
1
  6
HIDDEN2
 10
-479.956709162
 20
391.527689349
 40
0.400000000
 50
0.000000000
 51
180.000000000
  0
ARC
  8
1
 62
1
  6
HIDDEN2
 10
-479.956709162
 20
391.527689349
 40
1.000000000
 50
0.000000000
 51
180.000000000
  0
LINE
  8
1
 62
1
  6
HIDDEN2
 10
-505.356709162
 20
223.627689349
 11
-480.956709162
 21
223.627689349
  0
LINE
  8
1
 62
1
  6
HIDDEN2
 10
-505.356709162
 20
223.027689349
 11
-505.356709162
 21
223.627689349
  0
LINE
  8
1
 62
1
  6
HIDDEN2
 10
-480.956709162
 20
391.527689349
 11
-480.956709162
 21
223.027689349
  0
LINE
  8
1
 62
1
  6
HIDDEN2
 10
-481.556709162
 20
380.527689349
 11
-481.556709162
 21
253.527689349
  0
LINE
  8
1
 62
1
  6
HIDDEN2
 10
-546.556709162
 20
364.527689349
 11
-540.556709162
 21
365.027689349
  0
LINE
  8
1
 62
7
  6
CONTINUOUS
 10
256.506571592
 20
44.625346772
 11
256.506571592
 21
-15.624653228
  0
LINE
  8
1
 62
1
  6
HIDDEN2
 10
-546.556709162
 20
269.527689349
 11
-546.556709162
 21
364.527689349
  0
LINE
  8
1
 62
2
  6
CENTER2
 10
-275.035806841
 20
66.775346772
 11
-290.405464056
 21
66.775346772
  0
LINE
  8
1
 62
2
  6
CENTER2
 10
-275.035806841
 20
-243.024653228
 11
-290.405464056
 21
-243.024653228
  0
LINE
  8
1
 62
1
  6
HIDDEN2
 10
-540.556709162
 20
269.027689349
 11
-546.556709162
 21
269.527689349
  0
LINE
  8
1
 62
1
  6
HIDDEN2
 10
177.006571592
 20
-224.324653228
 11
177.006571592
 21
-242.324653228
  0
LINE
  8
1
 62
1
  6
HIDDEN2
 10
294.006571592
 20
-224.324653228
 11
294.006571592
 21
-223.724653228
  0
LINE
  8
1
 62
1
  6
HIDDEN2
 10
284.006571592
 20
-242.324653228
 11
284.006571592
 21
-224.324653228
  0
LINE
  8
1
 62
1
  6
HIDDEN2
 10
278.506571592
 20
-283.324653228
 11
278.506571592
 21
-270.324653228
  0
LINE
  8
1
 62
1
  6
HIDDEN2
 10
182.506571592
 20
-283.324653228
 11
278.506571592
 21
-283.324653228
  0
LINE
  8
1
 62
7
  6
CONTINUOUS
 10
256.506571592
 20
32.875346772
 11
264.506571592
 21
32.875346772
  0
LINE
  8
1
 62
7
  6
CONTINUOUS
 10
265.506571592
 20
31.875346772
 11
265.506571592
 21
-15.624653228
  0
LINE
  8
1
 62
7
  6
CONTINUOUS
 10
259.006571592
 20
31.875346772
 11
259.006571592
 21
-15.624653228
  0
ARC
  8
1
 62
7
  6
CONTINUOUS
 10
258.006571592
 20
31.875346772
 40
1.000000000
 50
0.000000000
 51
90.000000000
  0
ARC
  8
1
 62
7
  6
CONTINUOUS
 10
264.506571592
 20
31.875346772
 40
1.000000000
 50
0.000000000
 51
90.000000000
  0
LINE
  8
1
 62
2
  6
CENTER2
 10
-57.956709162
 20
36.875346772
 11
-72.956709162
 21
36.875346772
  0
ARC
  8
1
 62
7
  6
CONTINUOUS
 10
301.506571592
 20
-68.374653228
 40
5.000000000
 50
334.158067237
 51
0.000000000
  0
ARC
  8
1
 62
7
  6
CONTINUOUS
 10
301.506571592
 20
39.625346772
 40
5.000000000
 50
0.000000000
 51
90.000000000
  0
LINE
  8
1
 62
1
  6
HIDDEN2
 10
-527.556709162
 20
366.027689349
 11
-525.556709162
 21
366.027689349
  0
LINE
  8
1
 62
1
  6
CONTINUOUS
 10
167.006571592
 20
-224.324653228
 11
167.006571592
 21
-223.724653228
  0
LINE
  8
1
 62
1
  6
HIDDEN2
 10
-527.556709162
 20
268.027689349
 11
-527.556709162
 21
366.027689349
  0
LINE
  8
1
 62
2
  6
CENTER2
 10
-91.606709162
 20
-243.024653228
 11
-99.106709162
 21
-243.024653228
  0
LINE
  8
1
 62
2
  6
CENTER2
 10
-466.606709162
 20
-243.024653228
 11
-474.106709162
 21
-243.024653228
  0
LINE
  8
1
 62
2
  6
CENTER2
 10
-492.756709162
 20
-213.124653228
 11
-507.756709162
 21
-213.124653228
  0
LINE
  8
1
 62
2
  6
CENTER2
 10
-65.456709162
 20
-209.374653228
 11
-65.456709162
 21
-216.874653228
  0
LINE
  8
1
 62
2
  6
CENTER2
 10
-57.956709162
 20
-213.124653228
 11
-72.956709162
 21
-213.124653228
  0
LINE
  8
1
 62
2
  6
CENTER2
 10
-65.456709162
 20
40.625346772
 11
-65.456709162
 21
33.125346772
  0
LINE
  8
1
 62
2
  6
CENTER2
 10
-492.756709162
 20
36.875346772
 11
-507.756709162
 21
36.875346772
  0
LINE
  8
1
 62
1
  6
HIDDEN2
 10
182.506571592
 20
-270.324653228
 11
182.506571592
 21
-283.324653228
  0
LINE
  8
1
 62
2
  6
CENTER2
 10
230.506571592
 20
-217.179886899
 11
230.506571592
 21
-296.818346899
  0
LINE
  8
1
 62
1
  6
HIDDEN2
 10
177.006571592
 20
-242.324653228
 11
181.506571592
 21
-248.324653228
  0
LINE
  8
1
 62
1
  6
HIDDEN2
 10
-540.556709162
 20
269.027689349
 11
-540.556709162
 21
365.027689349
  0
LINE
  8
1
 62
7
  6
CONTINUOUS
 10
-102.356709162
 20
343.827689349
 11
-102.356709162
 21
343.027689349
  0
LINE
  8
1
 62
1
  6
HIDDEN2
 10
136.506571592
 20
-235.124653228
 11
136.506571592
 21
-248.124653228
  0
LINE
  8
1
 62
1
  6
HIDDEN2
 10
-540.556709162
 20
365.027689349
 11
-527.556709162
 21
365.027689349
  0
LINE
  8
1
 62
1
  6
HIDDEN2
 10
177.006571592
 20
-242.324653228
 11
284.006571592
 21
-242.324653228
  0
LINE
  8
1
 62
1
  6
HIDDEN2
 10
305.006571592
 20
-223.124653228
 11
136.506571592
 21
-223.124653228
  0
LINE
  8
1
 62
7
  6
CONTINUOUS
 10
257.306571592
 20
-206.124653228
 11
256.506571592
 21
-206.124653228
  0
LINE
  8
1
 62
1
  6
HIDDEN2
 10
137.106571592
 20
-248.124653228
 11
137.106571592
 21
-223.724653228
  0
LINE
  8
1
 62
1
  6
HIDDEN2
 10
182.506571592
 20
-283.324653228
 11
183.006571592
 21
-289.324653228
  0
LINE
  8
1
 62
7
  6
CONTINUOUS
 10
257.806571592
 20
-222.324653228
 11
276.506571592
 21
-222.324653228
  0
ARC
  8
1
 62
7
  6
CONTINUOUS
 10
276.506571592
 20
-221.124653228
 40
1.200000000
 50
270.000000000
 51
48.000000000
  0
LINE
  8
1
 62
7
  6
CONTINUOUS
 10
277.844833592
 20
-219.638363228
 11
270.569577592
 21
-213.087693228
  0
LINE
  8
1
 62
7
  6
CONTINUOUS
 10
257.306571592
 20
-206.124653228
 11
257.306571592
 21
-221.824653228
  0
ARC
  8
1
 62
7
  6
CONTINUOUS
 10
136.906571592
 20
-223.524653228
 40
0.400000000
 50
90.000000000
 51
180.000000000
  0
LINE
  8
1
 62
1
  6
HIDDEN2
 10
181.506571592
 20
-268.324653228
 11
181.506571592
 21
-270.324653228
  0
LINE
  8
1
 62
7
  6
CONTINUOUS
 10
255.506571591
 20
46.875089171
 11
136.506571592
 21
46.875348522
  0
LINE
  8
1
 62
1
  6
HIDDEN2
 10
279.506571592
 20
-268.324653228
 11
279.506571592
 21
-248.324653228
  0
LINE
  8
1
 62
1
  6
HIDDEN2
 10
279.506571592
 20
-248.324653228
 11
284.006571592
 21
-242.324653228
  0
LINE
  8
1
 62
1
  6
HIDDEN2
 10
181.506571592
 20
-268.324653228
 11
279.506571592
 21
-268.324653228
  0
LINE
  8
1
 62
1
  6
HIDDEN2
 10
272.281949592
 20
-213.325625228
 11
271.767719592
 21
-213.938461228
  0
LINE
  8
1
 62
1
  6
HIDDEN2
 10
-527.556709162
 20
269.027689349
 11
-540.556709162
 21
269.027689349
  0
LINE
  8
1
 62
1
  6
HIDDEN2
 10
181.506571592
 20
-248.324653228
 11
181.506571592
 21
-268.324653228
  0
LINE
  8
1
 62
1
  6
HIDDEN2
 10
181.506571592
 20
-270.324653228
 11
279.506571592
 21
-270.324653228
  0
LINE
  8
1
 62
1
  6
HIDDEN2
 10
305.006571592
 20
-222.324653228
 11
305.006575592
 21
-223.124653228
  0
LINE
  8
1
 62
1
  6
HIDDEN2
 10
271.767719592
 20
-213.938461228
 11
282.715395592
 21
-223.124653228
  0
LINE
  8
1
 62
1
  6
HIDDEN2
 10
136.506571592
 20
-248.124653228
 11
137.106571592
 21
-248.124653228
  0
LINE
  8
1
 62
1
  6
HIDDEN2
 10
183.006571592
 20
-289.324653228
 11
278.006571592
 21
-289.324653228
  0
LINE
  8
1
 62
1
  6
HIDDEN2
 10
-454.356709162
 20
-289.324653228
 11
-359.356709162
 21
-289.324653228
  0
LINE
  8
1
 62
1
  6
HIDDEN2
 10
-455.856709162
 20
-270.324653228
 11
-357.856709162
 21
-270.324653228
  0
LINE
  8
1
 62
1
  6
HIDDEN2
 10
-455.856709162
 20
-264.628938931
 11
-455.856709162
 21
-268.324653228
  0
LINE
  8
1
 62
1
  6
HIDDEN2
 10
-455.856709162
 20
-268.324653228
 11
-357.856709162
 21
-268.324653228
  0
LINE
  8
1
 62
1
  6
CONTINUOUS
 10
-374.356709162
 20
-208.624653228
 11
-374.356709162
 21
-215.624653228
  0
LINE
  8
1
 62
1
  6
CONTINUOUS
 10
-374.356709162
 20
-187.624653228
 11
-374.356709162
 21
-194.624653228
  0
LINE
  8
1
 62
1
  6
CONTINUOUS
 10
-374.356709162
 20
-177.124653228
 11
-374.356709162
 21
-184.124653228
  0
LINE
  8
1
 62
1
  6
CONTINUOUS
 10
-374.356709162
 20
-166.624653228
 11
-374.356709162
 21
-173.624653228
  0
LINE
  8
1
 62
1
  6
CONTINUOUS
 10
-374.356709162
 20
-156.124653228
 11
-374.356709162
 21
-163.124653228
  0
LINE
  8
1
 62
1
  6
CONTINUOUS
 10
-374.356709162
 20
-145.624653228
 11
-374.356709162
 21
-152.624653228
  0
LINE
  8
1
 62
1
  6
CONTINUOUS
 10
-374.356709162
 20
-135.124653228
 11
-374.356709162
 21
-142.124653228
  0
LINE
  8
1
 62
1
  6
CONTINUOUS
 10
-374.356709162
 20
-124.624653228
 11
-374.356709162
 21
-131.624653228
  0
LINE
  8
1
 62
1
  6
CONTINUOUS
 10
-374.356709162
 20
-114.124653228
 11
-374.356709162
 21
-121.124653228
  0
LINE
  8
1
 62
1
  6
CONTINUOUS
 10
-374.356709162
 20
-103.624653228
 11
-374.356709162
 21
-110.624653228
  0
LINE
  8
1
 62
1
  6
CONTINUOUS
 10
-374.356709162
 20
-93.124653228
 11
-374.356709162
 21
-100.124653228
  0
LINE
  8
1
 62
1
  6
CONTINUOUS
 10
-372.356709162
 20
-93.124653228
 11
-372.356709162
 21
-100.124653228
  0
LINE
  8
1
 62
1
  6
CONTINUOUS
 10
-372.356709162
 20
-103.624653228
 11
-372.356709162
 21
-110.624653228
  0
LINE
  8
1
 62
1
  6
CONTINUOUS
 10
-372.356709162
 20
-114.124653228
 11
-372.356709162
 21
-121.124653228
  0
LINE
  8
1
 62
1
  6
CONTINUOUS
 10
-372.356709162
 20
-124.624653228
 11
-372.356709162
 21
-131.624653228
  0
LINE
  8
1
 62
1
  6
CONTINUOUS
 10
-372.356709162
 20
-135.124653228
 11
-372.356709162
 21
-142.124653228
  0
LINE
  8
1
 62
1
  6
CONTINUOUS
 10
-372.356709162
 20
-145.624653228
 11
-372.356709162
 21
-152.624653228
  0
LINE
  8
1
 62
1
  6
CONTINUOUS
 10
-372.356709162
 20
-156.124653228
 11
-372.356709162
 21
-163.124653228
  0
LINE
  8
1
 62
1
  6
CONTINUOUS
 10
-372.356709162
 20
-166.624653228
 11
-372.356709162
 21
-173.624653228
  0
LINE
  8
1
 62
1
  6
CONTINUOUS
 10
-372.356709162
 20
-177.124653228
 11
-372.356709162
 21
-184.124653228
  0
LINE
  8
1
 62
1
  6
CONTINUOUS
 10
-372.356709162
 20
-187.624653228
 11
-372.356709162
 21
-194.624653228
  0
LINE
  8
1
 62
1
  6
CONTINUOUS
 10
-372.356709162
 20
-198.124653228
 11
-372.356709162
 21
-205.124653228
  0
LINE
  8
1
 62
1
  6
CONTINUOUS
 10
-372.356709162
 20
-208.624653228
 11
-372.356709162
 21
-215.624653228
  0
LINE
  8
1
 62
1
  6
CONTINUOUS
 10
-193.356709162
 20
-208.624653228
 11
-193.356709162
 21
-215.624653228
  0
LINE
  8
1
 62
1
  6
CONTINUOUS
 10
-193.356709162
 20
-198.124653228
 11
-193.356709162
 21
-205.124653228
  0
LINE
  8
1
 62
1
  6
CONTINUOUS
 10
-193.356709162
 20
-187.624653228
 11
-193.356709162
 21
-194.624653228
  0
LINE
  8
1
 62
1
  6
CONTINUOUS
 10
-193.356709162
 20
-177.124653228
 11
-193.356709162
 21
-184.124653228
  0
LINE
  8
1
 62
1
  6
CONTINUOUS
 10
-193.356709162
 20
-166.624653228
 11
-193.356709162
 21
-173.624653228
  0
LINE
  8
1
 62
1
  6
CONTINUOUS
 10
-193.356709162
 20
-156.124653228
 11
-193.356709162
 21
-163.124653228
  0
LINE
  8
1
 62
1
  6
CONTINUOUS
 10
-193.356709162
 20
-145.624653228
 11
-193.356709162
 21
-152.624653228
  0
LINE
  8
1
 62
1
  6
CONTINUOUS
 10
-193.356709162
 20
-135.124653228
 11
-193.356709162
 21
-142.124653228
  0
LINE
  8
1
 62
1
  6
CONTINUOUS
 10
-193.356709162
 20
-124.624653228
 11
-193.356709162
 21
-131.624653228
  0
LINE
  8
1
 62
1
  6
CONTINUOUS
 10
-193.356709162
 20
-114.124653228
 11
-193.356709162
 21
-121.124653228
  0
LINE
  8
1
 62
1
  6
CONTINUOUS
 10
-193.356709162
 20
-103.624653228
 11
-193.356709162
 21
-110.624653228
  0
LINE
  8
1
 62
1
  6
CONTINUOUS
 10
-193.356709162
 20
-93.124653228
 11
-193.356709162
 21
-100.124653228
  0
LINE
  8
1
 62
1
  6
CONTINUOUS
 10
-191.356709162
 20
-93.124653228
 11
-191.356709162
 21
-100.124653228
  0
LINE
  8
1
 62
1
  6
CONTINUOUS
 10
-191.356709162
 20
-103.624653228
 11
-191.356709162
 21
-110.624653228
  0
LINE
  8
1
 62
1
  6
CONTINUOUS
 10
-191.356709162
 20
-114.124653228
 11
-191.356709162
 21
-121.124653228
  0
LINE
  8
1
 62
1
  6
CONTINUOUS
 10
-191.356709162
 20
-124.624653228
 11
-191.356709162
 21
-131.624653228
  0
LINE
  8
1
 62
1
  6
CONTINUOUS
 10
-191.356709162
 20
-135.124653228
 11
-191.356709162
 21
-142.124653228
  0
LINE
  8
1
 62
1
  6
CONTINUOUS
 10
-191.356709162
 20
-145.624653228
 11
-191.356709162
 21
-152.624653228
  0
LINE
  8
1
 62
1
  6
CONTINUOUS
 10
-191.356709162
 20
-156.124653228
 11
-191.356709162
 21
-163.124653228
  0
LINE
  8
1
 62
1
  6
CONTINUOUS
 10
-191.356709162
 20
-166.624653228
 11
-191.356709162
 21
-173.624653228
  0
LINE
  8
1
 62
1
  6
CONTINUOUS
 10
-191.356709162
 20
-177.124653228
 11
-191.356709162
 21
-184.124653228
  0
LINE
  8
1
 62
1
  6
CONTINUOUS
 10
-191.356709162
 20
-187.624653228
 11
-191.356709162
 21
-194.624653228
  0
LINE
  8
1
 62
7
  6
CONTINUOUS
 10
-497.056709162
 20
51.875346772
 11
-437.856709162
 21
51.875346772
  0
LINE
  8
1
 62
1
  6
CONTINUOUS
 10
-191.356709162
 20
-208.624653228
 11
-191.356709162
 21
-215.624653228
  0
ARC
  8
1
 62
7
  6
CONTINUOUS
 10
-7693.106708722
 20
-88.124653228
 40
7657.249999546
 50
358.905665021
 51
1.094334979
  0
ARC
  8
1
 62
7
  6
CONTINUOUS
 10
-282.856709162
 20
9739.542012867
 40
10005.666666084
 50
268.761542619
 51
271.238457381
  0
ARC
  8
1
 62
7
  6
CONTINUOUS
 10
7127.393290399
 20
-88.124653228
 40
7657.249999546
 50
178.905665021
 51
181.094334979
  0
ARC
  8
1
 62
7
  6
CONTINUOUS
 10
-282.856709162
 20
-9915.791319323
 40
10005.666666084
 50
88.761542619
 51
91.238457381
  0
ARC
  8
1
 62
7
  6
CONTINUOUS
 10
-498.465539555
 20
57.545046472
 40
29.999999998
 50
91.238457381
 51
178.905665021
  0
ARC
  8
1
 62
7
  6
CONTINUOUS
 10
-498.465539555
 20
-233.794352929
 40
29.999999998
 50
181.094334979
 51
268.761542619
  0
ARC
  8
1
 62
7
  6
CONTINUOUS
 10
-67.247878768
 20
-233.794352929
 40
29.999999998
 50
271.238457381
 51
358.905665021
  0
ARC
  8
1
 62
7
  6
CONTINUOUS
 10
-67.247878768
 20
57.545046472
 40
29.999999998
 50
1.094334979
 51
88.761542619
  0
LINE
  8
1
 62
1
  6
CONTINUOUS
 10
-374.356709162
 20
-198.124653228
 11
-374.356709162
 21
-205.124653228
  0
LINE
  8
1
 62
1
  6
CONTINUOUS
 10
-455.356709162
 20
-82.624653228
 11
-110.356709162
 21
-82.624653228
  0
LINE
  8
1
 62
4
  6
CONTINUOUS
 10
-110.356709162
 20
41.875346772
 11
-111.856709162
 21
41.875346772
  0
LINE
  8
1
 62
1
  6
CONTINUOUS
 10
-457.356709162
 20
47.093520701
 11
-457.356709162
 21
-86.354198038
  0
LINE
  8
1
 62
1
  6
CONTINUOUS
 10
-108.356709162
 20
-86.354198038
 11
-108.356709162
 21
47.093520701
  0
ARC
  8
1
 62
4
  6
CONTINUOUS
 10
-455.356709162
 20
39.875346772
 40
2.000000000
 50
90.000000000
 51
180.000000000
  0
ARC
  8
1
 62
1
  6
CONTINUOUS
 10
-455.356709162
 20
-80.624653228
 40
2.000000000
 50
180.000000000
 51
270.000000000
  0
ARC
  8
1
 62
1
  6
CONTINUOUS
 10
-110.356709162
 20
-80.624653228
 40
2.000000000
 50
270.000000000
 51
0.000000000
  0
ARC
  8
1
 62
4
  6
CONTINUOUS
 10
-110.356709162
 20
39.875346772
 40
2.000000000
 50
0.000000000
 51
90.000000000
  0
LINE
  8
1
 62
1
  6
CONTINUOUS
 10
-457.356709162
 20
47.093520701
 11
-108.356709162
 21
47.093520701
  0
LINE
  8
1
 62
1
  6
CONTINUOUS
 10
-457.356709162
 20
-86.354198038
 11
-108.356709162
 21
-86.354198038
  0
LINE
  8
1
 62
1
  6
CONTINUOUS
 10
-457.356709162
 20
-93.124653228
 11
-282.856709162
 21
-93.124653228
  0
LINE
  8
1
 62
1
  6
CONTINUOUS
 10
-457.356709162
 20
-100.124653228
 11
-282.856709162
 21
-100.124653228
  0
LINE
  8
1
 62
1
  6
CONTINUOUS
 10
-457.356709162
 20
-103.624653228
 11
-282.856709162
 21
-103.624653228
  0
LINE
  8
1
 62
1
  6
CONTINUOUS
 10
-457.356709162
 20
-110.624653228
 11
-282.856709162
 21
-110.624653228
  0
LINE
  8
1
 62
1
  6
CONTINUOUS
 10
-457.356709162
 20
-114.124653228
 11
-282.856709162
 21
-114.124653228
  0
LINE
  8
1
 62
1
  6
CONTINUOUS
 10
-457.356709162
 20
-121.124653228
 11
-282.856709162
 21
-121.124653228
  0
LINE
  8
1
 62
1
  6
CONTINUOUS
 10
-457.356709162
 20
-124.624653228
 11
-282.856709162
 21
-124.624653228
  0
LINE
  8
1
 62
1
  6
CONTINUOUS
 10
-457.356709162
 20
-131.624653228
 11
-282.856709162
 21
-131.624653228
  0
LINE
  8
1
 62
1
  6
CONTINUOUS
 10
-457.356709162
 20
-135.124653228
 11
-282.856709162
 21
-135.124653228
  0
LINE
  8
1
 62
1
  6
CONTINUOUS
 10
-457.356709162
 20
-142.124653228
 11
-282.856709162
 21
-142.124653228
  0
LINE
  8
1
 62
1
  6
CONTINUOUS
 10
-457.356709162
 20
-145.624653228
 11
-282.856709162
 21
-145.624653228
  0
LINE
  8
1
 62
1
  6
CONTINUOUS
 10
-457.356709162
 20
-152.624653228
 11
-282.856709162
 21
-152.624653228
  0
LINE
  8
1
 62
1
  6
CONTINUOUS
 10
-457.356709162
 20
-156.124653228
 11
-282.856709162
 21
-156.124653228
  0
LINE
  8
1
 62
1
  6
CONTINUOUS
 10
-457.356709162
 20
-163.124653228
 11
-282.856709162
 21
-163.124653228
  0
LINE
  8
1
 62
1
  6
CONTINUOUS
 10
-457.356709162
 20
-166.624653228
 11
-282.856709162
 21
-166.624653228
  0
LINE
  8
1
 62
1
  6
CONTINUOUS
 10
-457.356709162
 20
-173.624653228
 11
-282.856709162
 21
-173.624653228
  0
LINE
  8
1
 62
1
  6
CONTINUOUS
 10
-457.356709162
 20
-177.124653228
 11
-282.856709162
 21
-177.124653228
  0
LINE
  8
1
 62
1
  6
CONTINUOUS
 10
-457.356709162
 20
-184.124653228
 11
-282.856709162
 21
-184.124653228
  0
LINE
  8
1
 62
1
  6
CONTINUOUS
 10
-457.356709162
 20
-187.624653228
 11
-282.856709162
 21
-187.624653228
  0
LINE
  8
1
 62
1
  6
CONTINUOUS
 10
-457.356709162
 20
-194.624653228
 11
-282.856709162
 21
-194.624653228
  0
LINE
  8
1
 62
1
  6
CONTINUOUS
 10
-457.356709162
 20
-198.124653228
 11
-282.856709162
 21
-198.124653228
  0
LINE
  8
1
 62
1
  6
CONTINUOUS
 10
-457.356709162
 20
-205.124653228
 11
-282.856709162
 21
-205.124653228
  0
LINE
  8
1
 62
1
  6
CONTINUOUS
 10
-457.356709162
 20
-208.624653228
 11
-282.856709162
 21
-208.624653228
  0
LINE
  8
1
 62
1
  6
CONTINUOUS
 10
-457.356709162
 20
-215.624653228
 11
-282.856709162
 21
-215.624653228
  0
LINE
  8
1
 62
1
  6
CONTINUOUS
 10
-457.356709162
 20
-93.124653228
 11
-457.356709162
 21
-100.124653228
  0
LINE
  8
1
 62
1
  6
CONTINUOUS
 10
-457.356709162
 20
-103.624653228
 11
-457.356709162
 21
-110.624653228
  0
LINE
  8
1
 62
1
  6
CONTINUOUS
 10
-457.356709162
 20
-114.124653228
 11
-457.356709162
 21
-121.124653228
  0
LINE
  8
1
 62
1
  6
CONTINUOUS
 10
-457.356709162
 20
-124.624653228
 11
-457.356709162
 21
-131.624653228
  0
LINE
  8
1
 62
1
  6
CONTINUOUS
 10
-457.356709162
 20
-135.124653228
 11
-457.356709162
 21
-142.124653228
  0
LINE
  8
1
 62
1
  6
CONTINUOUS
 10
-457.356709162
 20
-145.624653228
 11
-457.356709162
 21
-152.624653228
  0
LINE
  8
1
 62
1
  6
CONTINUOUS
 10
-457.356709162
 20
-156.124653228
 11
-457.356709162
 21
-163.124653228
  0
LINE
  8
1
 62
1
  6
CONTINUOUS
 10
-457.356709162
 20
-166.624653228
 11
-457.356709162
 21
-173.624653228
  0
LINE
  8
1
 62
1
  6
CONTINUOUS
 10
-457.356709162
 20
-177.124653228
 11
-457.356709162
 21
-184.124653228
  0
LINE
  8
1
 62
1
  6
CONTINUOUS
 10
-457.356709162
 20
-187.624653228
 11
-457.356709162
 21
-194.624653228
  0
LINE
  8
1
 62
1
  6
CONTINUOUS
 10
-457.356709162
 20
-198.124653228
 11
-457.356709162
 21
-205.124653228
  0
LINE
  8
1
 62
1
  6
CONTINUOUS
 10
-457.356709162
 20
-208.624653228
 11
-457.356709162
 21
-215.624653228
  0
LINE
  8
1
 62
1
  6
CONTINUOUS
 10
-283.856709162
 20
-208.624653228
 11
-283.856709162
 21
-215.624653228
  0
LINE
  8
1
 62
1
  6
CONTINUOUS
 10
-283.856709162
 20
-198.124653228
 11
-283.856709162
 21
-205.124653228
  0
LINE
  8
1
 62
1
  6
CONTINUOUS
 10
-283.856709162
 20
-187.624653228
 11
-283.856709162
 21
-194.624653228
  0
LINE
  8
1
 62
1
  6
CONTINUOUS
 10
-283.856709162
 20
-177.124653228
 11
-283.856709162
 21
-184.124653228
  0
LINE
  8
1
 62
1
  6
CONTINUOUS
 10
-283.856709162
 20
-166.624653228
 11
-283.856709162
 21
-173.624653228
  0
LINE
  8
1
 62
1
  6
CONTINUOUS
 10
-283.856709162
 20
-156.124653228
 11
-283.856709162
 21
-163.124653228
  0
LINE
  8
1
 62
1
  6
CONTINUOUS
 10
-283.856709162
 20
-145.624653228
 11
-283.856709162
 21
-152.624653228
  0
LINE
  8
1
 62
1
  6
CONTINUOUS
 10
-283.856709162
 20
-135.124653228
 11
-283.856709162
 21
-142.124653228
  0
LINE
  8
1
 62
1
  6
CONTINUOUS
 10
-283.856709162
 20
-124.624653228
 11
-283.856709162
 21
-131.624653228
  0
LINE
  8
1
 62
1
  6
CONTINUOUS
 10
-283.856709162
 20
-114.124653228
 11
-283.856709162
 21
-121.124653228
  0
LINE
  8
1
 62
1
  6
CONTINUOUS
 10
-283.856709162
 20
-103.624653228
 11
-283.856709162
 21
-110.624653228
  0
LINE
  8
1
 62
1
  6
CONTINUOUS
 10
-283.856709162
 20
-93.124653228
 11
-283.856709162
 21
-100.124653228
  0
LINE
  8
1
 62
1
  6
CONTINUOUS
 10
-281.856709162
 20
-93.124653228
 11
-281.856709162
 21
-100.124653228
  0
LINE
  8
1
 62
1
  6
CONTINUOUS
 10
-281.856709162
 20
-103.624653228
 11
-281.856709162
 21
-110.624653228
  0
LINE
  8
1
 62
1
  6
CONTINUOUS
 10
-281.856709162
 20
-114.124653228
 11
-281.856709162
 21
-121.124653228
  0
LINE
  8
1
 62
1
  6
CONTINUOUS
 10
-281.856709162
 20
-124.624653228
 11
-281.856709162
 21
-131.624653228
  0
LINE
  8
1
 62
1
  6
CONTINUOUS
 10
-281.856709162
 20
-135.124653228
 11
-281.856709162
 21
-142.124653228
  0
LINE
  8
1
 62
1
  6
CONTINUOUS
 10
-281.856709162
 20
-145.624653228
 11
-281.856709162
 21
-152.624653228
  0
LINE
  8
1
 62
1
  6
CONTINUOUS
 10
-281.856709162
 20
-156.124653228
 11
-281.856709162
 21
-163.124653228
  0
LINE
  8
1
 62
1
  6
CONTINUOUS
 10
-281.856709162
 20
-166.624653228
 11
-281.856709162
 21
-173.624653228
  0
LINE
  8
1
 62
1
  6
CONTINUOUS
 10
-281.856709162
 20
-177.124653228
 11
-281.856709162
 21
-184.124653228
  0
LINE
  8
1
 62
1
  6
CONTINUOUS
 10
-281.856709162
 20
-187.624653228
 11
-281.856709162
 21
-194.624653228
  0
LINE
  8
1
 62
1
  6
CONTINUOUS
 10
-281.856709162
 20
-198.124653228
 11
-281.856709162
 21
-205.124653228
  0
LINE
  8
1
 62
1
  6
CONTINUOUS
 10
-281.856709162
 20
-208.624653228
 11
-281.856709162
 21
-215.624653228
  0
LINE
  8
1
 62
1
  6
CONTINUOUS
 10
-108.356709162
 20
-208.624653228
 11
-108.356709162
 21
-215.624653228
  0
LINE
  8
1
 62
1
  6
CONTINUOUS
 10
-108.356709162
 20
-198.124653228
 11
-108.356709162
 21
-205.124653228
  0
LINE
  8
1
 62
1
  6
CONTINUOUS
 10
-108.356709162
 20
-187.624653228
 11
-108.356709162
 21
-194.624653228
  0
LINE
  8
1
 62
1
  6
CONTINUOUS
 10
-108.356709162
 20
-177.124653228
 11
-108.356709162
 21
-184.124653228
  0
LINE
  8
1
 62
1
  6
CONTINUOUS
 10
-108.356709162
 20
-166.624653228
 11
-108.356709162
 21
-173.624653228
  0
LINE
  8
1
 62
1
  6
CONTINUOUS
 10
-108.356709162
 20
-156.124653228
 11
-108.356709162
 21
-163.124653228
  0
LINE
  8
1
 62
1
  6
CONTINUOUS
 10
-108.356709162
 20
-145.624653228
 11
-108.356709162
 21
-152.624653228
  0
LINE
  8
1
 62
1
  6
CONTINUOUS
 10
-108.356709162
 20
-135.124653228
 11
-108.356709162
 21
-142.124653228
  0
LINE
  8
1
 62
1
  6
CONTINUOUS
 10
-108.356709162
 20
-124.624653228
 11
-108.356709162
 21
-131.624653228
  0
LINE
  8
1
 62
1
  6
CONTINUOUS
 10
-108.356709162
 20
-114.124653228
 11
-108.356709162
 21
-121.124653228
  0
LINE
  8
1
 62
1
  6
CONTINUOUS
 10
-108.356709162
 20
-103.624653228
 11
-108.356709162
 21
-110.624653228
  0
LINE
  8
1
 62
1
  6
CONTINUOUS
 10
-108.356709162
 20
-93.124653228
 11
-108.356709162
 21
-100.124653228
  0
LINE
  8
1
 62
1
  6
CONTINUOUS
 10
-108.356709162
 20
-215.624653228
 11
-282.856709162
 21
-215.624653228
  0
LINE
  8
1
 62
1
  6
CONTINUOUS
 10
-108.356709162
 20
-208.624653228
 11
-282.856709162
 21
-208.624653228
  0
LINE
  8
1
 62
1
  6
CONTINUOUS
 10
-108.356709162
 20
-205.124653228
 11
-282.856709162
 21
-205.124653228
  0
LINE
  8
1
 62
1
  6
CONTINUOUS
 10
-108.356709162
 20
-198.124653228
 11
-282.856709162
 21
-198.124653228
  0
LINE
  8
1
 62
1
  6
CONTINUOUS
 10
-108.356709162
 20
-194.624653228
 11
-282.856709162
 21
-194.624653228
  0
LINE
  8
1
 62
1
  6
CONTINUOUS
 10
-108.356709162
 20
-187.624653228
 11
-282.856709162
 21
-187.624653228
  0
LINE
  8
1
 62
1
  6
CONTINUOUS
 10
-108.356709162
 20
-184.124653228
 11
-282.856709162
 21
-184.124653228
  0
LINE
  8
1
 62
1
  6
CONTINUOUS
 10
-108.356709162
 20
-177.124653228
 11
-282.856709162
 21
-177.124653228
  0
LINE
  8
1
 62
1
  6
CONTINUOUS
 10
-108.356709162
 20
-173.624653228
 11
-282.856709162
 21
-173.624653228
  0
LINE
  8
1
 62
1
  6
CONTINUOUS
 10
-108.356709162
 20
-166.624653228
 11
-282.856709162
 21
-166.624653228
  0
LINE
  8
1
 62
1
  6
CONTINUOUS
 10
-108.356709162
 20
-163.124653228
 11
-282.856709162
 21
-163.124653228
  0
LINE
  8
1
 62
1
  6
CONTINUOUS
 10
-108.356709162
 20
-156.124653228
 11
-282.856709162
 21
-156.124653228
  0
LINE
  8
1
 62
1
  6
CONTINUOUS
 10
-108.356709162
 20
-152.624653228
 11
-282.856709162
 21
-152.624653228
  0
LINE
  8
1
 62
1
  6
CONTINUOUS
 10
-108.356709162
 20
-145.624653228
 11
-282.856709162
 21
-145.624653228
  0
LINE
  8
1
 62
1
  6
CONTINUOUS
 10
-108.356709162
 20
-142.124653228
 11
-282.856709162
 21
-142.124653228
  0
LINE
  8
1
 62
1
  6
CONTINUOUS
 10
-108.356709162
 20
-135.124653228
 11
-282.856709162
 21
-135.124653228
  0
LINE
  8
1
 62
1
  6
CONTINUOUS
 10
-108.356709162
 20
-131.624653228
 11
-282.856709162
 21
-131.624653228
  0
LINE
  8
1
 62
1
  6
CONTINUOUS
 10
-108.356709162
 20
-124.624653228
 11
-282.856709162
 21
-124.624653228
  0
LINE
  8
1
 62
1
  6
CONTINUOUS
 10
-108.356709162
 20
-121.124653228
 11
-282.856709162
 21
-121.124653228
  0
LINE
  8
1
 62
1
  6
CONTINUOUS
 10
-108.356709162
 20
-114.124653228
 11
-282.856709162
 21
-114.124653228
  0
LINE
  8
1
 62
1
  6
CONTINUOUS
 10
-108.356709162
 20
-110.624653228
 11
-282.856709162
 21
-110.624653228
  0
LINE
  8
1
 62
1
  6
CONTINUOUS
 10
-108.356709162
 20
-103.624653228
 11
-282.856709162
 21
-103.624653228
  0
LINE
  8
1
 62
1
  6
CONTINUOUS
 10
-108.356709162
 20
-100.124653228
 11
-282.856709162
 21
-100.124653228
  0
LINE
  8
1
 62
1
  6
CONTINUOUS
 10
-108.356709162
 20
-93.124653228
 11
-282.856709162
 21
-93.124653228
  0
LINE
  8
1
 62
1
  6
CONTINUOUS
 10
-191.356709162
 20
-198.124653228
 11
-191.356709162
 21
-205.124653228
  0
LINE
  8
1
 62
7
  6
CONTINUOUS
 10
-437.856709162
 20
59.875346772
 11
-497.056709162
 21
59.875346772
  0
LINE
  8
1
 62
7
  6
CONTINUOUS
 10
-437.856709162
 20
51.875346772
 11
-437.856709162
 21
59.875346772
  0
ARC
  8
1
 62
7
  6
CONTINUOUS
 10
122.680307282
 20
69.630962451
 40
20.000000000
 50
90.999997412
 51
168.292521181
  0
ARC
  8
1
 62
7
  6
CONTINUOUS
 10
122.680307282
 20
-245.880268907
 40
20.000000000
 50
191.707478819
 51
269.000002349
  0
ARC
  8
1
 62
7
  6
CONTINUOUS
 10
883.952935413
 20
-88.124653228
 40
797.446363819
 50
168.292521181
 51
191.707478819
  0
LINE
  8
1
 62
7
  6
CONTINUOUS
 10
136.506571592
 20
89.875346772
 11
122.331259973
 21
89.627916369
  0
LINE
  8
1
 62
7
  6
CONTINUOUS
 10
122.331259973
 20
-265.877222825
 11
136.506571592
 21
-266.124653228
  0
LINE
  8
1
 62
7
  6
CONTINUOUS
 10
136.506571592
 20
-266.124653228
 11
136.506571592
 21
89.875346772
  0
ARC
  8
1
 62
1
  6
HIDDEN2
 10
-282.856709162
 20
70.525346772
 40
2.250000000
 50
0.000000000
 51
180.000000000
  0
ARC
  8
1
 62
1
  6
HIDDEN2
 10
-282.856709162
 20
63.025346772
 40
2.250000000
 50
180.000000000
 51
0.000000000
  0
LINE
  8
1
 62
1
  6
HIDDEN2
 10
-280.606709162
 20
70.525346772
 11
-280.606709162
 21
63.025346772
  0
LINE
  8
1
 62
1
  6
HIDDEN2
 10
-285.106709162
 20
70.525346772
 11
-285.106709162
 21
63.025336772
  0
LINE
  8
1
 62
1
  6
HIDDEN2
 10
-285.106709162
 20
-246.774653228
 11
-285.106709162
 21
-239.274645228
  0
LINE
  8
1
 62
1
  6
HIDDEN2
 10
-280.606709162
 20
-246.774653228
 11
-280.606709162
 21
-239.274653228
  0
ARC
  8
1
 62
1
  6
HIDDEN2
 10
-282.856709162
 20
-239.274653228
 40
2.250000000
 50
0.000000000
 51
180.000000000
  0
ARC
  8
1
 62
1
  6
HIDDEN2
 10
-282.856709162
 20
-246.774653228
 40
2.250000000
 50
180.000000000
 51
0.000000000
  0
ARC
  8
1
 62
1
  6
HIDDEN2
 10
-69.206709162
 20
-213.124653228
 40
2.250000000
 50
90.000000000
 51
270.000000000
  0
LINE
  8
1
 62
1
  6
HIDDEN2
 10
-69.206709162
 20
-215.374653228
 11
-61.706709162
 21
-215.374653228
  0
ARC
  8
1
 62
1
  6
HIDDEN2
 10
-61.706709162
 20
-213.124653228
 40
2.250000000
 50
270.000000000
 51
90.000000000
  0
LINE
  8
1
 62
1
  6
HIDDEN2
 10
-61.706709162
 20
-210.874653228
 11
-69.206709162
 21
-210.874653228
  0
LINE
  8
1
 62
7
  6
CONTINUOUS
 10
246.506571592
 20
36.875346772
 11
136.506571592
 21
36.875346772
  0
LINE
  8
1
 62
7
  6
CONTINUOUS
 10
246.506571592
 20
36.875346772
 11
256.213677592
 21
46.582452772
  0
ARC
  8
1
 62
7
  6
CONTINUOUS
 10
259.506571592
 20
-207.255967228
 40
3.000000000
 50
95.000000000
 51
180.000000000
  0
LINE
  8
1
 62
7
  6
CONTINUOUS
 10
269.568037592
 20
-203.364243228
 11
259.245103592
 21
-204.267383228
  0
ARC
  8
1
 62
7
  6
CONTINUOUS
 10
269.306571592
 20
-200.375659228
 40
3.000000000
 50
275.000000000
 51
0.000000000
  0
LINE
  8
1
 62
1
  6
HIDDEN2
 10
283.006571592
 20
-222.324653228
 11
272.281949592
 21
-213.325625228
  0
LINE
  8
1
 62
7
  6
CONTINUOUS
 10
256.506571592
 20
45.875346772
 11
256.506571592
 21
-15.624653228
  0
LINE
  8
1
 62
7
  6
CONTINUOUS
 10
255.506571592
 20
-223.124653228
 11
136.506571592
 21
-223.124653228
  0
ARC
  8
1
 62
7
  6
CONTINUOUS
 10
255.506571592
 20
45.875346772
 40
1.000000000
 50
0.000000000
 51
90.000000000
  0
ARC
  8
1
 62
7
  6
CONTINUOUS
 10
255.506571592
 20
-222.124653228
 40
1.000000000
 50
270.000000000
 51
0.000000000
  0
LINE
  8
1
 62
7
  6
CONTINUOUS
 10
256.506571592
 20
-160.624653228
 11
256.506571592
 21
-222.124653228
  0
LINE
  8
1
 62
7
  6
CONTINUOUS
 10
246.506571592
 20
-160.624653228
 11
246.506571592
 21
-213.124653228
  0
LINE
  8
1
 62
7
  6
CONTINUOUS
 10
-497.056709162
 20
59.875346772
 11
-497.056709162
 21
51.875346772
  0
LINE
  8
1
 62
2
  6
CENTER2
 10
320.387449592
 20
-88.124653228
 11
70.989403592
 21
-88.124653228
  0
LINE
  8
1
 62
1
  6
HIDDEN2
 10
-505.556709162
 20
366.027689349
 11
-499.556709162
 21
370.527689349
  0
LINE
  8
1
 62
1
  6
HIDDEN2
 10
-505.556709162
 20
268.027689349
 11
-505.556709162
 21
366.027689349
  0
LINE
  8
1
 62
1
  6
HIDDEN2
 10
-499.556709162
 20
263.527689349
 11
-505.556709162
 21
268.027689349
  0
LINE
  8
1
 62
7
  6
CONTINUOUS
 10
272.306571592
 20
-160.624653228
 11
272.306571592
 21
-200.375659228
  0
LINE
  8
1
 62
7
  6
CONTINUOUS
 10
246.506571592
 20
-213.124653228
 11
256.213677592
 21
-222.831759228
  0
LINE
  8
1
 62
7
  6
CONTINUOUS
 10
246.506571592
 20
-213.124653228
 11
136.506571592
 21
-213.124653228
  0
LINE
  8
1
 62
7
  6
CONTINUOUS
 10
246.506571592
 20
36.875346772
 11
246.506571592
 21
-15.624653228
  0
LINE
  8
1
 62
1
  6
HIDDEN2
 10
-499.556709162
 20
263.527689349
 11
-499.556709162
 21
370.527689349
  0
LINE
  8
1
 62
1
  6
HIDDEN2
 10
136.506571592
 20
-223.124653228
 11
136.506571592
 21
-227.624653228
  0
LINE
  8
1
 62
2
  6
CENTER2
 10
-282.856709162
 20
-293.818185553
 11
-282.856709162
 21
105.867176941
  0
LINE
  8
1
 62
2
  6
CENTER2
 10
-0.844748918
 20
-88.124653228
 11
-564.893057659
 21
-88.124653228
  0
LINE
  8
1
 62
7
  6
CONTINUOUS
 10
-19.156709162
 20
-135.624653228
 11
-25.156709162
 21
-136.124653228
  0
LINE
  8
1
 62
7
  6
CONTINUOUS
 10
-19.156709162
 20
-40.624653228
 11
-19.156709162
 21
-135.624653228
  0
LINE
  8
1
 62
7
  6
CONTINUOUS
 10
-25.156709162
 20
-40.124653228
 11
-19.156709162
 21
-40.624653228
  0
LINE
  8
1
 62
7
  6
CONTINUOUS
 10
-25.156709162
 20
-136.124653228
 11
-36.007156310
 21
-136.124653228
  0
LINE
  8
1
 62
7
  6
CONTINUOUS
 10
-25.156709162
 20
-40.124653228
 11
-25.156709162
 21
-136.124653228
  0
LINE
  8
1
 62
7
  6
CONTINUOUS
 10
-36.007156310
 20
-40.124653228
 11
-25.156709162
 21
-40.124653228
  0
LINE
  8
1
 62
1
  6
CONTINUOUS
 10
-108.356709162
 20
-40.346782192
 11
-457.356709162
 21
-40.346782192
  0
LINE
  8
1
 62
1
  6
CONTINUOUS
 10
-457.356709162
 20
-50.846782192
 11
-108.356709162
 21
-50.846782192
  0
ARC
  8
1
 62
1
  6
HIDDEN2
 10
-95.356709162
 20
-239.274653228
 40
2.250000000
 50
0.000000000
 51
180.000000000
  0
LINE
  8
1
 62
1
  6
HIDDEN2
 10
-93.106709162
 20
-239.274653228
 11
-93.106709162
 21
-246.774653228
  0
ARC
  8
1
 62
1
  6
HIDDEN2
 10
-95.356709162
 20
-246.774653228
 40
2.250000000
 50
180.000000000
 51
0.000000000
  0
LINE
  8
1
 62
1
  6
HIDDEN2
 10
-97.606709162
 20
-246.774653228
 11
-97.606709162
 21
-239.274645228
  0
LINE
  8
1
 62
2
  6
CENTER2
 10
-470.356709162
 20
-250.524653228
 11
-470.356709162
 21
-235.524653228
  0
LINE
  8
1
 62
2
  6
CENTER2
 10
-500.256709162
 20
-209.374653228
 11
-500.256709162
 21
-216.874653228
  0
LINE
  8
1
 62
2
  6
CENTER2
 10
-500.256709162
 20
40.625346772
 11
-500.256709162
 21
33.125346772
  0
LINE
  8
1
 62
2
  6
CENTER2
 10
-95.356709162
 20
-250.524653228
 11
-95.356709162
 21
-235.524653228
  0
LINE
  8
1
 62
2
  6
CENTER2
 10
-470.356709162
 20
59.275346772
 11
-470.356709162
 21
74.275346772
  0
LINE
  8
1
 62
2
  6
CENTER2
 10
-91.606709162
 20
66.775354772
 11
-99.106709162
 21
66.775354772
  0
LINE
  8
1
 62
2
  6
CENTER2
 10
-466.606709162
 20
66.775346772
 11
-474.106709162
 21
66.775346772
  0
LINE
  8
1
 62
2
  6
CENTER2
 10
-95.356709162
 20
59.275354772
 11
-95.356709162
 21
74.275354772
  0
LINE
  8
1
 62
1
  6
HIDDEN2
 10
-504.006709162
 20
-210.874653228
 11
-496.506709162
 21
-210.874653228
  0
ARC
  8
1
 62
1
  6
HIDDEN2
 10
-504.006709162
 20
-213.124653228
 40
2.250000000
 50
90.000000000
 51
270.000000000
  0
LINE
  8
1
 62
1
  6
HIDDEN2
 10
-496.506709162
 20
-215.374653228
 11
-504.006709162
 21
-215.374653228
  0
ARC
  8
1
 62
1
  6
HIDDEN2
 10
-496.506709162
 20
-213.124653228
 40
2.250000000
 50
270.000000000
 51
90.000000000
  0
ARC
  8
1
 62
1
  6
HIDDEN2
 10
-69.206709162
 20
36.875346772
 40
2.250000000
 50
90.000000000
 51
270.000000000
  0
LINE
  8
1
 62
1
  6
HIDDEN2
 10
-61.706709162
 20
34.625346772
 11
-69.206709162
 21
34.625346772
  0
ARC
  8
1
 62
1
  6
HIDDEN2
 10
-61.706709162
 20
36.875346772
 40
2.250000000
 50
270.000000000
 51
90.000000000
  0
LINE
  8
1
 62
1
  6
HIDDEN2
 10
-69.206709162
 20
39.125346772
 11
-61.706709162
 21
39.125346772
  0
LINE
  8
1
 62
1
  6
HIDDEN2
 10
-97.606709162
 20
70.525346772
 11
-97.606709162
 21
63.025336772
  0
ARC
  8
1
 62
1
  6
HIDDEN2
 10
-95.356709162
 20
63.025346772
 40
2.250000000
 50
180.000000000
 51
0.000000000
  0
LINE
  8
1
 62
1
  6
HIDDEN2
 10
-93.106709162
 20
63.025346772
 11
-93.106709162
 21
70.525346772
  0
ARC
  8
1
 62
1
  6
HIDDEN2
 10
-95.356709162
 20
70.525346772
 40
2.250000000
 50
0.000000000
 51
180.000000000
  0
LINE
  8
1
 62
1
  6
HIDDEN2
 10
-468.106709162
 20
70.525346772
 11
-468.106709162
 21
63.025336772
  0
ARC
  8
1
 62
1
  6
HIDDEN2
 10
-470.356709162
 20
70.525346772
 40
2.250000000
 50
0.000000000
 51
180.000000000
  0
LINE
  8
1
 62
1
  6
HIDDEN2
 10
-472.606709162
 20
63.025346772
 11
-472.606709162
 21
70.525346772
  0
ARC
  8
1
 62
1
  6
HIDDEN2
 10
-470.356709162
 20
63.025346772
 40
2.250000000
 50
180.000000000
 51
0.000000000
  0
ARC
  8
1
 62
1
  6
HIDDEN2
 10
-496.506709162
 20
36.875346772
 40
2.250000000
 50
270.000000000
 51
90.000000000
  0
LINE
  8
1
 62
1
  6
HIDDEN2
 10
-496.506709162
 20
39.125346772
 11
-504.006709162
 21
39.125346772
  0
LINE
  8
1
 62
1
  6
HIDDEN2
 10
-504.006709162
 20
34.625346772
 11
-496.506709162
 21
34.625346772
  0
ARC
  8
1
 62
1
  6
HIDDEN2
 10
-504.006709162
 20
36.875346772
 40
2.250000000
 50
90.000000000
 51
270.000000000
  0
LINE
  8
1
 62
1
  6
HIDDEN2
 10
-468.106709162
 20
-246.774653228
 11
-468.106709162
 21
-239.274645228
  0
ARC
  8
1
 62
1
  6
HIDDEN2
 10
-470.356709162
 20
-239.274653228
 40
2.250000000
 50
0.000000000
 51
180.000000000
  0
LINE
  8
1
 62
1
  6
HIDDEN2
 10
-472.606709162
 20
-239.274653228
 11
-472.606709162
 21
-246.774653228
  0
ARC
  8
1
 62
1
  6
HIDDEN2
 10
-470.356709162
 20
-246.774653228
 40
2.250000000
 50
180.000000000
 51
0.000000000
  0
LINE
  8
1
 62
4
  6
CONTINUOUS
 10
-121.856709162
 20
-57.429195228
 11
-113.856709162
 21
-57.429195228
  0
LINE
  8
1
 62
4
  6
CONTINUOUS
 10
-121.856709162
 20
-59.429195228
 11
-113.856709162
 21
-59.429195228
  0
LINE
  8
1
 62
4
  6
CONTINUOUS
 10
-131.856709162
 20
-57.429195228
 11
-123.856709162
 21
-57.429195228
  0
LINE
  8
1
 62
4
  6
CONTINUOUS
 10
-131.856709162
 20
-59.429195228
 11
-123.856709162
 21
-59.429195228
  0
LINE
  8
1
 62
4
  6
CONTINUOUS
 10
-141.856709162
 20
-57.429195228
 11
-133.856709162
 21
-57.429195228
  0
LINE
  8
1
 62
4
  6
CONTINUOUS
 10
-141.856709162
 20
-59.429195228
 11
-133.856709162
 21
-59.429195228
  0
LINE
  8
1
 62
4
  6
CONTINUOUS
 10
-151.856709162
 20
-57.429195228
 11
-143.856709162
 21
-57.429195228
  0
LINE
  8
1
 62
4
  6
CONTINUOUS
 10
-151.856709162
 20
-59.429195228
 11
-143.856709162
 21
-59.429195228
  0
LINE
  8
1
 62
4
  6
CONTINUOUS
 10
-161.856709162
 20
-57.429195228
 11
-153.856709162
 21
-57.429195228
  0
LINE
  8
1
 62
4
  6
CONTINUOUS
 10
-161.856709162
 20
-59.429195228
 11
-153.856709162
 21
-59.429195228
  0
LINE
  8
1
 62
4
  6
CONTINUOUS
 10
-171.856709162
 20
-57.429195228
 11
-163.856709162
 21
-57.429195228
  0
LINE
  8
1
 62
4
  6
CONTINUOUS
 10
-171.856709162
 20
-59.429195228
 11
-163.856709162
 21
-59.429195228
  0
LINE
  8
1
 62
4
  6
CONTINUOUS
 10
-181.856709162
 20
-57.429195228
 11
-173.856709162
 21
-57.429195228
  0
LINE
  8
1
 62
4
  6
CONTINUOUS
 10
-181.856709162
 20
-59.429195228
 11
-173.856709162
 21
-59.429195228
  0
LINE
  8
1
 62
4
  6
CONTINUOUS
 10
-191.856709162
 20
-57.429195228
 11
-183.856709162
 21
-57.429195228
  0
LINE
  8
1
 62
4
  6
CONTINUOUS
 10
-191.856709162
 20
-59.429195228
 11
-183.856709162
 21
-59.429195228
  0
LINE
  8
1
 62
4
  6
CONTINUOUS
 10
-201.856709162
 20
-57.429195228
 11
-193.856709162
 21
-57.429195228
  0
LINE
  8
1
 62
4
  6
CONTINUOUS
 10
-201.856709162
 20
-59.429195228
 11
-193.856709162
 21
-59.429195228
  0
LINE
  8
1
 62
4
  6
CONTINUOUS
 10
-211.856709162
 20
-57.429195228
 11
-203.856709162
 21
-57.429195228
  0
LINE
  8
1
 62
4
  6
CONTINUOUS
 10
-211.856709162
 20
-59.429195228
 11
-203.856709162
 21
-59.429195228
  0
LINE
  8
1
 62
4
  6
CONTINUOUS
 10
-221.856709162
 20
-57.429195228
 11
-213.856709162
 21
-57.429195228
  0
LINE
  8
1
 62
4
  6
CONTINUOUS
 10
-221.856709162
 20
-59.429195228
 11
-213.856709162
 21
-59.429195228
  0
LINE
  8
1
 62
4
  6
CONTINUOUS
 10
-231.856709162
 20
-57.429195228
 11
-223.856709162
 21
-57.429195228
  0
LINE
  8
1
 62
4
  6
CONTINUOUS
 10
-231.856709162
 20
-59.429195228
 11
-223.856709162
 21
-59.429195228
  0
LINE
  8
1
 62
4
  6
CONTINUOUS
 10
-241.856709162
 20
-57.429195228
 11
-233.856709162
 21
-57.429195228
  0
LINE
  8
1
 62
4
  6
CONTINUOUS
 10
-241.856709162
 20
-59.429195228
 11
-233.856709162
 21
-59.429195228
  0
LINE
  8
1
 62
4
  6
CONTINUOUS
 10
-251.856709162
 20
-57.429195228
 11
-243.856709162
 21
-57.429195228
  0
LINE
  8
1
 62
4
  6
CONTINUOUS
 10
-251.856709162
 20
-59.429195228
 11
-243.856709162
 21
-59.429195228
  0
LINE
  8
1
 62
4
  6
CONTINUOUS
 10
-261.856709162
 20
-57.429195228
 11
-253.856709162
 21
-57.429195228
  0
LINE
  8
1
 62
4
  6
CONTINUOUS
 10
-261.856709162
 20
-59.429195228
 11
-253.856709162
 21
-59.429195228
  0
LINE
  8
1
 62
4
  6
CONTINUOUS
 10
-271.856709162
 20
-57.429195228
 11
-263.856709162
 21
-57.429195228
  0
LINE
  8
1
 62
4
  6
CONTINUOUS
 10
-271.856709162
 20
-59.429195228
 11
-263.856709162
 21
-59.429195228
  0
LINE
  8
1
 62
4
  6
CONTINUOUS
 10
-281.856709162
 20
-57.429195228
 11
-273.856709162
 21
-57.429195228
  0
LINE
  8
1
 62
4
  6
CONTINUOUS
 10
-281.856709162
 20
-59.429195228
 11
-273.856709162
 21
-59.429195228
  0
LINE
  8
1
 62
4
  6
CONTINUOUS
 10
-291.856709162
 20
-57.429195228
 11
-283.856709162
 21
-57.429195228
  0
LINE
  8
1
 62
4
  6
CONTINUOUS
 10
-291.856709162
 20
-59.429195228
 11
-283.856709162
 21
-59.429195228
  0
LINE
  8
1
 62
4
  6
CONTINUOUS
 10
-301.856709162
 20
-57.429195228
 11
-293.856709162
 21
-57.429195228
  0
LINE
  8
1
 62
4
  6
CONTINUOUS
 10
-301.856709162
 20
-59.429195228
 11
-293.856709162
 21
-59.429195228
  0
LINE
  8
1
 62
4
  6
CONTINUOUS
 10
-311.856709162
 20
-57.429195228
 11
-303.856709162
 21
-57.429195228
  0
LINE
  8
1
 62
4
  6
CONTINUOUS
 10
-311.856709162
 20
-59.429195228
 11
-303.856709162
 21
-59.429195228
  0
LINE
  8
1
 62
4
  6
CONTINUOUS
 10
-321.856709162
 20
-57.429195228
 11
-313.856709162
 21
-57.429195228
  0
LINE
  8
1
 62
4
  6
CONTINUOUS
 10
-321.856709162
 20
-59.429195228
 11
-313.856709162
 21
-59.429195228
  0
LINE
  8
1
 62
4
  6
CONTINUOUS
 10
-331.856709162
 20
-57.429195228
 11
-323.856709162
 21
-57.429195228
  0
LINE
  8
1
 62
4
  6
CONTINUOUS
 10
-331.856709162
 20
-59.429195228
 11
-323.856709162
 21
-59.429195228
  0
LINE
  8
1
 62
4
  6
CONTINUOUS
 10
-341.856709162
 20
-57.429195228
 11
-333.856709162
 21
-57.429195228
  0
LINE
  8
1
 62
4
  6
CONTINUOUS
 10
-341.856709162
 20
-59.429195228
 11
-333.856709162
 21
-59.429195228
  0
LINE
  8
1
 62
4
  6
CONTINUOUS
 10
-351.856709162
 20
-57.429195228
 11
-343.856709162
 21
-57.429195228
  0
LINE
  8
1
 62
4
  6
CONTINUOUS
 10
-351.856709162
 20
-59.429195228
 11
-343.856709162
 21
-59.429195228
  0
LINE
  8
1
 62
4
  6
CONTINUOUS
 10
-361.856709162
 20
-57.429195228
 11
-353.856709162
 21
-57.429195228
  0
LINE
  8
1
 62
4
  6
CONTINUOUS
 10
-361.856709162
 20
-59.429195228
 11
-353.856709162
 21
-59.429195228
  0
LINE
  8
1
 62
4
  6
CONTINUOUS
 10
-371.856709162
 20
-57.429195228
 11
-363.856709162
 21
-57.429195228
  0
LINE
  8
1
 62
4
  6
CONTINUOUS
 10
-371.856709162
 20
-59.429195228
 11
-363.856709162
 21
-59.429195228
  0
LINE
  8
1
 62
4
  6
CONTINUOUS
 10
-381.856709162
 20
-57.429195228
 11
-373.856709162
 21
-57.429195228
  0
LINE
  8
1
 62
4
  6
CONTINUOUS
 10
-381.856709162
 20
-59.429195228
 11
-373.856709162
 21
-59.429195228
  0
LINE
  8
1
 62
4
  6
CONTINUOUS
 10
-391.856709162
 20
-57.429195228
 11
-383.856709162
 21
-57.429195228
  0
LINE
  8
1
 62
4
  6
CONTINUOUS
 10
-391.856709162
 20
-59.429195228
 11
-383.856709162
 21
-59.429195228
  0
LINE
  8
1
 62
4
  6
CONTINUOUS
 10
-401.856709162
 20
-57.429195228
 11
-393.856709162
 21
-57.429195228
  0
LINE
  8
1
 62
4
  6
CONTINUOUS
 10
-401.856709162
 20
-59.429195228
 11
-393.856709162
 21
-59.429195228
  0
LINE
  8
1
 62
4
  6
CONTINUOUS
 10
-411.856709162
 20
-57.429195228
 11
-403.856709162
 21
-57.429195228
  0
LINE
  8
1
 62
4
  6
CONTINUOUS
 10
-411.856709162
 20
-59.429195228
 11
-403.856709162
 21
-59.429195228
  0
LINE
  8
1
 62
4
  6
CONTINUOUS
 10
-421.856709162
 20
-57.429195228
 11
-413.856709162
 21
-57.429195228
  0
LINE
  8
1
 62
4
  6
CONTINUOUS
 10
-421.856709162
 20
-59.429195228
 11
-413.856709162
 21
-59.429195228
  0
LINE
  8
1
 62
4
  6
CONTINUOUS
 10
-431.856709162
 20
-57.429195228
 11
-423.856709162
 21
-57.429195228
  0
LINE
  8
1
 62
4
  6
CONTINUOUS
 10
-431.856709162
 20
-59.429195228
 11
-423.856709162
 21
-59.429195228
  0
LINE
  8
1
 62
4
  6
CONTINUOUS
 10
-441.856709162
 20
-57.429195228
 11
-433.856709162
 21
-57.429195228
  0
LINE
  8
1
 62
4
  6
CONTINUOUS
 10
-441.856709162
 20
-59.429195228
 11
-433.856709162
 21
-59.429195228
  0
LINE
  8
1
 62
4
  6
CONTINUOUS
 10
-451.856709162
 20
-59.429195228
 11
-443.856709162
 21
-59.429195228
  0
LINE
  8
1
 62
4
  6
CONTINUOUS
 10
-451.856709162
 20
-57.429195228
 11
-443.856709162
 21
-57.429195228
  0
LINE
  8
1
 62
4
  6
CONTINUOUS
 10
-111.856709162
 20
-57.429195228
 11
-108.356709162
 21
-57.429195228
  0
LINE
  8
1
 62
4
  6
CONTINUOUS
 10
-108.356709162
 20
-59.429195228
 11
-111.856709162
 21
-59.429195228
  0
LINE
  8
1
 62
4
  6
CONTINUOUS
 10
-453.856709162
 20
-57.429195228
 11
-457.356709162
 21
-57.429195228
  0
LINE
  8
1
 62
4
  6
CONTINUOUS
 10
-457.356709162
 20
-59.429195228
 11
-453.856709162
 21
-59.429195228
  0
LINE
  8
1
 62
4
  6
CONTINUOUS
 10
-457.356709162
 20
20.546472772
 11
-453.856709162
 21
20.546472772
  0
LINE
  8
1
 62
4
  6
CONTINUOUS
 10
-453.856709162
 20
41.875346772
 11
-455.356709162
 21
41.875346772
  0
LINE
  8
1
 62
4
  6
CONTINUOUS
 10
-453.856709162
 20
22.546472772
 11
-457.356709162
 21
22.546472772
  0
LINE
  8
1
 62
4
  6
CONTINUOUS
 10
-108.356709162
 20
20.546472772
 11
-111.856709162
 21
20.546472772
  0
LINE
  8
1
 62
4
  6
CONTINUOUS
 10
-111.856709162
 20
22.546472772
 11
-108.356709162
 21
22.546472772
  0
LINE
  8
1
 62
4
  6
CONTINUOUS
 10
-451.856709162
 20
22.546472772
 11
-443.856709162
 21
22.546472772
  0
LINE
  8
1
 62
4
  6
CONTINUOUS
 10
-451.856709162
 20
20.546472772
 11
-443.856709162
 21
20.546472772
  0
LINE
  8
1
 62
4
  6
CONTINUOUS
 10
-441.856709162
 20
20.546472772
 11
-433.856709162
 21
20.546472772
  0
LINE
  8
1
 62
4
  6
CONTINUOUS
 10
-441.856709162
 20
22.546472772
 11
-433.856709162
 21
22.546472772
  0
LINE
  8
1
 62
4
  6
CONTINUOUS
 10
-431.856709162
 20
20.546472772
 11
-423.856709162
 21
20.546472772
  0
LINE
  8
1
 62
4
  6
CONTINUOUS
 10
-431.856709162
 20
22.546472772
 11
-423.856709162
 21
22.546472772
  0
LINE
  8
1
 62
4
  6
CONTINUOUS
 10
-421.856709162
 20
20.546472772
 11
-413.856709162
 21
20.546472772
  0
LINE
  8
1
 62
4
  6
CONTINUOUS
 10
-421.856709162
 20
22.546472772
 11
-413.856709162
 21
22.546472772
  0
LINE
  8
1
 62
4
  6
CONTINUOUS
 10
-411.856709162
 20
20.546472772
 11
-403.856709162
 21
20.546472772
  0
LINE
  8
1
 62
4
  6
CONTINUOUS
 10
-411.856709162
 20
22.546472772
 11
-403.856709162
 21
22.546472772
  0
LINE
  8
1
 62
4
  6
CONTINUOUS
 10
-401.856709162
 20
20.546472772
 11
-393.856709162
 21
20.546472772
  0
LINE
  8
1
 62
4
  6
CONTINUOUS
 10
-401.856709162
 20
22.546472772
 11
-393.856709162
 21
22.546472772
  0
LINE
  8
1
 62
4
  6
CONTINUOUS
 10
-391.856709162
 20
20.546472772
 11
-383.856709162
 21
20.546472772
  0
LINE
  8
1
 62
4
  6
CONTINUOUS
 10
-391.856709162
 20
22.546472772
 11
-383.856709162
 21
22.546472772
  0
LINE
  8
1
 62
4
  6
CONTINUOUS
 10
-381.856709162
 20
20.546472772
 11
-373.856709162
 21
20.546472772
  0
LINE
  8
1
 62
4
  6
CONTINUOUS
 10
-381.856709162
 20
22.546472772
 11
-373.856709162
 21
22.546472772
  0
LINE
  8
1
 62
4
  6
CONTINUOUS
 10
-371.856709162
 20
20.546472772
 11
-363.856709162
 21
20.546472772
  0
LINE
  8
1
 62
4
  6
CONTINUOUS
 10
-371.856709162
 20
22.546472772
 11
-363.856709162
 21
22.546472772
  0
LINE
  8
1
 62
4
  6
CONTINUOUS
 10
-361.856709162
 20
20.546472772
 11
-353.856709162
 21
20.546472772
  0
LINE
  8
1
 62
4
  6
CONTINUOUS
 10
-361.856709162
 20
22.546472772
 11
-353.856709162
 21
22.546472772
  0
LINE
  8
1
 62
4
  6
CONTINUOUS
 10
-351.856709162
 20
20.546472772
 11
-343.856709162
 21
20.546472772
  0
LINE
  8
1
 62
4
  6
CONTINUOUS
 10
-351.856709162
 20
22.546472772
 11
-343.856709162
 21
22.546472772
  0
LINE
  8
1
 62
4
  6
CONTINUOUS
 10
-341.856709162
 20
20.546472772
 11
-333.856709162
 21
20.546472772
  0
LINE
  8
1
 62
4
  6
CONTINUOUS
 10
-341.856709162
 20
22.546472772
 11
-333.856709162
 21
22.546472772
  0
LINE
  8
1
 62
4
  6
CONTINUOUS
 10
-331.856709162
 20
20.546472772
 11
-323.856709162
 21
20.546472772
  0
LINE
  8
1
 62
4
  6
CONTINUOUS
 10
-331.856709162
 20
22.546472772
 11
-323.856709162
 21
22.546472772
  0
LINE
  8
1
 62
4
  6
CONTINUOUS
 10
-321.856709162
 20
20.546472772
 11
-313.856709162
 21
20.546472772
  0
LINE
  8
1
 62
4
  6
CONTINUOUS
 10
-321.856709162
 20
22.546472772
 11
-313.856709162
 21
22.546472772
  0
LINE
  8
1
 62
4
  6
CONTINUOUS
 10
-311.856709162
 20
20.546472772
 11
-303.856709162
 21
20.546472772
  0
LINE
  8
1
 62
4
  6
CONTINUOUS
 10
-311.856709162
 20
22.546472772
 11
-303.856709162
 21
22.546472772
  0
LINE
  8
1
 62
4
  6
CONTINUOUS
 10
-301.856709162
 20
20.546472772
 11
-293.856709162
 21
20.546472772
  0
LINE
  8
1
 62
4
  6
CONTINUOUS
 10
-301.856709162
 20
22.546472772
 11
-293.856709162
 21
22.546472772
  0
LINE
  8
1
 62
4
  6
CONTINUOUS
 10
-291.856709162
 20
20.546472772
 11
-283.856709162
 21
20.546472772
  0
LINE
  8
1
 62
4
  6
CONTINUOUS
 10
-291.856709162
 20
22.546472772
 11
-283.856709162
 21
22.546472772
  0
LINE
  8
1
 62
4
  6
CONTINUOUS
 10
-281.856709162
 20
20.546472772
 11
-273.856709162
 21
20.546472772
  0
LINE
  8
1
 62
4
  6
CONTINUOUS
 10
-281.856709162
 20
22.546472772
 11
-273.856709162
 21
22.546472772
  0
LINE
  8
1
 62
4
  6
CONTINUOUS
 10
-271.856709162
 20
20.546472772
 11
-263.856709162
 21
20.546472772
  0
LINE
  8
1
 62
4
  6
CONTINUOUS
 10
-271.856709162
 20
22.546472772
 11
-263.856709162
 21
22.546472772
  0
LINE
  8
1
 62
4
  6
CONTINUOUS
 10
-261.856709162
 20
20.546472772
 11
-253.856709162
 21
20.546472772
  0
LINE
  8
1
 62
4
  6
CONTINUOUS
 10
-261.856709162
 20
22.546472772
 11
-253.856709162
 21
22.546472772
  0
LINE
  8
1
 62
4
  6
CONTINUOUS
 10
-251.856709162
 20
20.546472772
 11
-243.856709162
 21
20.546472772
  0
LINE
  8
1
 62
4
  6
CONTINUOUS
 10
-251.856709162
 20
22.546472772
 11
-243.856709162
 21
22.546472772
  0
LINE
  8
1
 62
4
  6
CONTINUOUS
 10
-241.856709162
 20
20.546472772
 11
-233.856709162
 21
20.546472772
  0
LINE
  8
1
 62
4
  6
CONTINUOUS
 10
-241.856709162
 20
22.546472772
 11
-233.856709162
 21
22.546472772
  0
LINE
  8
1
 62
4
  6
CONTINUOUS
 10
-231.856709162
 20
20.546472772
 11
-223.856709162
 21
20.546472772
  0
LINE
  8
1
 62
4
  6
CONTINUOUS
 10
-231.856709162
 20
22.546472772
 11
-223.856709162
 21
22.546472772
  0
LINE
  8
1
 62
4
  6
CONTINUOUS
 10
-221.856709162
 20
20.546472772
 11
-213.856709162
 21
20.546472772
  0
LINE
  8
1
 62
4
  6
CONTINUOUS
 10
-221.856709162
 20
22.546472772
 11
-213.856709162
 21
22.546472772
  0
LINE
  8
1
 62
4
  6
CONTINUOUS
 10
-211.856709162
 20
20.546472772
 11
-203.856709162
 21
20.546472772
  0
LINE
  8
1
 62
4
  6
CONTINUOUS
 10
-211.856709162
 20
22.546472772
 11
-203.856709162
 21
22.546472772
  0
LINE
  8
1
 62
4
  6
CONTINUOUS
 10
-201.856709162
 20
20.546472772
 11
-193.856709162
 21
20.546472772
  0
LINE
  8
1
 62
4
  6
CONTINUOUS
 10
-201.856709162
 20
22.546472772
 11
-193.856709162
 21
22.546472772
  0
LINE
  8
1
 62
4
  6
CONTINUOUS
 10
-191.856709162
 20
20.546472772
 11
-183.856709162
 21
20.546472772
  0
LINE
  8
1
 62
4
  6
CONTINUOUS
 10
-191.856709162
 20
22.546472772
 11
-183.856709162
 21
22.546472772
  0
LINE
  8
1
 62
4
  6
CONTINUOUS
 10
-181.856709162
 20
20.546472772
 11
-173.856709162
 21
20.546472772
  0
LINE
  8
1
 62
4
  6
CONTINUOUS
 10
-181.856709162
 20
22.546472772
 11
-173.856709162
 21
22.546472772
  0
LINE
  8
1
 62
4
  6
CONTINUOUS
 10
-171.856709162
 20
20.546472772
 11
-163.856709162
 21
20.546472772
  0
LINE
  8
1
 62
4
  6
CONTINUOUS
 10
-171.856709162
 20
22.546472772
 11
-163.856709162
 21
22.546472772
  0
LINE
  8
1
 62
4
  6
CONTINUOUS
 10
-161.856709162
 20
20.546472772
 11
-153.856709162
 21
20.546472772
  0
LINE
  8
1
 62
4
  6
CONTINUOUS
 10
-161.856709162
 20
22.546472772
 11
-153.856709162
 21
22.546472772
  0
LINE
  8
1
 62
4
  6
CONTINUOUS
 10
-151.856709162
 20
20.546472772
 11
-143.856709162
 21
20.546472772
  0
LINE
  8
1
 62
4
  6
CONTINUOUS
 10
-151.856709162
 20
22.546472772
 11
-143.856709162
 21
22.546472772
  0
LINE
  8
1
 62
4
  6
CONTINUOUS
 10
-141.856709162
 20
20.546472772
 11
-133.856709162
 21
20.546472772
  0
LINE
  8
1
 62
4
  6
CONTINUOUS
 10
-141.856709162
 20
22.546472772
 11
-133.856709162
 21
22.546472772
  0
LINE
  8
1
 62
4
  6
CONTINUOUS
 10
-131.856709162
 20
20.546472772
 11
-123.856709162
 21
20.546472772
  0
LINE
  8
1
 62
4
  6
CONTINUOUS
 10
-131.856709162
 20
22.546472772
 11
-123.856709162
 21
22.546472772
  0
LINE
  8
1
 62
4
  6
CONTINUOUS
 10
-121.856709162
 20
20.546472772
 11
-113.856709162
 21
20.546472772
  0
LINE
  8
1
 62
4
  6
CONTINUOUS
 10
-121.856709162
 20
22.546472772
 11
-113.856709162
 21
22.546472772
  0
ARC
  8
1
 62
4
  6
CONTINUOUS
 10
-122.856709162
 20
43.205500772
 40
1.000000000
 50
0.000000000
 51
180.000000000
  0
LINE
  8
1
 62
4
  6
CONTINUOUS
 10
-121.856709162
 20
42.577584772
 11
-113.856709162
 21
42.577584772
  0
LINE
  8
1
 62
4
  6
CONTINUOUS
 10
-121.856709162
 20
40.577584772
 11
-113.856709162
 21
40.577584772
  0
LINE
  8
1
 62
4
  6
CONTINUOUS
 10
-131.856709162
 20
42.577584772
 11
-123.856709162
 21
42.577584772
  0
LINE
  8
1
 62
4
  6
CONTINUOUS
 10
-131.856709162
 20
40.577584772
 11
-123.856709162
 21
40.577584772
  0
LINE
  8
1
 62
4
  6
CONTINUOUS
 10
-141.856709162
 20
42.577584772
 11
-133.856709162
 21
42.577584772
  0
LINE
  8
1
 62
4
  6
CONTINUOUS
 10
-141.856709162
 20
40.577584772
 11
-133.856709162
 21
40.577584772
  0
LINE
  8
1
 62
4
  6
CONTINUOUS
 10
-151.856709162
 20
42.577584772
 11
-143.856709162
 21
42.577584772
  0
LINE
  8
1
 62
4
  6
CONTINUOUS
 10
-151.856709162
 20
40.577584772
 11
-143.856709162
 21
40.577584772
  0
LINE
  8
1
 62
4
  6
CONTINUOUS
 10
-161.856709162
 20
42.577584772
 11
-153.856709162
 21
42.577584772
  0
LINE
  8
1
 62
4
  6
CONTINUOUS
 10
-161.856709162
 20
40.577584772
 11
-153.856709162
 21
40.577584772
  0
LINE
  8
1
 62
4
  6
CONTINUOUS
 10
-171.856709162
 20
42.577584772
 11
-163.856709162
 21
42.577584772
  0
LINE
  8
1
 62
4
  6
CONTINUOUS
 10
-171.856709162
 20
40.577584772
 11
-163.856709162
 21
40.577584772
  0
LINE
  8
1
 62
4
  6
CONTINUOUS
 10
-181.856709162
 20
42.577584772
 11
-173.856709162
 21
42.577584772
  0
LINE
  8
1
 62
4
  6
CONTINUOUS
 10
-181.856709162
 20
40.577584772
 11
-173.856709162
 21
40.577584772
  0
LINE
  8
1
 62
4
  6
CONTINUOUS
 10
-191.856709162
 20
42.577584772
 11
-183.856709162
 21
42.577584772
  0
LINE
  8
1
 62
4
  6
CONTINUOUS
 10
-191.856709162
 20
40.577584772
 11
-183.856709162
 21
40.577584772
  0
LINE
  8
1
 62
4
  6
CONTINUOUS
 10
-201.856709162
 20
42.577584772
 11
-193.856709162
 21
42.577584772
  0
LINE
  8
1
 62
4
  6
CONTINUOUS
 10
-201.856709162
 20
40.577584772
 11
-193.856709162
 21
40.577584772
  0
LINE
  8
1
 62
4
  6
CONTINUOUS
 10
-211.856709162
 20
42.577584772
 11
-203.856709162
 21
42.577584772
  0
LINE
  8
1
 62
4
  6
CONTINUOUS
 10
-211.856709162
 20
40.577584772
 11
-203.856709162
 21
40.577584772
  0
LINE
  8
1
 62
4
  6
CONTINUOUS
 10
-221.856709162
 20
42.577584772
 11
-213.856709162
 21
42.577584772
  0
LINE
  8
1
 62
4
  6
CONTINUOUS
 10
-221.856709162
 20
40.577584772
 11
-213.856709162
 21
40.577584772
  0
LINE
  8
1
 62
4
  6
CONTINUOUS
 10
-231.856709162
 20
42.577584772
 11
-223.856709162
 21
42.577584772
  0
LINE
  8
1
 62
4
  6
CONTINUOUS
 10
-231.856709162
 20
40.577584772
 11
-223.856709162
 21
40.577584772
  0
LINE
  8
1
 62
4
  6
CONTINUOUS
 10
-241.856709162
 20
42.577584772
 11
-233.856709162
 21
42.577584772
  0
LINE
  8
1
 62
4
  6
CONTINUOUS
 10
-241.856709162
 20
40.577584772
 11
-233.856709162
 21
40.577584772
  0
LINE
  8
1
 62
4
  6
CONTINUOUS
 10
-251.856709162
 20
42.577584772
 11
-243.856709162
 21
42.577584772
  0
LINE
  8
1
 62
4
  6
CONTINUOUS
 10
-251.856709162
 20
40.577584772
 11
-243.856709162
 21
40.577584772
  0
LINE
  8
1
 62
4
  6
CONTINUOUS
 10
-261.856709162
 20
42.577584772
 11
-253.856709162
 21
42.577584772
  0
LINE
  8
1
 62
4
  6
CONTINUOUS
 10
-261.856709162
 20
40.577584772
 11
-253.856709162
 21
40.577584772
  0
LINE
  8
1
 62
4
  6
CONTINUOUS
 10
-271.856709162
 20
42.577584772
 11
-263.856709162
 21
42.577584772
  0
LINE
  8
1
 62
4
  6
CONTINUOUS
 10
-271.856709162
 20
40.577584772
 11
-263.856709162
 21
40.577584772
  0
LINE
  8
1
 62
4
  6
CONTINUOUS
 10
-281.856709162
 20
42.577584772
 11
-273.856709162
 21
42.577584772
  0
LINE
  8
1
 62
4
  6
CONTINUOUS
 10
-281.856709162
 20
40.577584772
 11
-273.856709162
 21
40.577584772
  0
LINE
  8
1
 62
4
  6
CONTINUOUS
 10
-291.856709162
 20
42.577584772
 11
-283.856709162
 21
42.577584772
  0
LINE
  8
1
 62
4
  6
CONTINUOUS
 10
-291.856709162
 20
40.577584772
 11
-283.856709162
 21
40.577584772
  0
LINE
  8
1
 62
4
  6
CONTINUOUS
 10
-301.856709162
 20
42.577584772
 11
-293.856709162
 21
42.577584772
  0
LINE
  8
1
 62
4
  6
CONTINUOUS
 10
-301.856709162
 20
40.577584772
 11
-293.856709162
 21
40.577584772
  0
LINE
  8
1
 62
4
  6
CONTINUOUS
 10
-311.856709162
 20
42.577584772
 11
-303.856709162
 21
42.577584772
  0
LINE
  8
1
 62
4
  6
CONTINUOUS
 10
-311.856709162
 20
40.577584772
 11
-303.856709162
 21
40.577584772
  0
LINE
  8
1
 62
4
  6
CONTINUOUS
 10
-321.856709162
 20
42.577584772
 11
-313.856709162
 21
42.577584772
  0
LINE
  8
1
 62
4
  6
CONTINUOUS
 10
-321.856709162
 20
40.577584772
 11
-313.856709162
 21
40.577584772
  0
LINE
  8
1
 62
4
  6
CONTINUOUS
 10
-331.856709162
 20
42.577584772
 11
-323.856709162
 21
42.577584772
  0
LINE
  8
1
 62
4
  6
CONTINUOUS
 10
-331.856709162
 20
40.577584772
 11
-323.856709162
 21
40.577584772
  0
LINE
  8
1
 62
4
  6
CONTINUOUS
 10
-341.856709162
 20
42.577584772
 11
-333.856709162
 21
42.577584772
  0
LINE
  8
1
 62
4
  6
CONTINUOUS
 10
-341.856709162
 20
40.577584772
 11
-333.856709162
 21
40.577584772
  0
LINE
  8
1
 62
4
  6
CONTINUOUS
 10
-351.856709162
 20
42.577584772
 11
-343.856709162
 21
42.577584772
  0
LINE
  8
1
 62
4
  6
CONTINUOUS
 10
-351.856709162
 20
40.577584772
 11
-343.856709162
 21
40.577584772
  0
LINE
  8
1
 62
4
  6
CONTINUOUS
 10
-361.856709162
 20
42.577584772
 11
-353.856709162
 21
42.577584772
  0
LINE
  8
1
 62
4
  6
CONTINUOUS
 10
-361.856709162
 20
40.577584772
 11
-353.856709162
 21
40.577584772
  0
LINE
  8
1
 62
4
  6
CONTINUOUS
 10
-371.856709162
 20
42.577584772
 11
-363.856709162
 21
42.577584772
  0
LINE
  8
1
 62
4
  6
CONTINUOUS
 10
-371.856709162
 20
40.577584772
 11
-363.856709162
 21
40.577584772
  0
LINE
  8
1
 62
4
  6
CONTINUOUS
 10
-381.856709162
 20
42.577584772
 11
-373.856709162
 21
42.577584772
  0
LINE
  8
1
 62
4
  6
CONTINUOUS
 10
-381.856709162
 20
40.577584772
 11
-373.856709162
 21
40.577584772
  0
LINE
  8
1
 62
4
  6
CONTINUOUS
 10
-391.856709162
 20
42.577584772
 11
-383.856709162
 21
42.577584772
  0
LINE
  8
1
 62
4
  6
CONTINUOUS
 10
-391.856709162
 20
40.577584772
 11
-383.856709162
 21
40.577584772
  0
LINE
  8
1
 62
4
  6
CONTINUOUS
 10
-401.856709162
 20
42.577584772
 11
-393.856709162
 21
42.577584772
  0
LINE
  8
1
 62
4
  6
CONTINUOUS
 10
-401.856709162
 20
40.577584772
 11
-393.856709162
 21
40.577584772
  0
LINE
  8
1
 62
4
  6
CONTINUOUS
 10
-411.856709162
 20
42.577584772
 11
-403.856709162
 21
42.577584772
  0
LINE
  8
1
 62
4
  6
CONTINUOUS
 10
-411.856709162
 20
40.577584772
 11
-403.856709162
 21
40.577584772
  0
LINE
  8
1
 62
4
  6
CONTINUOUS
 10
-421.856709162
 20
42.577584772
 11
-413.856709162
 21
42.577584772
  0
LINE
  8
1
 62
4
  6
CONTINUOUS
 10
-421.856709162
 20
40.577584772
 11
-413.856709162
 21
40.577584772
  0
LINE
  8
1
 62
4
  6
CONTINUOUS
 10
-431.856709162
 20
42.577584772
 11
-423.856709162
 21
42.577584772
  0
LINE
  8
1
 62
4
  6
CONTINUOUS
 10
-431.856709162
 20
40.577584772
 11
-423.856709162
 21
40.577584772
  0
LINE
  8
1
 62
4
  6
CONTINUOUS
 10
-441.856709162
 20
42.577584772
 11
-433.856709162
 21
42.577584772
  0
LINE
  8
1
 62
4
  6
CONTINUOUS
 10
-441.856709162
 20
40.577584772
 11
-433.856709162
 21
40.577584772
  0
LINE
  8
1
 62
4
  6
CONTINUOUS
 10
-451.856709162
 20
42.577584772
 11
-443.856709162
 21
42.577584772
  0
LINE
  8
1
 62
4
  6
CONTINUOUS
 10
-451.856709162
 20
40.577584772
 11
-443.856709162
 21
40.577584772
  0
LINE
  8
1
 62
4
  6
CONTINUOUS
 10
-121.856709162
 20
-75.931803228
 11
-113.856709162
 21
-75.931803228
  0
LINE
  8
1
 62
4
  6
CONTINUOUS
 10
-121.856709162
 20
-77.931803228
 11
-113.856709162
 21
-77.931803228
  0
LINE
  8
1
 62
4
  6
CONTINUOUS
 10
-131.856709162
 20
-75.931803228
 11
-123.856709162
 21
-75.931803228
  0
LINE
  8
1
 62
4
  6
CONTINUOUS
 10
-131.856709162
 20
-77.931803228
 11
-123.856709162
 21
-77.931803228
  0
LINE
  8
1
 62
4
  6
CONTINUOUS
 10
-141.856709162
 20
-75.931803228
 11
-133.856709162
 21
-75.931803228
  0
LINE
  8
1
 62
4
  6
CONTINUOUS
 10
-141.856709162
 20
-77.931803228
 11
-133.856709162
 21
-77.931803228
  0
LINE
  8
1
 62
4
  6
CONTINUOUS
 10
-151.856709162
 20
-75.931803228
 11
-143.856709162
 21
-75.931803228
  0
LINE
  8
1
 62
4
  6
CONTINUOUS
 10
-151.856709162
 20
-77.931803228
 11
-143.856709162
 21
-77.931803228
  0
LINE
  8
1
 62
4
  6
CONTINUOUS
 10
-161.856709162
 20
-75.931803228
 11
-153.856709162
 21
-75.931803228
  0
LINE
  8
1
 62
4
  6
CONTINUOUS
 10
-161.856709162
 20
-77.931803228
 11
-153.856709162
 21
-77.931803228
  0
LINE
  8
1
 62
4
  6
CONTINUOUS
 10
-171.856709162
 20
-75.931803228
 11
-163.856709162
 21
-75.931803228
  0
LINE
  8
1
 62
4
  6
CONTINUOUS
 10
-171.856709162
 20
-77.931803228
 11
-163.856709162
 21
-77.931803228
  0
LINE
  8
1
 62
4
  6
CONTINUOUS
 10
-181.856709162
 20
-75.931803228
 11
-173.856709162
 21
-75.931803228
  0
LINE
  8
1
 62
4
  6
CONTINUOUS
 10
-181.856709162
 20
-77.931803228
 11
-173.856709162
 21
-77.931803228
  0
LINE
  8
1
 62
4
  6
CONTINUOUS
 10
-191.856709162
 20
-75.931803228
 11
-183.856709162
 21
-75.931803228
  0
LINE
  8
1
 62
4
  6
CONTINUOUS
 10
-191.856709162
 20
-77.931803228
 11
-183.856709162
 21
-77.931803228
  0
LINE
  8
1
 62
4
  6
CONTINUOUS
 10
-201.856709162
 20
-75.931803228
 11
-193.856709162
 21
-75.931803228
  0
LINE
  8
1
 62
4
  6
CONTINUOUS
 10
-201.856709162
 20
-77.931803228
 11
-193.856709162
 21
-77.931803228
  0
LINE
  8
1
 62
4
  6
CONTINUOUS
 10
-211.856709162
 20
-75.931803228
 11
-203.856709162
 21
-75.931803228
  0
LINE
  8
1
 62
4
  6
CONTINUOUS
 10
-211.856709162
 20
-77.931803228
 11
-203.856709162
 21
-77.931803228
  0
LINE
  8
1
 62
4
  6
CONTINUOUS
 10
-221.856709162
 20
-75.931803228
 11
-213.856709162
 21
-75.931803228
  0
LINE
  8
1
 62
4
  6
CONTINUOUS
 10
-221.856709162
 20
-77.931803228
 11
-213.856709162
 21
-77.931803228
  0
LINE
  8
1
 62
4
  6
CONTINUOUS
 10
-231.856709162
 20
-75.931803228
 11
-223.856709162
 21
-75.931803228
  0
LINE
  8
1
 62
4
  6
CONTINUOUS
 10
-231.856709162
 20
-77.931803228
 11
-223.856709162
 21
-77.931803228
  0
LINE
  8
1
 62
4
  6
CONTINUOUS
 10
-241.856709162
 20
-75.931803228
 11
-233.856709162
 21
-75.931803228
  0
LINE
  8
1
 62
4
  6
CONTINUOUS
 10
-241.856709162
 20
-77.931803228
 11
-233.856709162
 21
-77.931803228
  0
LINE
  8
1
 62
4
  6
CONTINUOUS
 10
-251.856709162
 20
-75.931803228
 11
-243.856709162
 21
-75.931803228
  0
LINE
  8
1
 62
4
  6
CONTINUOUS
 10
-251.856709162
 20
-77.931803228
 11
-243.856709162
 21
-77.931803228
  0
LINE
  8
1
 62
4
  6
CONTINUOUS
 10
-261.856709162
 20
-75.931803228
 11
-253.856709162
 21
-75.931803228
  0
LINE
  8
1
 62
4
  6
CONTINUOUS
 10
-261.856709162
 20
-77.931803228
 11
-253.856709162
 21
-77.931803228
  0
LINE
  8
1
 62
4
  6
CONTINUOUS
 10
-271.856709162
 20
-75.931803228
 11
-263.856709162
 21
-75.931803228
  0
LINE
  8
1
 62
4
  6
CONTINUOUS
 10
-271.856709162
 20
-77.931803228
 11
-263.856709162
 21
-77.931803228
  0
LINE
  8
1
 62
4
  6
CONTINUOUS
 10
-281.856709162
 20
-75.931803228
 11
-273.856709162
 21
-75.931803228
  0
LINE
  8
1
 62
4
  6
CONTINUOUS
 10
-281.856709162
 20
-77.931803228
 11
-273.856709162
 21
-77.931803228
  0
LINE
  8
1
 62
4
  6
CONTINUOUS
 10
-291.856709162
 20
-75.931803228
 11
-283.856709162
 21
-75.931803228
  0
LINE
  8
1
 62
4
  6
CONTINUOUS
 10
-291.856709162
 20
-77.931803228
 11
-283.856709162
 21
-77.931803228
  0
LINE
  8
1
 62
4
  6
CONTINUOUS
 10
-301.856709162
 20
-75.931803228
 11
-293.856709162
 21
-75.931803228
  0
LINE
  8
1
 62
4
  6
CONTINUOUS
 10
-301.856709162
 20
-77.931803228
 11
-293.856709162
 21
-77.931803228
  0
LINE
  8
1
 62
4
  6
CONTINUOUS
 10
-311.856709162
 20
-75.931803228
 11
-303.856709162
 21
-75.931803228
  0
LINE
  8
1
 62
4
  6
CONTINUOUS
 10
-311.856709162
 20
-77.931803228
 11
-303.856709162
 21
-77.931803228
  0
LINE
  8
1
 62
4
  6
CONTINUOUS
 10
-321.856709162
 20
-75.931803228
 11
-313.856709162
 21
-75.931803228
  0
LINE
  8
1
 62
4
  6
CONTINUOUS
 10
-321.856709162
 20
-77.931803228
 11
-313.856709162
 21
-77.931803228
  0
LINE
  8
1
 62
4
  6
CONTINUOUS
 10
-331.856709162
 20
-75.931803228
 11
-323.856709162
 21
-75.931803228
  0
LINE
  8
1
 62
4
  6
CONTINUOUS
 10
-331.856709162
 20
-77.931803228
 11
-323.856709162
 21
-77.931803228
  0
LINE
  8
1
 62
4
  6
CONTINUOUS
 10
-341.856709162
 20
-75.931803228
 11
-333.856709162
 21
-75.931803228
  0
LINE
  8
1
 62
4
  6
CONTINUOUS
 10
-341.856709162
 20
-77.931803228
 11
-333.856709162
 21
-77.931803228
  0
LINE
  8
1
 62
4
  6
CONTINUOUS
 10
-351.856709162
 20
-75.931803228
 11
-343.856709162
 21
-75.931803228
  0
LINE
  8
1
 62
4
  6
CONTINUOUS
 10
-351.856709162
 20
-77.931803228
 11
-343.856709162
 21
-77.931803228
  0
LINE
  8
1
 62
4
  6
CONTINUOUS
 10
-361.856709162
 20
-75.931803228
 11
-353.856709162
 21
-75.931803228
  0
LINE
  8
1
 62
4
  6
CONTINUOUS
 10
-361.856709162
 20
-77.931803228
 11
-353.856709162
 21
-77.931803228
  0
LINE
  8
1
 62
4
  6
CONTINUOUS
 10
-371.856709162
 20
-75.931803228
 11
-363.856709162
 21
-75.931803228
  0
LINE
  8
1
 62
4
  6
CONTINUOUS
 10
-371.856709162
 20
-77.931803228
 11
-363.856709162
 21
-77.931803228
  0
LINE
  8
1
 62
4
  6
CONTINUOUS
 10
-381.856709162
 20
-75.931803228
 11
-373.856709162
 21
-75.931803228
  0
LINE
  8
1
 62
4
  6
CONTINUOUS
 10
-381.856709162
 20
-77.931803228
 11
-373.856709162
 21
-77.931803228
  0
LINE
  8
1
 62
4
  6
CONTINUOUS
 10
-391.856709162
 20
-75.931803228
 11
-383.856709162
 21
-75.931803228
  0
LINE
  8
1
 62
4
  6
CONTINUOUS
 10
-391.856709162
 20
-77.931803228
 11
-383.856709162
 21
-77.931803228
  0
LINE
  8
1
 62
4
  6
CONTINUOUS
 10
-401.856709162
 20
-75.931803228
 11
-393.856709162
 21
-75.931803228
  0
LINE
  8
1
 62
4
  6
CONTINUOUS
 10
-401.856709162
 20
-77.931803228
 11
-393.856709162
 21
-77.931803228
  0
LINE
  8
1
 62
4
  6
CONTINUOUS
 10
-411.856709162
 20
-75.931803228
 11
-403.856709162
 21
-75.931803228
  0
LINE
  8
1
 62
4
  6
CONTINUOUS
 10
-411.856709162
 20
-77.931803228
 11
-403.856709162
 21
-77.931803228
  0
LINE
  8
1
 62
4
  6
CONTINUOUS
 10
-421.856709162
 20
-75.931803228
 11
-413.856709162
 21
-75.931803228
  0
LINE
  8
1
 62
4
  6
CONTINUOUS
 10
-421.856709162
 20
-77.931803228
 11
-413.856709162
 21
-77.931803228
  0
LINE
  8
1
 62
4
  6
CONTINUOUS
 10
-431.856709162
 20
-75.931803228
 11
-423.856709162
 21
-75.931803228
  0
LINE
  8
1
 62
4
  6
CONTINUOUS
 10
-431.856709162
 20
-77.931803228
 11
-423.856709162
 21
-77.931803228
  0
LINE
  8
1
 62
4
  6
CONTINUOUS
 10
-441.856709162
 20
-75.931803228
 11
-433.856709162
 21
-75.931803228
  0
LINE
  8
1
 62
4
  6
CONTINUOUS
 10
-441.856709162
 20
-77.931803228
 11
-433.856709162
 21
-77.931803228
  0
LINE
  8
1
 62
4
  6
CONTINUOUS
 10
-451.856709162
 20
-77.931803228
 11
-443.856709162
 21
-77.931803228
  0
LINE
  8
1
 62
4
  6
CONTINUOUS
 10
-451.856709162
 20
-75.931803228
 11
-443.856709162
 21
-75.931803228
  0
ARC
  8
1
 62
4
  6
CONTINUOUS
 10
-292.856709162
 20
43.205500772
 40
1.000000000
 50
0.000000000
 51
180.000000000
  0
LINE
  8
1
 62
4
  6
CONTINUOUS
 10
-293.856709162
 20
-78.096715228
 11
-293.856709162
 21
43.205500772
  0
LINE
  8
1
 62
4
  6
CONTINUOUS
 10
-291.856709162
 20
43.205500772
 11
-291.856709162
 21
-78.096715228
  0
ARC
  8
1
 62
4
  6
CONTINUOUS
 10
-302.856709162
 20
43.205500772
 40
1.000000000
 50
0.000000000
 51
180.000000000
  0
LINE
  8
1
 62
4
  6
CONTINUOUS
 10
-303.856709162
 20
-78.096715228
 11
-303.856709162
 21
43.205500772
  0
LINE
  8
1
 62
4
  6
CONTINUOUS
 10
-301.856709162
 20
43.205500772
 11
-301.856709162
 21
-78.096715228
  0
ARC
  8
1
 62
4
  6
CONTINUOUS
 10
-312.856709162
 20
43.205500772
 40
1.000000000
 50
0.000000000
 51
180.000000000
  0
LINE
  8
1
 62
4
  6
CONTINUOUS
 10
-313.856709162
 20
-78.096715228
 11
-313.856709162
 21
43.205500772
  0
LINE
  8
1
 62
4
  6
CONTINUOUS
 10
-311.856709162
 20
43.205500772
 11
-311.856709162
 21
-78.096715228
  0
ARC
  8
1
 62
4
  6
CONTINUOUS
 10
-322.856709162
 20
43.205500772
 40
1.000000000
 50
0.000000000
 51
180.000000000
  0
LINE
  8
1
 62
4
  6
CONTINUOUS
 10
-323.856709162
 20
-78.096715228
 11
-323.856709162
 21
43.205500772
  0
LINE
  8
1
 62
4
  6
CONTINUOUS
 10
-321.856709162
 20
43.205500772
 11
-321.856709162
 21
-78.096715228
  0
ARC
  8
1
 62
4
  6
CONTINUOUS
 10
-332.856709162
 20
43.205500772
 40
1.000000000
 50
0.000000000
 51
180.000000000
  0
LINE
  8
1
 62
4
  6
CONTINUOUS
 10
-333.856709162
 20
-78.096715228
 11
-333.856709162
 21
43.205500772
  0
LINE
  8
1
 62
4
  6
CONTINUOUS
 10
-331.856709162
 20
43.205500772
 11
-331.856709162
 21
-78.096715228
  0
ARC
  8
1
 62
4
  6
CONTINUOUS
 10
-342.856709162
 20
43.205500772
 40
1.000000000
 50
0.000000000
 51
180.000000000
  0
LINE
  8
1
 62
4
  6
CONTINUOUS
 10
-343.856709162
 20
-78.096715228
 11
-343.856709162
 21
43.205500772
  0
LINE
  8
1
 62
4
  6
CONTINUOUS
 10
-341.856709162
 20
43.205500772
 11
-341.856709162
 21
-78.096715228
  0
ARC
  8
1
 62
4
  6
CONTINUOUS
 10
-352.856709162
 20
43.205500772
 40
1.000000000
 50
0.000000000
 51
180.000000000
  0
LINE
  8
1
 62
4
  6
CONTINUOUS
 10
-353.856709162
 20
-78.096715228
 11
-353.856709162
 21
43.205500772
  0
LINE
  8
1
 62
4
  6
CONTINUOUS
 10
-351.856709162
 20
43.205500772
 11
-351.856709162
 21
-78.096715228
  0
ARC
  8
1
 62
4
  6
CONTINUOUS
 10
-362.856709162
 20
43.205500772
 40
1.000000000
 50
0.000000000
 51
180.000000000
  0
LINE
  8
1
 62
4
  6
CONTINUOUS
 10
-363.856709162
 20
-78.096715228
 11
-363.856709162
 21
43.205500772
  0
LINE
  8
1
 62
4
  6
CONTINUOUS
 10
-361.856709162
 20
43.205500772
 11
-361.856709162
 21
-78.096715228
  0
ARC
  8
1
 62
4
  6
CONTINUOUS
 10
-372.856709162
 20
43.205500772
 40
1.000000000
 50
0.000000000
 51
180.000000000
  0
LINE
  8
1
 62
4
  6
CONTINUOUS
 10
-373.856709162
 20
-78.096715228
 11
-373.856709162
 21
43.205500772
  0
LINE
  8
1
 62
4
  6
CONTINUOUS
 10
-371.856709162
 20
43.205500772
 11
-371.856709162
 21
-78.096715228
  0
ARC
  8
1
 62
4
  6
CONTINUOUS
 10
-382.856709162
 20
43.205500772
 40
1.000000000
 50
0.000000000
 51
180.000000000
  0
LINE
  8
1
 62
4
  6
CONTINUOUS
 10
-383.856709162
 20
-78.096715228
 11
-383.856709162
 21
43.205500772
  0
LINE
  8
1
 62
4
  6
CONTINUOUS
 10
-381.856709162
 20
43.205500772
 11
-381.856709162
 21
-78.096715228
  0
ARC
  8
1
 62
4
  6
CONTINUOUS
 10
-392.856709162
 20
43.205500772
 40
1.000000000
 50
0.000000000
 51
180.000000000
  0
LINE
  8
1
 62
4
  6
CONTINUOUS
 10
-393.856709162
 20
-78.096715228
 11
-393.856709162
 21
43.205500772
  0
LINE
  8
1
 62
4
  6
CONTINUOUS
 10
-391.856709162
 20
43.205500772
 11
-391.856709162
 21
-78.096715228
  0
ARC
  8
1
 62
4
  6
CONTINUOUS
 10
-402.856709162
 20
43.205500772
 40
1.000000000
 50
0.000000000
 51
180.000000000
  0
LINE
  8
1
 62
4
  6
CONTINUOUS
 10
-403.856709162
 20
-78.096715228
 11
-403.856709162
 21
43.205500772
  0
LINE
  8
1
 62
4
  6
CONTINUOUS
 10
-401.856709162
 20
43.205500772
 11
-401.856709162
 21
-78.096715228
  0
ARC
  8
1
 62
4
  6
CONTINUOUS
 10
-412.856709162
 20
43.205500772
 40
1.000000000
 50
0.000000000
 51
180.000000000
  0
LINE
  8
1
 62
4
  6
CONTINUOUS
 10
-413.856709162
 20
-78.096715228
 11
-413.856709162
 21
43.205500772
  0
LINE
  8
1
 62
4
  6
CONTINUOUS
 10
-411.856709162
 20
43.205500772
 11
-411.856709162
 21
-78.096715228
  0
ARC
  8
1
 62
4
  6
CONTINUOUS
 10
-422.856709162
 20
43.205500772
 40
1.000000000
 50
0.000000000
 51
180.000000000
  0
LINE
  8
1
 62
4
  6
CONTINUOUS
 10
-423.856709162
 20
-78.096715228
 11
-423.856709162
 21
43.205500772
  0
LINE
  8
1
 62
4
  6
CONTINUOUS
 10
-421.856709162
 20
43.205500772
 11
-421.856709162
 21
-78.096715228
  0
ARC
  8
1
 62
4
  6
CONTINUOUS
 10
-432.856709162
 20
43.205500772
 40
1.000000000
 50
0.000000000
 51
180.000000000
  0
LINE
  8
1
 62
4
  6
CONTINUOUS
 10
-433.856709162
 20
-78.096715228
 11
-433.856709162
 21
43.205500772
  0
LINE
  8
1
 62
4
  6
CONTINUOUS
 10
-431.856709162
 20
43.205500772
 11
-431.856709162
 21
-78.096715228
  0
ARC
  8
1
 62
4
  6
CONTINUOUS
 10
-442.856709162
 20
43.205500772
 40
1.000000000
 50
0.000000000
 51
180.000000000
  0
LINE
  8
1
 62
4
  6
CONTINUOUS
 10
-443.856709162
 20
-78.096715228
 11
-443.856709162
 21
43.205500772
  0
LINE
  8
1
 62
4
  6
CONTINUOUS
 10
-441.856709162
 20
43.205500772
 11
-441.856709162
 21
-78.096715228
  0
ARC
  8
1
 62
4
  6
CONTINUOUS
 10
-452.856709162
 20
43.205500772
 40
1.000000000
 50
0.000000000
 51
180.000000000
  0
LINE
  8
1
 62
4
  6
CONTINUOUS
 10
-453.856709162
 20
-78.096715228
 11
-453.856709162
 21
43.205500772
  0
LINE
  8
1
 62
4
  6
CONTINUOUS
 10
-451.856709162
 20
43.205500772
 11
-451.856709162
 21
-78.096715228
  0
LINE
  8
1
 62
4
  6
CONTINUOUS
 10
-113.856709162
 20
43.205500772
 11
-113.856709162
 21
-78.096715228
  0
LINE
  8
1
 62
4
  6
CONTINUOUS
 10
-111.856709162
 20
-78.096715228
 11
-111.856709162
 21
43.205500772
  0
ARC
  8
1
 62
4
  6
CONTINUOUS
 10
-112.856709162
 20
43.205500772
 40
1.000000000
 50
0.000000000
 51
180.000000000
  0
LINE
  8
1
 62
4
  6
CONTINUOUS
 10
-123.856709162
 20
43.205500772
 11
-123.856709162
 21
-78.096715228
  0
LINE
  8
1
 62
4
  6
CONTINUOUS
 10
-121.856709162
 20
-78.096715228
 11
-121.856709162
 21
43.205500772
  0
LINE
  8
1
 62
4
  6
CONTINUOUS
 10
-133.856709162
 20
43.205500772
 11
-133.856709162
 21
-78.096715228
  0
LINE
  8
1
 62
4
  6
CONTINUOUS
 10
-131.856709162
 20
-78.096715228
 11
-131.856709162
 21
43.205500772
  0
ARC
  8
1
 62
4
  6
CONTINUOUS
 10
-132.856709162
 20
43.205500772
 40
1.000000000
 50
0.000000000
 51
180.000000000
  0
LINE
  8
1
 62
4
  6
CONTINUOUS
 10
-143.856709162
 20
43.205500772
 11
-143.856709162
 21
-78.096715228
  0
LINE
  8
1
 62
4
  6
CONTINUOUS
 10
-141.856709162
 20
-78.096715228
 11
-141.856709162
 21
43.205500772
  0
ARC
  8
1
 62
4
  6
CONTINUOUS
 10
-142.856709162
 20
43.205500772
 40
1.000000000
 50
0.000000000
 51
180.000000000
  0
LINE
  8
1
 62
4
  6
CONTINUOUS
 10
-153.856709162
 20
43.205500772
 11
-153.856709162
 21
-78.096715228
  0
LINE
  8
1
 62
4
  6
CONTINUOUS
 10
-151.856709162
 20
-78.096715228
 11
-151.856709162
 21
43.205500772
  0
ARC
  8
1
 62
4
  6
CONTINUOUS
 10
-152.856709162
 20
43.205500772
 40
1.000000000
 50
0.000000000
 51
180.000000000
  0
LINE
  8
1
 62
4
  6
CONTINUOUS
 10
-163.856709162
 20
43.205500772
 11
-163.856709162
 21
-78.096715228
  0
LINE
  8
1
 62
4
  6
CONTINUOUS
 10
-161.856709162
 20
-78.096715228
 11
-161.856709162
 21
43.205500772
  0
ARC
  8
1
 62
4
  6
CONTINUOUS
 10
-162.856709162
 20
43.205500772
 40
1.000000000
 50
0.000000000
 51
180.000000000
  0
LINE
  8
1
 62
4
  6
CONTINUOUS
 10
-173.856709162
 20
43.205500772
 11
-173.856709162
 21
-78.096715228
  0
LINE
  8
1
 62
4
  6
CONTINUOUS
 10
-171.856709162
 20
-78.096715228
 11
-171.856709162
 21
43.205500772
  0
ARC
  8
1
 62
4
  6
CONTINUOUS
 10
-172.856709162
 20
43.205500772
 40
1.000000000
 50
0.000000000
 51
180.000000000
  0
LINE
  8
1
 62
4
  6
CONTINUOUS
 10
-183.856709162
 20
43.205500772
 11
-183.856709162
 21
-78.096715228
  0
LINE
  8
1
 62
4
  6
CONTINUOUS
 10
-181.856709162
 20
-78.096715228
 11
-181.856709162
 21
43.205500772
  0
ARC
  8
1
 62
4
  6
CONTINUOUS
 10
-182.856709162
 20
43.205500772
 40
1.000000000
 50
0.000000000
 51
180.000000000
  0
LINE
  8
1
 62
4
  6
CONTINUOUS
 10
-193.856709162
 20
43.205500772
 11
-193.856709162
 21
-78.096715228
  0
LINE
  8
1
 62
4
  6
CONTINUOUS
 10
-191.856709162
 20
-78.096715228
 11
-191.856709162
 21
43.205500772
  0
ARC
  8
1
 62
4
  6
CONTINUOUS
 10
-192.856709162
 20
43.205500772
 40
1.000000000
 50
0.000000000
 51
180.000000000
  0
LINE
  8
1
 62
4
  6
CONTINUOUS
 10
-203.856709162
 20
43.205500772
 11
-203.856709162
 21
-78.096715228
  0
LINE
  8
1
 62
4
  6
CONTINUOUS
 10
-201.856709162
 20
-78.096715228
 11
-201.856709162
 21
43.205500772
  0
ARC
  8
1
 62
4
  6
CONTINUOUS
 10
-202.856709162
 20
43.205500772
 40
1.000000000
 50
0.000000000
 51
180.000000000
  0
LINE
  8
1
 62
4
  6
CONTINUOUS
 10
-213.856709162
 20
43.205500772
 11
-213.856709162
 21
-78.096715228
  0
LINE
  8
1
 62
4
  6
CONTINUOUS
 10
-211.856709162
 20
-78.096715228
 11
-211.856709162
 21
43.205500772
  0
ARC
  8
1
 62
4
  6
CONTINUOUS
 10
-212.856709162
 20
43.205500772
 40
1.000000000
 50
0.000000000
 51
180.000000000
  0
LINE
  8
1
 62
4
  6
CONTINUOUS
 10
-223.856709162
 20
43.205500772
 11
-223.856709162
 21
-78.096715228
  0
LINE
  8
1
 62
4
  6
CONTINUOUS
 10
-221.856709162
 20
-78.096715228
 11
-221.856709162
 21
43.205500772
  0
ARC
  8
1
 62
4
  6
CONTINUOUS
 10
-222.856709162
 20
43.205500772
 40
1.000000000
 50
0.000000000
 51
180.000000000
  0
LINE
  8
1
 62
4
  6
CONTINUOUS
 10
-233.856709162
 20
43.205500772
 11
-233.856709162
 21
-78.096715228
  0
LINE
  8
1
 62
4
  6
CONTINUOUS
 10
-231.856709162
 20
-78.096715228
 11
-231.856709162
 21
43.205500772
  0
ARC
  8
1
 62
4
  6
CONTINUOUS
 10
-232.856709162
 20
43.205500772
 40
1.000000000
 50
0.000000000
 51
180.000000000
  0
LINE
  8
1
 62
4
  6
CONTINUOUS
 10
-243.856709162
 20
43.205500772
 11
-243.856709162
 21
-78.096715228
  0
LINE
  8
1
 62
4
  6
CONTINUOUS
 10
-241.856709162
 20
-78.096715228
 11
-241.856709162
 21
43.205500772
  0
ARC
  8
1
 62
4
  6
CONTINUOUS
 10
-242.856709162
 20
43.205500772
 40
1.000000000
 50
0.000000000
 51
180.000000000
  0
LINE
  8
1
 62
4
  6
CONTINUOUS
 10
-253.856709162
 20
43.205500772
 11
-253.856709162
 21
-78.096715228
  0
LINE
  8
1
 62
4
  6
CONTINUOUS
 10
-251.856709162
 20
-78.096715228
 11
-251.856709162
 21
43.205500772
  0
ARC
  8
1
 62
4
  6
CONTINUOUS
 10
-252.856709162
 20
43.205500772
 40
1.000000000
 50
0.000000000
 51
180.000000000
  0
LINE
  8
1
 62
4
  6
CONTINUOUS
 10
-263.856709162
 20
43.205500772
 11
-263.856709162
 21
-78.096715228
  0
LINE
  8
1
 62
4
  6
CONTINUOUS
 10
-261.856709162
 20
-78.096715228
 11
-261.856709162
 21
43.205500772
  0
ARC
  8
1
 62
4
  6
CONTINUOUS
 10
-262.856709162
 20
43.205500772
 40
1.000000000
 50
0.000000000
 51
180.000000000
  0
LINE
  8
1
 62
4
  6
CONTINUOUS
 10
-273.856709162
 20
43.205500772
 11
-273.856709162
 21
-78.096715228
  0
LINE
  8
1
 62
4
  6
CONTINUOUS
 10
-271.856709162
 20
-78.096715228
 11
-271.856709162
 21
43.205500772
  0
ARC
  8
1
 62
4
  6
CONTINUOUS
 10
-272.856709162
 20
43.205500772
 40
1.000000000
 50
0.000000000
 51
180.000000000
  0
ARC
  8
1
 62
4
  6
CONTINUOUS
 10
-282.856709162
 20
43.205500772
 40
1.000000000
 50
0.000000000
 51
180.000000000
  0
LINE
  8
1
 62
4
  6
CONTINUOUS
 10
-281.856709162
 20
-78.096715228
 11
-281.856709162
 21
43.205500772
  0
LINE
  8
1
 62
4
  6
CONTINUOUS
 10
-283.856709162
 20
43.205500772
 11
-283.856709162
 21
-78.096715228
  0
ARC
  8
1
 62
4
  6
CONTINUOUS
 10
-112.856709162
 20
-78.096715228
 40
1.000000000
 50
180.000000000
 51
0.000000000
  0
ARC
  8
1
 62
4
  6
CONTINUOUS
 10
-122.856709162
 20
-78.096715228
 40
1.000000000
 50
180.000000000
 51
0.000000000
  0
ARC
  8
1
 62
4
  6
CONTINUOUS
 10
-132.856709162
 20
-78.096715228
 40
1.000000000
 50
180.000000000
 51
0.000000000
  0
ARC
  8
1
 62
4
  6
CONTINUOUS
 10
-142.856709162
 20
-78.096715228
 40
1.000000000
 50
180.000000000
 51
0.000000000
  0
ARC
  8
1
 62
4
  6
CONTINUOUS
 10
-152.856709162
 20
-78.096715228
 40
1.000000000
 50
180.000000000
 51
0.000000000
  0
ARC
  8
1
 62
4
  6
CONTINUOUS
 10
-162.856709162
 20
-78.096715228
 40
1.000000000
 50
180.000000000
 51
0.000000000
  0
ARC
  8
1
 62
4
  6
CONTINUOUS
 10
-172.856709162
 20
-78.096715228
 40
1.000000000
 50
180.000000000
 51
0.000000000
  0
ARC
  8
1
 62
4
  6
CONTINUOUS
 10
-182.856709162
 20
-78.096715228
 40
1.000000000
 50
180.000000000
 51
0.000000000
  0
ARC
  8
1
 62
4
  6
CONTINUOUS
 10
-192.856709162
 20
-78.096715228
 40
1.000000000
 50
180.000000000
 51
0.000000000
  0
ARC
  8
1
 62
4
  6
CONTINUOUS
 10
-202.856709162
 20
-78.096715228
 40
1.000000000
 50
180.000000000
 51
0.000000000
  0
ARC
  8
1
 62
4
  6
CONTINUOUS
 10
-212.856709162
 20
-78.096715228
 40
1.000000000
 50
180.000000000
 51
0.000000000
  0
ARC
  8
1
 62
4
  6
CONTINUOUS
 10
-222.856709162
 20
-78.096715228
 40
1.000000000
 50
180.000000000
 51
0.000000000
  0
ARC
  8
1
 62
4
  6
CONTINUOUS
 10
-232.856709162
 20
-78.096715228
 40
1.000000000
 50
180.000000000
 51
0.000000000
  0
ARC
  8
1
 62
4
  6
CONTINUOUS
 10
-242.856709162
 20
-78.096715228
 40
1.000000000
 50
180.000000000
 51
0.000000000
  0
ARC
  8
1
 62
4
  6
CONTINUOUS
 10
-252.856709162
 20
-78.096715228
 40
1.000000000
 50
180.000000000
 51
0.000000000
  0
ARC
  8
1
 62
4
  6
CONTINUOUS
 10
-262.856709162
 20
-78.096715228
 40
1.000000000
 50
180.000000000
 51
0.000000000
  0
ARC
  8
1
 62
4
  6
CONTINUOUS
 10
-272.856709162
 20
-78.096715228
 40
1.000000000
 50
180.000000000
 51
0.000000000
  0
ARC
  8
1
 62
4
  6
CONTINUOUS
 10
-282.856709162
 20
-78.096715228
 40
1.000000000
 50
180.000000000
 51
0.000000000
  0
ARC
  8
1
 62
4
  6
CONTINUOUS
 10
-292.856709162
 20
-78.096715228
 40
1.000000000
 50
180.000000000
 51
0.000000000
  0
ARC
  8
1
 62
4
  6
CONTINUOUS
 10
-302.856709162
 20
-78.096715228
 40
1.000000000
 50
180.000000000
 51
0.000000000
  0
ARC
  8
1
 62
4
  6
CONTINUOUS
 10
-312.856709162
 20
-78.096715228
 40
1.000000000
 50
180.000000000
 51
0.000000000
  0
ARC
  8
1
 62
4
  6
CONTINUOUS
 10
-322.856709162
 20
-78.096715228
 40
1.000000000
 50
180.000000000
 51
0.000000000
  0
ARC
  8
1
 62
4
  6
CONTINUOUS
 10
-332.856709162
 20
-78.096715228
 40
1.000000000
 50
180.000000000
 51
0.000000000
  0
ARC
  8
1
 62
4
  6
CONTINUOUS
 10
-342.856709162
 20
-78.096715228
 40
1.000000000
 50
180.000000000
 51
0.000000000
  0
ARC
  8
1
 62
4
  6
CONTINUOUS
 10
-352.856709162
 20
-78.096715228
 40
1.000000000
 50
180.000000000
 51
0.000000000
  0
ARC
  8
1
 62
4
  6
CONTINUOUS
 10
-362.856709162
 20
-78.096715228
 40
1.000000000
 50
180.000000000
 51
0.000000000
  0
ARC
  8
1
 62
4
  6
CONTINUOUS
 10
-372.856709162
 20
-78.096715228
 40
1.000000000
 50
180.000000000
 51
0.000000000
  0
ARC
  8
1
 62
4
  6
CONTINUOUS
 10
-382.856709162
 20
-78.096715228
 40
1.000000000
 50
180.000000000
 51
0.000000000
  0
ARC
  8
1
 62
4
  6
CONTINUOUS
 10
-392.856709162
 20
-78.096715228
 40
1.000000000
 50
180.000000000
 51
0.000000000
  0
ARC
  8
1
 62
4
  6
CONTINUOUS
 10
-402.856709162
 20
-78.096715228
 40
1.000000000
 50
180.000000000
 51
0.000000000
  0
ARC
  8
1
 62
4
  6
CONTINUOUS
 10
-412.856709162
 20
-78.096715228
 40
1.000000000
 50
180.000000000
 51
0.000000000
  0
ARC
  8
1
 62
4
  6
CONTINUOUS
 10
-422.856709162
 20
-78.096715228
 40
1.000000000
 50
180.000000000
 51
0.000000000
  0
ARC
  8
1
 62
4
  6
CONTINUOUS
 10
-432.856709162
 20
-78.096715228
 40
1.000000000
 50
180.000000000
 51
0.000000000
  0
ARC
  8
1
 62
4
  6
CONTINUOUS
 10
-442.856709162
 20
-78.096715228
 40
1.000000000
 50
180.000000000
 51
0.000000000
  0
ARC
  8
1
 62
4
  6
CONTINUOUS
 10
-452.856709162
 20
-78.096715228
 40
1.000000000
 50
180.000000000
 51
0.000000000
  0
LINE
  8
1
 62
1
  6
CONTINUOUS
 10
-457.356709162
 20
7.310225664
 11
-108.356709162
 21
7.310225664
  0
LINE
  8
1
 62
1
  6
CONTINUOUS
 10
-108.356709162
 20
-3.189774336
 11
-457.356709162
 21
-3.189774336
  0
LINE
  8
1
 62
4
  6
CONTINUOUS
 10
-454.856709162
 20
-63.410829228
 11
-454.856709162
 21
28.698170772
  0
LINE
  8
1
 62
4
  6
CONTINUOUS
 10
-454.856709162
 20
28.698170772
 11
-282.856709162
 21
28.698170772
  0
LINE
  8
1
 62
4
  6
CONTINUOUS
 10
-454.856709162
 20
-62.910829228
 11
-110.856709162
 21
-62.910829228
  0
LINE
  8
1
 62
4
  6
CONTINUOUS
 10
-454.856709162
 20
-63.410829228
 11
-110.856709162
 21
-63.410829228
  0
LINE
  8
1
 62
4
  6
CONTINUOUS
 10
-110.856709162
 20
28.698170772
 11
-282.856709162
 21
28.698170772
  0
LINE
  8
1
 62
4
  6
CONTINUOUS
 10
-110.856709162
 20
-63.410829228
 11
-110.856709162
 21
28.698170772
  0
LINE
  8
1
 62
4
  6
CONTINUOUS
 10
-110.856709162
 20
28.198172772
 11
-454.856709162
 21
28.198172772
  0
ARC
  8
1
 62
4
  6
CONTINUOUS
 10
-273.956479162
 20
-17.371621228
 40
4.900230000
 50
106.603557000
 51
253.396443000
  0
LINE
  8
1
 62
4
  6
CONTINUOUS
 10
-275.356709162
 20
-12.675705228
 11
-275.356709162
 21
-13.471621228
  0
LINE
  8
1
 62
4
  6
CONTINUOUS
 10
-275.356709162
 20
-22.067535228
 11
-275.356709162
 21
-21.271621228
  0
LINE
  8
1
 62
4
  6
CONTINUOUS
 10
-275.356709162
 20
-12.971621228
 11
-122.356709162
 21
-12.971621228
  0
LINE
  8
1
 62
4
  6
CONTINUOUS
 10
-275.356709162
 20
-13.471621228
 11
-122.356709162
 21
-13.471621228
  0
LINE
  8
1
 62
4
  6
CONTINUOUS
 10
-275.356709162
 20
-21.271621228
 11
-122.356709162
 21
-21.271621228
  0
LINE
  8
1
 62
4
  6
CONTINUOUS
 10
-275.356709162
 20
-21.771621228
 11
-122.356709162
 21
-21.771621228
  0
LINE
  8
1
 62
4
  6
CONTINUOUS
 10
-122.356709162
 20
-22.067535228
 11
-122.356709162
 21
-21.271621228
  0
LINE
  8
1
 62
4
  6
CONTINUOUS
 10
-122.356709162
 20
-12.675705228
 11
-122.356709162
 21
-13.471621228
  0
ARC
  8
1
 62
4
  6
CONTINUOUS
 10
-123.756939162
 20
-17.371621228
 40
4.900230000
 50
286.603557000
 51
73.396443000
  0
ARC
  8
1
 62
4
  6
CONTINUOUS
 10
-441.956479162
 20
-17.371621228
 40
4.900230000
 50
106.603557000
 51
253.396443000
  0
LINE
  8
1
 62
4
  6
CONTINUOUS
 10
-443.356709162
 20
-12.675705228
 11
-443.356709162
 21
-13.471621228
  0
LINE
  8
1
 62
4
  6
CONTINUOUS
 10
-443.356709162
 20
-22.067535228
 11
-443.356709162
 21
-21.271621228
  0
LINE
  8
1
 62
4
  6
CONTINUOUS
 10
-290.356709162
 20
-21.771621228
 11
-443.356709162
 21
-21.771621228
  0
LINE
  8
1
 62
4
  6
CONTINUOUS
 10
-290.356709162
 20
-21.271621228
 11
-443.356709162
 21
-21.271621228
  0
LINE
  8
1
 62
4
  6
CONTINUOUS
 10
-290.356709162
 20
-13.471621228
 11
-443.356709162
 21
-13.471621228
  0
LINE
  8
1
 62
4
  6
CONTINUOUS
 10
-290.356709162
 20
-12.971621228
 11
-443.356709162
 21
-12.971621228
  0
LINE
  8
1
 62
4
  6
CONTINUOUS
 10
-290.356709162
 20
-22.067535228
 11
-290.356709162
 21
-21.271621228
  0
LINE
  8
1
 62
4
  6
CONTINUOUS
 10
-290.356709162
 20
-12.675705228
 11
-290.356709162
 21
-13.471621228
  0
ARC
  8
1
 62
4
  6
CONTINUOUS
 10
-291.756939162
 20
-17.371621228
 40
4.900230000
 50
286.603557000
 51
73.396443000
  0
LINE
  8
1
 62
4
  6
CONTINUOUS
 10
-122.356709162
 20
-12.675705228
 11
-110.856709162
 21
-12.675705228
  0
LINE
  8
1
 62
4
  6
CONTINUOUS
 10
-122.356709162
 20
-22.067535228
 11
-110.856709162
 21
-22.067535228
  0
LINE
  8
1
 62
4
  6
CONTINUOUS
 10
-290.356709162
 20
-12.675705228
 11
-275.356709162
 21
-12.675705228
  0
LINE
  8
1
 62
4
  6
CONTINUOUS
 10
-290.356709162
 20
-22.067535228
 11
-275.356709162
 21
-22.067535228
  0
LINE
  8
1
 62
4
  6
CONTINUOUS
 10
-454.856709162
 20
-22.067535228
 11
-443.356709162
 21
-22.067535228
  0
LINE
  8
1
 62
4
  6
CONTINUOUS
 10
-454.856709162
 20
-12.675705228
 11
-443.356709162
 21
-12.675705228
  0
ARC
  8
1
 62
7
  6
CONTINUOUS
 10
-121.225395162
 20
346.027689349
 40
3.000000000
 50
185.000000000
 51
270.000000000
  0
LINE
  8
1
 62
1
  6
HIDDEN2
 10
-357.856709162
 20
-268.324653228
 11
-357.856709162
 21
-265.843558554
  0
LINE
  8
1
 62
2
  6
CENTER2
 10
-91.301475491
 20
317.027689349
 11
-11.663015491
 21
317.027689349
  0
LINE
  8
1
 62
1
  6
CONTINUOUS
 10
-84.156709162
 20
380.527689349
 11
-84.756709162
 21
380.527689349
  0
LINE
  8
1
 62
1
  6
CONTINUOUS
 10
-84.156709162
 20
253.527689349
 11
-84.756709162
 21
253.527689349
  0
LINE
  8
1
 62
1
  6
CONTINUOUS
 10
-85.356709162
 20
391.527689349
 11
-85.356709162
 21
223.027689349
  0
LINE
  8
1
 62
7
  6
CONTINUOUS
 10
-66.156709162
 20
370.527689349
 11
-84.156709162
 21
370.527689349
  0
LINE
  8
1
 62
7
  6
CONTINUOUS
 10
-84.156709162
 20
263.527689349
 11
-66.156709162
 21
263.527689349
  0
LINE
  8
1
 62
7
  6
CONTINUOUS
 10
-66.156709162
 20
263.527689349
 11
-66.156709162
 21
370.527689349
  0
LINE
  8
1
 62
7
  6
CONTINUOUS
 10
-66.156709162
 20
263.527689349
 11
-60.156709162
 21
268.027689349
  0
LINE
  8
1
 62
7
  6
CONTINUOUS
 10
-60.156709162
 20
268.027689349
 11
-60.156709162
 21
366.027689349
  0
LINE
  8
1
 62
7
  6
CONTINUOUS
 10
-60.156709162
 20
366.027689349
 11
-66.156709162
 21
370.527689349
  0
LINE
  8
1
 62
7
  6
CONTINUOUS
 10
-38.156709162
 20
269.027689349
 11
-25.156709162
 21
269.027689349
  0
LINE
  8
1
 62
7
  6
CONTINUOUS
 10
-25.156709162
 20
365.027689349
 11
-38.156709162
 21
365.027689349
  0
LINE
  8
1
 62
7
  6
CONTINUOUS
 10
-25.156709162
 20
269.027689349
 11
-25.156709162
 21
365.027689349
  0
LINE
  8
1
 62
7
  6
CONTINUOUS
 10
-38.156709162
 20
268.027689349
 11
-38.156709162
 21
366.027689349
  0
LINE
  8
1
 62
7
  6
CONTINUOUS
 10
-38.156709162
 20
366.027689349
 11
-40.156709162
 21
366.027689349
  0
LINE
  8
1
 62
7
  6
CONTINUOUS
 10
-25.156709162
 20
269.027689349
 11
-19.156709162
 21
269.527689349
  0
LINE
  8
1
 62
7
  6
CONTINUOUS
 10
-19.156709162
 20
269.527689349
 11
-19.156709162
 21
364.527689349
  0
LINE
  8
1
 62
7
  6
CONTINUOUS
 10
-19.156709162
 20
364.527689349
 11
-25.156709162
 21
365.027689349
  0
LINE
  8
1
 62
1
  6
CONTINUOUS
 10
-84.156709162
 20
380.527689349
 11
-84.156709162
 21
253.527689349
  0
LINE
  8
1
 62
1
  6
CONTINUOUS
 10
-84.756709162
 20
391.527689349
 11
-84.756709162
 21
223.027689349
  0
LINE
  8
1
 62
1
  6
CONTINUOUS
 10
-85.356709162
 20
223.027689349
 11
-80.856709162
 21
223.027689349
  0
LINE
  8
1
 62
1
  6
CONTINUOUS
 10
-60.356709162
 20
223.027689349
 11
-60.356709162
 21
223.627689349
  0
LINE
  8
1
 62
1
  6
CONTINUOUS
 10
-60.356709162
 20
223.627689349
 11
-84.756709162
 21
223.627689349
  0
LINE
  8
1
 62
1
  6
CONTINUOUS
 10
-73.356709162
 20
223.027689349
 11
-60.356709162
 21
223.027689349
  0
ARC
  8
1
 62
1
  6
CONTINUOUS
 10
-85.756709162
 20
391.527689349
 40
1.000000000
 50
0.000000000
 51
180.000000000
  0
ARC
  8
1
 62
1
  6
CONTINUOUS
 10
-85.756709162
 20
391.527689349
 40
0.400000000
 50
0.000000000
 51
180.000000000
  0
LINE
  8
1
 62
1
  6
CONTINUOUS
 10
-86.756709162
 20
391.527689349
 11
-86.756709162
 21
380.027689349
  0
LINE
  8
1
 62
1
  6
CONTINUOUS
 10
-86.756709162
 20
380.027689349
 11
-86.156709162
 21
380.027689349
  0
LINE
  8
1
 62
1
  6
CONTINUOUS
 10
-86.156709162
 20
369.527689349
 11
-86.156709162
 21
391.527689349
  0
LINE
  8
1
 62
1
  6
CONTINUOUS
 10
-86.156709162
 20
369.527689349
 11
-95.155737162
 21
358.803067349
  0
LINE
  8
1
 62
1
  6
CONTINUOUS
 10
-95.155737162
 20
358.803067349
 11
-94.542901162
 21
358.288837349
  0
LINE
  8
1
 62
1
  6
CONTINUOUS
 10
-94.542901162
 20
358.288837349
 11
-85.356709162
 21
369.236513349
  0
LINE
  8
1
 62
1
  6
CONTINUOUS
 10
-86.156709162
 20
391.527689349
 11
-85.356709162
 21
391.527693349
  0
LINE
  8
1
 62
7
  6
CONTINUOUS
 10
-60.156709162
 20
268.027689349
 11
-40.156709162
 21
268.027689349
  0
LINE
  8
1
 62
7
  6
CONTINUOUS
 10
-40.156709162
 20
268.027689349
 11
-40.156709162
 21
366.027689349
  0
LINE
  8
1
 62
7
  6
CONTINUOUS
 10
-40.156709162
 20
366.027689349
 11
-60.156709162
 21
366.027689349
  0
LINE
  8
1
 62
7
  6
CONTINUOUS
 10
-40.156709162
 20
268.027689349
 11
-38.156709162
 21
268.027689349
  0
LINE
  8
1
 62
1
  6
HIDDEN2
 10
-455.856709162
 20
-268.324653228
 11
-455.856709162
 21
-270.324653228
  0
LINE
  8
1
 62
1
  6
HIDDEN2
 10
-454.856709162
 20
-283.324653228
 11
-454.356709162
 21
-289.324653228
  0
LINE
  8
1
 62
1
  6
HIDDEN2
 10
-481.556709162
 20
263.527689349
 11
-499.556709162
 21
263.527689349
  0
LINE
  8
1
 62
1
  6
HIDDEN2
 10
-499.556709162
 20
370.527689349
 11
-481.556709162
 21
370.527689349
  0
LINE
  8
1
 62
2
  6
CENTER2
 10
-406.856709162
 20
-252.305998976
 11
-406.856709162
 21
-296.818346899
  0
LINE
  8
1
 62
1
  6
HIDDEN2
 10
-454.856709162
 20
-270.324653228
 11
-454.856709162
 21
-283.324653228
  0
LINE
  8
1
 62
1
  6
HIDDEN2
 10
-454.856709162
 20
-283.324653228
 11
-358.856709162
 21
-283.324653228
  0
LINE
  8
1
 62
1
  6
HIDDEN2
 10
-358.856709162
 20
-283.324653228
 11
-358.856709162
 21
-270.324653228
  0
LINE
  8
1
 62
1
  6
HIDDEN2
 10
-480.356709162
 20
391.527689349
 11
-480.356709162
 21
223.027689349
  0
LINE
  8
1
 62
1
  6
HIDDEN2
 10
-357.856709162
 20
-270.324653228
 11
-357.856709162
 21
-268.324653228
  0
LINE
  8
1
 62
1
  6
HIDDEN2
 10
-359.356709162
 20
-289.324653228
 11
-358.856709162
 21
-283.324653228
  0
LINE
  8
1
 62
2
  6
CENTER2
 10
-282.856709162
 20
398.782621349
 11
-282.856709162
 21
160.464942894
  0
ARC
  8
1
 62
7
  6
CONTINUOUS
 10
-480.756709162
 20
223.427689349
 40
0.400000000
 50
270.000000000
 51
0.000000000
  0
ARC
  8
1
 62
7
  6
CONTINUOUS
 10
-84.956709162
 20
223.427689349
 40
0.400000000
 50
180.000000000
 51
270.000000000
  0
LINE
  8
1
 62
7
  6
CONTINUOUS
 10
-245.596299162
 20
356.089157349
 11
-246.499439162
 21
345.766223349
  0
ARC
  8
1
 62
7
  6
CONTINUOUS
 10
-242.607715162
 20
355.827689349
 40
3.000000000
 50
90.000000000
 51
175.000000000
  0
ARC
  8
1
 62
7
  6
CONTINUOUS
 10
-249.488023162
 20
346.027689349
 40
3.000000000
 50
270.000000000
 51
355.000000000
  0
ARC
  8
1
 62
1
  6
HIDDEN2
 10
-283.225395162
 20
346.027689349
 40
3.000000000
 50
185.000000000
 51
225.048495000
  0
LINE
  8
1
 62
7
  6
CONTINUOUS
 10
-284.856709162
 20
344.327689349
 11
-280.856709162
 21
344.327689349
  0
LINE
  8
1
 62
7
  6
CONTINUOUS
 10
-280.856709162
 20
344.327689349
 11
-279.356709162
 21
343.027689349
  0
LINE
  8
1
 62
7
  6
CONTINUOUS
 10
-98.356709162
 20
343.027689349
 11
-96.856709162
 21
344.327689349
  0
LINE
  8
1
 62
7
  6
CONTINUOUS
 10
-96.856709162
 20
344.327689349
 11
-92.856709162
 21
344.327689349
  0
LINE
  8
1
 62
7
  6
CONTINUOUS
 10
-92.856709162
 20
344.327689349
 11
-91.356709162
 21
343.027689349
  0
LINE
  8
1
 62
7
  6
CONTINUOUS
 10
-92.279785162
 20
343.827689349
 11
-86.656709162
 21
343.827689349
  0
LINE
  8
1
 62
7
  6
CONTINUOUS
 10
-480.356709162
 20
223.427689349
 11
-480.356709162
 21
342.027689349
  0
ARC
  8
1
 62
7
  6
CONTINUOUS
 10
-479.356709162
 20
342.027689349
 40
1.000000000
 50
90.000000000
 51
180.000000000
  0
LINE
  8
1
 62
7
  6
CONTINUOUS
 10
-158.856709162
 20
358.827689349
 11
-128.356709162
 21
358.827689349
  0
LINE
  8
1
 62
7
  6
CONTINUOUS
 10
-88.842999162
 20
364.365951349
 11
-95.393669162
 21
357.090695349
  0
ARC
  8
1
 62
7
  6
CONTINUOUS
 10
-87.356709162
 20
363.027689349
 40
1.200000000
 50
0.000000000
 51
138.000000000
  0
LINE
  8
1
 62
7
  6
CONTINUOUS
 10
-86.156709162
 20
344.327689349
 11
-86.156709162
 21
363.027689349
  0
LINE
  8
1
 62
7
  6
CONTINUOUS
 10
-102.356709162
 20
343.827689349
 11
-97.433633162
 21
343.827689349
  0
LINE
  8
1
 62
7
  6
CONTINUOUS
 10
-85.356709162
 20
344.327689349
 11
-85.356709162
 21
363.027689349
  0
ARC
  8
1
 62
7
  6
CONTINUOUS
 10
-87.356709162
 20
363.027689349
 40
2.000000000
 50
0.000000000
 51
138.000000000
  0
ARC
  8
1
 62
1
  6
HIDDEN2
 10
-290.105703162
 20
355.827689349
 40
3.000000000
 50
5.000000000
 51
90.000000000
  0
LINE
  8
1
 62
1
  6
HIDDEN2
 10
-287.117119162
 20
356.089157349
 11
-286.213979162
 21
345.766223349
  0
LINE
  8
1
 62
1
  6
HIDDEN2
 10
-290.105703162
 20
358.827689349
 11
-353.856709162
 21
358.827689349
  0
LINE
  8
1
 62
7
  6
CONTINUOUS
 10
-479.356709162
 20
343.027689349
 11
-86.356709162
 21
343.027689349
  0
LINE
  8
1
 62
7
  6
CONTINUOUS
 10
-85.356709162
 20
342.027689349
 11
-85.356709162
 21
223.427689349
  0
ARC
  8
1
 62
7
  6
CONTINUOUS
 10
-86.356709162
 20
342.027689349
 40
1.000000000
 50
0.000000000
 51
90.000000000
  0
LINE
  8
1
 62
7
  6
CONTINUOUS
 10
-128.356709162
 20
358.827689349
 11
-128.356709162
 21
361.227689349
  0
LINE
  8
1
 62
7
  6
CONTINUOUS
 10
-459.856709162
 20
343.027689349
 11
-459.856709162
 21
367.232779566
  0
LINE
  8
1
 62
1
  6
HIDDEN2
 10
-340.856709162
 20
358.827689349
 11
-404.356709162
 21
358.827689349
  0
LINE
  8
1
 62
1
  6
HIDDEN2
 10
-404.356709162
 20
358.827689349
 11
-404.356709162
 21
361.227689349
  0
LINE
  8
1
 62
1
  6
HIDDEN2
 10
-407.596299162
 20
356.089157349
 11
-408.499439162
 21
345.766223349
  0
ARC
  8
1
 62
1
  6
HIDDEN2
 10
-404.607715162
 20
355.827689349
 40
3.000000000
 50
90.000000000
 51
175.000000000
  0
ARC
  8
1
 62
1
  6
HIDDEN2
 10
-411.488023162
 20
346.027689349
 40
3.000000000
 50
314.951505000
 51
355.000000000
  0
LINE
  8
1
 62
1
  6
HIDDEN2
 10
-408.356709162
 20
343.027689349
 11
-409.856709162
 21
344.327689349
  0
ARC
  8
1
 62
7
  6
CONTINUOUS
 10
-128.105703162
 20
355.827689349
 40
3.000000000
 50
5.000000000
 51
90.000000000
  0
LINE
  8
1
 62
7
  6
CONTINUOUS
 10
-125.117119162
 20
356.089157349
 11
-124.213979162
 21
345.766223349
  0
ARC
  8
1
 62
7
  6
CONTINUOUS
 10
-86.656709162
 20
344.327689349
 40
1.300000000
 50
270.000000000
 51
0.000000000
  0
ARC
  8
1
 62
7
  6
CONTINUOUS
 10
-86.656709162
 20
344.327689349
 40
0.500000000
 50
270.000000000
 51
0.000000000
  0
LINE
  8
1
 62
7
  6
CONTINUOUS
 10
-94.799153162
 20
356.555391349
 11
-88.248483162
 21
363.830647349
  0
LINE
  8
1
 62
7
  6
CONTINUOUS
 10
-95.393669162
 20
357.090695349
 11
-94.799153162
 21
356.555391349
  0
LINE
  8
1
 62
7
  6
CONTINUOUS
 10
-286.356709162
 20
343.027689349
 11
-284.856709162
 21
344.327689349
  0
LINE
  8
1
 62
7
  6
CONTINUOUS
 10
-211.856709162
 20
358.827689349
 11
-242.607715162
 21
358.827689349
  0
ARC
  8
1
 62
7
  6
CONTINUOUS
 10
-100.856709162
 20
384.522613133
 40
211.506323784
 50
270.000000000
 51
283.456498945
  0
ARC
  8
1
 62
7
  6
CONTINUOUS
 10
-464.856709162
 20
384.522613133
 40
211.506323784
 50
256.543501055
 51
270.000000000
  0
ARC
  8
1
 62
7
  6
CONTINUOUS
 10
-56.291556519
 20
198.289967446
 40
20.000000000
 50
283.428914941
 51
321.185443954
  0
LINE
  8
1
 62
7
  6
CONTINUOUS
 10
-529.856709162
 20
223.027689349
 11
-529.418532357
 21
197.924685447
  0
ARC
  8
1
 62
7
  6
CONTINUOUS
 10
-509.421578485
 20
198.273735360
 40
19.999999999
 50
181.000005115
 51
256.543501055
  0
ARC
  8
1
 62
7
  6
CONTINUOUS
 10
-56.291839838
 20
198.273735360
 40
20.000000000
 50
283.456498946
 51
358.999994885
  0
LINE
  8
1
 62
7
  6
CONTINUOUS
 10
-529.856709162
 20
223.027689349
 11
-35.856709162
 21
223.027689349
  0
LINE
  8
1
 62
7
  6
CONTINUOUS
 10
-35.856709162
 20
223.027689349
 11
-36.294885966
 21
197.924685447
  0
LINE
  8
1
 62
7
  6
CONTINUOUS
 10
-100.856709162
 20
173.016289349
 11
-464.856709162
 21
173.016289349
  0
ARC
  8
1
 62
7
  6
CONTINUOUS
 10
-292.356709162
 20
388.027689349
 40
5.000000000
 50
0.000000000
 51
90.000000000
  0
ARC
  8
1
 62
7
  6
CONTINUOUS
 10
-455.356709162
 20
388.027689349
 40
5.000000000
 50
90.000000000
 51
180.000000000
  0
LINE
  8
1
 62
7
  6
CONTINUOUS
 10
-287.356709162
 20
354.527689349
 11
-245.732909956
 21
354.527689349
  0
LINE
  8
1
 62
7
  6
CONTINUOUS
 10
-287.356709162
 20
388.027689349
 11
-287.356709162
 21
354.527689349
  0
LINE
  8
1
 62
7
  6
CONTINUOUS
 10
-455.356709162
 20
393.027689349
 11
-292.356709162
 21
393.027689349
  0
LINE
  8
1
 62
7
  6
CONTINUOUS
 10
-128.105703162
 20
360.027689349
 11
-242.356709162
 21
360.027689349
  0
LINE
  8
1
 62
7
  6
CONTINUOUS
 10
-128.356709162
 20
358.827689349
 11
-242.356709162
 21
358.827689349
  0
LINE
  8
1
 62
7
  6
CONTINUOUS
 10
-128.356709162
 20
361.227689349
 11
-242.356709162
 21
361.227689349
  0
LINE
  8
1
 62
7
  6
CONTINUOUS
 10
-287.356709162
 20
373.027689349
 11
-460.356709162
 21
373.027689349
  0
LINE
  8
1
 62
7
  6
CONTINUOUS
 10
-242.356709162
 20
358.827689349
 11
-242.356709162
 21
361.227689349
  0
LINE
  8
1
 62
1
  6
HIDDEN2
 10
-290.356709162
 20
358.827689349
 11
-290.356709162
 21
361.227689349
  0
LINE
  8
1
 62
1
  6
HIDDEN2
 10
-353.856709162
 20
358.827689349
 11
-290.356709162
 21
358.827689349
  0
LINE
  8
1
 62
1
  6
HIDDEN2
 10
-404.356709162
 20
361.227689349
 11
-290.356709162
 21
361.227689349
  0
LINE
  8
1
 62
1
  6
HIDDEN2
 10
-404.356709162
 20
360.027689349
 11
-290.356709162
 21
360.027689349
  0
ARC
  8
1
 62
7
  6
CONTINUOUS
 10
-221.056709162
 20
387.527689349
 40
5.500000000
 50
90.000000000
 51
180.000000000
  0
LINE
  8
1
 62
7
  6
CONTINUOUS
 10
-226.556709162
 20
387.527689349
 11
-226.556709162
 21
361.227689349
  0
LINE
  8
1
 62
7
  6
CONTINUOUS
 10
-149.656709162
 20
393.027689349
 11
-221.056709162
 21
393.027689349
  0
LINE
  8
1
 62
7
  6
CONTINUOUS
 10
-144.156709162
 20
361.227689349
 11
-144.156709162
 21
387.527689349
  0
ARC
  8
1
 62
7
  6
CONTINUOUS
 10
-149.656709162
 20
387.527689349
 40
5.500000000
 50
0.000000000
 51
90.000000000
  0
ARC
  8
1
 62
1
  6
HIDDEN2
 10
-383.056709162
 20
387.527689349
 40
5.500000000
 50
90.000000000
 51
180.000000000
  0
LINE
  8
1
 62
7
  6
CONTINUOUS
 10
-383.056709162
 20
393.027689349
 11
-311.656709162
 21
393.027689349
  0
LINE
  8
1
 62
1
  6
HIDDEN2
 10
-306.156709162
 20
387.527689349
 11
-306.156709162
 21
361.227689349
  0
ARC
  8
1
 62
1
  6
HIDDEN2
 10
-311.656709162
 20
387.527689349
 40
5.500000000
 50
0.000000000
 51
90.000000000
  0
LINE
  8
1
 62
1
  6
HIDDEN2
 10
-388.556709162
 20
361.227689349
 11
-388.556709162
 21
387.527689349
  0
LINE
  8
1
 62
7
  6
CONTINUOUS
 10
257.806571592
 20
-223.124653228
 11
276.506571592
 21
-223.124653228
  0
ARC
  8
1
 62
7
  6
CONTINUOUS
 10
276.506571592
 20
-221.124653228
 40
2.000000000
 50
270.000000000
 51
48.000000000
  0
LINE
  8
1
 62
7
  6
CONTINUOUS
 10
-460.356709162
 20
343.027689349
 11
-460.356709162
 21
388.027689349
  0
LINE
  8
1
 62
1
  6
HIDDEN2
 10
-481.556709162
 20
380.527689349
 11
-480.956709162
 21
380.527689349
  0
LINE
  8
1
 62
7
  6
CONTINUOUS
 10
270.569577592
 20
-213.087693228
 11
270.034273592
 21
-213.682209228
  0
LINE
  8
1
 62
2
  6
CENTER2
 10
-282.856709162
 20
332.028758390
 11
-282.856709162
 21
314.600743428
  0
LINE
  8
1
 62
7
  6
CONTINUOUS
 10
270.034273592
 20
-213.682209228
 11
277.309529592
 21
-220.232879228
  0
ARC
  8
1
 62
7
  6
CONTINUOUS
 10
257.806571592
 20
-221.824653228
 40
0.500000000
 50
180.000000000
 51
270.000000000
  0
ARC
  8
1
 62
7
  6
CONTINUOUS
 10
257.806571592
 20
-221.824653228
 40
1.300000000
 50
180.000000000
 51
270.000000000
  0
LINE
  8
1
 62
2
  6
CENTER2
 10
-474.411942832
 20
317.027689349
 11
-554.050402832
 21
317.027689349
  0
LINE
  8
1
 62
7
  6
CONTINUOUS
 10
255.506571592
 20
-223.124653228
 11
136.906571592
 21
-223.124653228
  0
LINE
  8
1
 62
7
  6
CONTINUOUS
 10
-463.356709162
 20
343.827689349
 11
-463.356709162
 21
343.027689349
  0
ARC
  8
1
 62
1
  6
HIDDEN2
 10
490.562615673
 20
732.796439658
 40
92.994949366
 50
42.000000000
 51
48.000000000
  0
ARC
  8
1
 62
1
  6
CONTINUOUS
 10
263.494189985
 20
-117.124653228
 40
1.500000000
 50
270.000000000
 51
0.000000000
  0
LINE
  8
1
 62
1
  6
CONTINUOUS
 10
250.506571592
 20
-113.158989778
 11
219.188593205
 21
-121.244184705
  0
ARC
  8
1
 62
1
  6
CONTINUOUS
 10
258.656571592
 20
-120.350030878
 40
1.000000000
 50
284.475672986
 51
0.000000000
  0
LINE
  8
1
 62
1
  6
CONTINUOUS
 10
261.994189985
 20
-113.324653228
 11
260.656571592
 21
-113.324653228
  0
LINE
  8
1
 62
1
  6
CONTINUOUS
 10
261.994189985
 20
-117.124653228
 11
261.994189985
 21
-88.124653228
  0
LINE
  8
1
 62
1
  6
CONTINUOUS
 10
264.994189985
 20
-88.124653228
 11
264.994189985
 21
-117.124653228
  0
ARC
  8
1
 62
1
  6
CONTINUOUS
 10
263.494189985
 20
-117.124653228
 40
1.500000000
 50
180.000000000
 51
270.000000000
  0
ARC
  8
1
 62
1
  6
CONTINUOUS
 10
230.506571592
 20
-88.124653228
 40
35.000000000
 50
180.000000000
 51
251.133099752
  0
ARC
  8
1
 62
1
  6
CONTINUOUS
 10
218.989616185
 20
-130.590636535
 40
1.000000000
 50
254.826133844
 51
284.475672986
  0
ARC
  8
1
 62
1
  6
CONTINUOUS
 10
260.656571592
 20
-114.324653228
 40
1.000000000
 50
90.000000000
 51
180.000000000
  0
LINE
  8
1
 62
1
  6
CONTINUOUS
 10
258.906540511
 20
-121.318284739
 11
219.239585104
 21
-131.558890396
  0
ARC
  8
1
 62
1
  6
CONTINUOUS
 10
230.506571592
 20
-88.124653228
 40
43.500000000
 50
310.066640716
 51
310.066640716
  0
ARC
  8
1
 62
1
  6
CONTINUOUS
 10
230.506571592
 20
-88.124653228
 40
40.500000000
 50
180.000000000
 51
253.540822256
  0
LINE
  8
1
 62
1
  6
CONTINUOUS
 10
256.006571592
 20
-117.419412701
 11
219.031620321
 21
-126.965038053
  0
LINE
  8
1
 62
1
  6
CONTINUOUS
 10
256.006571592
 20
-88.124653228
 11
256.006571592
 21
-117.419412701
  0
LINE
  8
1
 62
1
  6
CONTINUOUS
 10
250.506571592
 20
-88.124653228
 11
250.506571592
 21
-113.158989778
  0
LINE
  8
1
 62
1
  6
CONTINUOUS
 10
259.656571592
 20
-55.899275578
 11
259.656571592
 21
-61.924653228
  0
LINE
  8
1
 62
1
  6
CONTINUOUS
 10
250.506571592
 20
-63.090316675
 11
219.188593205
 21
-55.005121751
  0
LINE
  8
1
 62
1
  6
CONTINUOUS
 10
264.994189985
 20
-88.124653228
 11
264.994189985
 21
-59.124653228
  0
ARC
  8
1
 62
1
  6
CONTINUOUS
 10
258.656571592
 20
-55.899275578
 40
1.000000000
 50
0.000000000
 51
75.524327014
  0
LINE
  8
1
 62
1
  6
CONTINUOUS
 10
261.994189985
 20
-59.124653228
 11
261.994189985
 21
-88.124653228
  0
LINE
  8
1
 62
1
  6
CONTINUOUS
 10
261.994189985
 20
-62.924653228
 11
260.656571592
 21
-62.924653228
  0
ARC
  8
1
 62
1
  6
CONTINUOUS
 10
263.494189985
 20
-59.124653228
 40
1.500000000
 50
0.000000000
 51
90.000000000
  0
ARC
  8
1
 62
1
  6
CONTINUOUS
 10
263.494189985
 20
-59.124653228
 40
1.500000000
 50
90.000000000
 51
180.000000000
  0
ARC
  8
1
 62
1
  6
CONTINUOUS
 10
230.506571592
 20
-88.124653228
 40
35.000000000
 50
108.866900248
 51
180.000000000
  0
ARC
  8
1
 62
1
  6
CONTINUOUS
 10
218.989616185
 20
-45.658669921
 40
1.000000000
 50
75.524327014
 51
105.173866156
  0
ARC
  8
1
 62
1
  6
CONTINUOUS
 10
260.656571592
 20
-61.924653228
 40
1.000000000
 50
180.000000000
 51
270.000000000
  0
LINE
  8
1
 62
1
  6
CONTINUOUS
 10
258.906540511
 20
-54.931021717
 11
219.239585104
 21
-44.690416060
  0
ARC
  8
1
 62
1
  6
CONTINUOUS
 10
230.506571592
 20
-88.124653228
 40
43.500000000
 50
49.933359284
 51
49.933359284
  0
CIRCLE
  8
1
 62
1
  6
CONTINUOUS
 10
230.506571592
 20
-88.124653228
 40
53.500000000
  0
LINE
  8
1
 62
1
  6
CONTINUOUS
 10
137.106571592
 20
-138.124653228
 11
137.106571592
 21
-38.124653228
  0
ARC
  8
1
 62
1
  6
CONTINUOUS
 10
141.506571592
 20
-20.624653228
 40
5.000000000
 50
90.000000000
 51
180.000000000
  0
ARC
  8
1
 62
1
  6
CONTINUOUS
 10
141.506571592
 20
-155.624653228
 40
5.000000000
 50
180.000000000
 51
270.000000000
  0
LINE
  8
1
 62
1
  6
CONTINUOUS
 10
141.506571592
 20
-160.624653228
 11
306.006571592
 21
-160.624653228
  0
LINE
  8
1
 62
1
  6
CONTINUOUS
 10
136.506571592
 20
-20.624653228
 11
136.506571592
 21
-155.624653228
  0
LINE
  8
1
 62
1
  6
CONTINUOUS
 10
306.006571592
 20
-15.624653228
 11
141.506571592
 21
-15.624653228
  0
LINE
  8
1
 62
1
  6
CONTINUOUS
 10
306.006571592
 20
-160.624653228
 11
306.006571592
 21
-15.624653228
  0
CIRCLE
  8
1
 62
1
  6
CONTINUOUS
 10
230.506571592
 20
-88.124653228
 40
49.000000000
  0
CIRCLE
  8
1
 62
1
  6
CONTINUOUS
 10
230.506571592
 20
-88.124653228
 40
47.500000000
  0
CIRCLE
  8
1
 62
1
  6
CONTINUOUS
 10
230.506571592
 20
-88.124653228
 40
63.500000000
  0
LINE
  8
1
 62
2
  6
CENTER2
 10
230.506571592
 20
-146.873009388
 11
230.506571592
 21
-29.916930774
  0
ARC
  8
1
 62
1
  6
CONTINUOUS
 10
230.506571592
 20
-88.124653228
 40
40.500000000
 50
106.459177744
 51
180.000000000
  0
LINE
  8
1
 62
1
  6
CONTINUOUS
 10
256.006571592
 20
-58.829893751
 11
219.031620321
 21
-49.284268403
  0
LINE
  8
1
 62
1
  6
CONTINUOUS
 10
256.006571592
 20
-88.124653228
 11
256.006571592
 21
-58.829893751
  0
LINE
  8
1
 62
1
  6
CONTINUOUS
 10
250.506571592
 20
-88.124653228
 11
250.506571592
 21
-63.090316675
  0
ARC
  8
1
 62
1
  6
CONTINUOUS
 10
230.506571592
 20
-88.124653228
 40
45.000000000
 50
105.173866156
 51
180.000000000
  0
ARC
  8
1
 62
1
  6
CONTINUOUS
 10
230.506571592
 20
-88.124653228
 40
45.000000000
 50
180.000000000
 51
254.826133844
  0
LINE
  8
1
 62
1
  6
CONTINUOUS
 10
259.656571592
 20
-120.350030878
 11
259.656571592
 21
-114.324653228
  0
LINE
  8
1
 62
1
  6
HIDDEN2
 10
-478.956709162
 20
380.027689349
 11
-479.556709162
 21
380.027689349
  0
LINE
  8
1
 62
1
  6
HIDDEN2
 10
-479.556709162
 20
369.527689349
 11
-479.556709162
 21
391.527689349
  0
LINE
  8
1
 62
1
  6
HIDDEN2
 10
-479.556709162
 20
369.527689349
 11
-470.557681162
 21
358.803067349
  0
LINE
  8
1
 62
1
  6
HIDDEN2
 10
-470.557681162
 20
358.803067349
 11
-471.170517162
 21
358.288837349
  0
LINE
  8
1
 62
1
  6
HIDDEN2
 10
-471.170517162
 20
358.288837349
 11
-480.356709162
 21
369.236513349
  0
LINE
  8
1
 62
1
  6
HIDDEN2
 10
-479.556709162
 20
391.527689349
 11
-480.356709162
 21
391.527693349
  0
LINE
  8
1
 62
1
  6
HIDDEN2
 10
-505.556709162
 20
268.027689349
 11
-525.556709162
 21
268.027689349
  0
LINE
  8
1
 62
1
  6
HIDDEN2
 10
-525.556709162
 20
268.027689349
 11
-525.556709162
 21
366.027689349
  0
LINE
  8
1
 62
1
  6
HIDDEN2
 10
-525.556709162
 20
366.027689349
 11
-505.556709162
 21
366.027689349
  0
LINE
  8
1
 62
1
  6
HIDDEN2
 10
-525.556709162
 20
268.027689349
 11
-527.556709162
 21
268.027689349
  0
LINE
  8
1
 62
7
  6
CONTINUOUS
 10
-473.433633162
 20
343.827689349
 11
-479.056709162
 21
343.827689349
  0
LINE
  8
1
 62
7
  6
CONTINUOUS
 10
-476.870419162
 20
364.365951349
 11
-470.319749162
 21
357.090695349
  0
ARC
  8
1
 62
7
  6
CONTINUOUS
 10
-478.356709162
 20
363.027689349
 40
1.200000000
 50
42.000000000
 51
180.000000000
  0
LINE
  8
1
 62
7
  6
CONTINUOUS
 10
-479.556709162
 20
344.327689349
 11
-479.556709162
 21
363.027689349
  0
LINE
  8
1
 62
7
  6
CONTINUOUS
 10
-463.356709162
 20
343.827689349
 11
-468.279785162
 21
343.827689349
  0
LINE
  8
1
 62
7
  6
CONTINUOUS
 10
-480.356709162
 20
344.327689349
 11
-480.356709162
 21
363.027689349
  0
ARC
  8
1
 62
7
  6
CONTINUOUS
 10
-478.356709162
 20
363.027689349
 40
2.000000000
 50
42.000000000
 51
180.000000000
  0
ARC
  8
1
 62
7
  6
CONTINUOUS
 10
-479.056709162
 20
344.327689349
 40
1.300000000
 50
180.000000000
 51
270.000000000
  0
ARC
  8
1
 62
7
  6
CONTINUOUS
 10
-479.056709162
 20
344.327689349
 40
0.500000000
 50
180.000000000
 51
270.000000000
  0
LINE
  8
1
 62
7
  6
CONTINUOUS
 10
-470.914265162
 20
356.555391349
 11
-477.464935162
 21
363.830647349
  0
LINE
  8
1
 62
7
  6
CONTINUOUS
 10
-470.319749162
 20
357.090695349
 11
-470.914265162
 21
356.555391349
  0
LINE
  8
1
 62
2
  6
CENTER
 10
555.174306017
 20
797.408130003
 11
565.961069875
 21
808.194893861
  0
LINE
  8
1
 62
1
  6
HIDDEN2
 10
-546.556709162
 20
-102.124653228
 11
-540.556709162
 21
-101.624653228
  0
LINE
  8
1
 62
1
  6
HIDDEN2
 10
-546.556709162
 20
-197.124653228
 11
-546.556709162
 21
-102.124653228
  0
LINE
  8
1
 62
1
  6
HIDDEN2
 10
-540.556709162
 20
-197.624653228
 11
-546.556709162
 21
-197.124653228
  0
LINE
  8
1
 62
2
  6
CENTER
 10
425.950925328
 20
668.184749314
 11
415.164161470
 21
657.397985456
  0
ARC
  8
1
 62
1
  6
CONTINUOUS
 10
416.995031303
 20
666.555889162
 40
6.000000000
 50
42.000000000
 51
222.000000000
  0
LINE
  8
1
 62
1
  6
HIDDEN2
 10
-540.556709162
 20
-197.624653228
 11
-540.556709162
 21
-101.624653228
  0
LINE
  8
1
 62
1
  6
HIDDEN2
 10
-540.556709162
 20
-101.624653228
 11
-529.844808651
 21
-101.624653228
  0
LINE
  8
1
 62
1
  6
HIDDEN2
 10
-529.073734643
 20
-197.624653228
 11
-540.556709162
 21
-197.624653228
  0
ARC
  8
1
 62
1
  6
CONTINUOUS
 10
490.562615673
 20
732.796439658
 40
104.994949366
 50
222.000000000
 51
228.000000000
  0
ARC
  8
1
 62
1
  6
CONTINUOUS
 10
248.530782035
 20
732.796439658
 40
96.494949366
 50
312.000000000
 51
318.000000000
  0
LINE
  8
1
 62
7
  6
CONTINUOUS
 10
439.562615673
 20
764.408409071
 11
439.562615673
 21
767.946335889
  0
LINE
  8
1
 62
7
  6
CONTINUOUS
 10
431.562615673
 20
769.860617431
 11
439.562615673
 21
772.408409071
  0
LINE
  8
1
 62
2
  6
CENTER2
 10
-516.342123157
 20
-149.624653228
 11
-554.050402832
 21
-149.624653228
  0
ARC
  8
1
 62
1
  6
HIDDEN2
 10
490.562615673
 20
732.796439658
 40
101.494949366
 50
42.000000000
 51
48.000000000
  0
ARC
  8
1
 62
1
  6
HIDDEN2
 10
564.130200043
 20
799.036990154
 40
2.500000000
 50
222.000000000
 51
42.000000000
  0
ARC
  8
1
 62
2
  6
CENTER
 10
490.562615673
 20
732.796439658
 40
98.994949366
 50
37.587511977
 51
52.183525022
  0
ARC
  8
1
 62
1
  6
HIDDEN2
 10
424.322065177
 20
806.364024028
 40
2.500000000
 50
312.000000000
 51
132.000000000
  0
CIRCLE
  8
1
 62
1
  6
HIDDEN2
 10
490.562615673
 20
799.546439658
 40
5.500000000
  0
ARC
  8
1
 62
1
  6
CONTINUOUS
 10
490.562615673
 20
732.796439658
 40
92.994949366
 50
222.000000000
 51
228.000000000
  0
ARC
  8
1
 62
2
  6
CENTER
 10
490.562615673
 20
732.796439658
 40
98.994949366
 50
217.587511977
 51
232.183525022
  0
ARC
  8
1
 62
1
  6
HIDDEN2
 10
556.803166169
 20
806.364024028
 40
2.500000000
 50
48.000000000
 51
228.000000000
  0
LINE
  8
1
 62
7
  6
CONTINUOUS
 10
439.562615673
 20
775.946335889
 11
439.562615673
 21
772.408409071
  0
LINE
  8
1
 62
7
  6
CONTINUOUS
 10
431.562615673
 20
745.860617431
 11
439.562615673
 21
748.408409071
  0
LINE
  8
1
 62
7
  6
CONTINUOUS
 10
436.562615673
 20
791.796439658
 11
544.562615673
 21
791.796439658
  0
LINE
  8
1
 62
7
  6
CONTINUOUS
 10
431.562615673
 20
753.860617431
 11
439.562615673
 21
756.408409071
  0
LINE
  8
1
 62
7
  6
CONTINUOUS
 10
439.562615673
 20
676.194335067
 11
439.562615673
 21
679.946335889
  0
LINE
  8
1
 62
7
  6
CONTINUOUS
 10
544.562615673
 20
673.796439658
 11
436.562615673
 21
673.796439658
  0
LINE
  8
1
 62
7
  6
CONTINUOUS
 10
439.562615673
 20
748.408409071
 11
439.562615673
 21
751.946335889
  0
LINE
  8
1
 62
7
  6
CONTINUOUS
 10
549.562615673
 20
687.946335889
 11
431.562615673
 21
687.946335889
  0
LINE
  8
1
 62
7
  6
CONTINUOUS
 10
431.562615673
 20
689.860617431
 11
549.562615673
 21
689.860617431
  0
LINE
  8
1
 62
7
  6
CONTINUOUS
 10
541.562615673
 20
692.408409071
 11
439.562615673
 21
692.408409071
  0
LINE
  8
1
 62
7
  6
CONTINUOUS
 10
549.562615673
 20
695.946335889
 11
431.562615673
 21
695.946335889
  0
LINE
  8
1
 62
7
  6
CONTINUOUS
 10
431.562615673
 20
697.860617431
 11
549.562615673
 21
697.860617431
  0
LINE
  8
1
 62
7
  6
CONTINUOUS
 10
541.562615673
 20
700.408409071
 11
439.562615673
 21
700.408409071
  0
LINE
  8
1
 62
7
  6
CONTINUOUS
 10
549.562615673
 20
703.946335889
 11
431.562615673
 21
703.946335889
  0
LINE
  8
1
 62
7
  6
CONTINUOUS
 10
431.562615673
 20
705.860617431
 11
549.562615673
 21
705.860617431
  0
LINE
  8
1
 62
7
  6
CONTINUOUS
 10
541.562615673
 20
708.408409071
 11
439.562615673
 21
708.408409071
  0
ARC
  8
1
 62
1
  6
CONTINUOUS
 10
181.780782035
 20
732.796439658
 40
5.500000000
 50
180.000000000
 51
0.000000000
  0
ARC
  8
1
 62
7
  6
CONTINUOUS
 10
718.614558712
 20
690.346113402
 40
100.000000000
 50
189.866524017
 51
205.733149379
  0
LINE
  8
1
 62
7
  6
CONTINUOUS
 10
620.086202482
 20
792.296439658
 11
620.086202482
 21
673.296439658
  0
ARC
  8
1
 62
1
  6
CONTINUOUS
 10
314.771332531
 20
659.228855288
 40
6.000000000
 50
132.000000000
 51
312.000000000
  0
ARC
  8
1
 62
7
  6
CONTINUOUS
 10
630.333613632
 20
817.796439658
 40
2.000000000
 50
90.000000000
 51
154.266850621
  0
ARC
  8
1
 62
7
  6
CONTINUOUS
 10
630.333613632
 20
647.796439658
 40
2.000000000
 50
205.733149379
 51
270.000000000
  0
LINE
  8
1
 62
7
  6
CONTINUOUS
 10
630.333613632
 20
819.796439658
 11
635.086202482
 21
819.796439658
  0
LINE
  8
1
 62
7
  6
CONTINUOUS
 10
635.086202482
 20
819.796439658
 11
635.086202482
 21
645.796439658
  0
LINE
  8
1
 62
7
  6
CONTINUOUS
 10
549.562615673
 20
711.946335889
 11
431.562615673
 21
711.946335889
  0
LINE
  8
1
 62
7
  6
CONTINUOUS
 10
431.562615673
 20
713.860617431
 11
549.562615673
 21
713.860617431
  0
LINE
  8
1
 62
7
  6
CONTINUOUS
 10
541.562615673
 20
716.408409071
 11
439.562615673
 21
716.408409071
  0
LINE
  8
1
 62
7
  6
CONTINUOUS
 10
549.562615673
 20
719.946335889
 11
431.562615673
 21
719.946335889
  0
LINE
  8
1
 62
7
  6
CONTINUOUS
 10
431.562615673
 20
721.860617431
 11
549.562615673
 21
721.860617431
  0
LINE
  8
1
 62
7
  6
CONTINUOUS
 10
541.562615673
 20
724.408409071
 11
439.562615673
 21
724.408409071
  0
LINE
  8
1
 62
7
  6
CONTINUOUS
 10
549.562615673
 20
727.946335889
 11
431.562615673
 21
727.946335889
  0
LINE
  8
1
 62
7
  6
CONTINUOUS
 10
431.562615673
 20
729.860617431
 11
549.562615673
 21
729.860617431
  0
LINE
  8
1
 62
7
  6
CONTINUOUS
 10
541.562615673
 20
732.408409071
 11
439.562615673
 21
732.408409071
  0
LINE
  8
1
 62
7
  6
CONTINUOUS
 10
549.562615673
 20
735.946335889
 11
431.562615673
 21
735.946335889
  0
LINE
  8
1
 62
7
  6
CONTINUOUS
 10
431.562615673
 20
737.860617431
 11
549.562615673
 21
737.860617431
  0
LINE
  8
1
 62
7
  6
CONTINUOUS
 10
541.562615673
 20
740.408409071
 11
439.562615673
 21
740.408409071
  0
LINE
  8
1
 62
7
  6
CONTINUOUS
 10
549.562615673
 20
743.946335889
 11
431.562615673
 21
743.946335889
  0
LINE
  8
1
 62
7
  6
CONTINUOUS
 10
439.562615673
 20
759.946335889
 11
439.562615673
 21
756.408409071
  0
LINE
  8
1
 62
7
  6
CONTINUOUS
 10
433.973423156
 20
674.519047683
 11
439.562615673
 21
676.194335067
  0
LINE
  8
1
 62
7
  6
CONTINUOUS
 10
549.562615673
 20
777.860617431
 11
541.562615673
 21
780.408409071
  0
LINE
  8
1
 62
7
  6
CONTINUOUS
 10
431.562615673
 20
745.860617431
 11
549.562615673
 21
745.860617431
  0
LINE
  8
1
 62
7
  6
CONTINUOUS
 10
541.562615673
 20
748.408409071
 11
439.562615673
 21
748.408409071
  0
LINE
  8
1
 62
7
  6
CONTINUOUS
 10
549.562615673
 20
751.946335889
 11
431.562615673
 21
751.946335889
  0
LINE
  8
1
 62
7
  6
CONTINUOUS
 10
431.562615673
 20
753.860617431
 11
549.562615673
 21
753.860617431
  0
LINE
  8
1
 62
7
  6
CONTINUOUS
 10
541.562615673
 20
756.408409071
 11
439.562615673
 21
756.408409071
  0
LINE
  8
1
 62
7
  6
CONTINUOUS
 10
549.562615673
 20
759.946335889
 11
431.562615673
 21
759.946335889
  0
LINE
  8
1
 62
7
  6
CONTINUOUS
 10
541.562615673
 20
684.408409071
 11
439.562615673
 21
684.408409071
  0
LINE
  8
1
 62
7
  6
CONTINUOUS
 10
431.562615673
 20
761.860617431
 11
549.562615673
 21
761.860617431
  0
ARC
  8
1
 62
1
  6
CONTINUOUS
 10
416.995031303
 20
666.555889162
 40
2.500000000
 50
42.000000000
 51
222.000000000
  0
LINE
  8
1
 62
7
  6
CONTINUOUS
 10
431.562615673
 20
681.860617431
 11
549.562615673
 21
681.860617431
  0
LINE
  8
1
 62
7
  6
CONTINUOUS
 10
439.562615673
 20
700.408409071
 11
439.562615673
 21
703.946335889
  0
LINE
  8
1
 62
7
  6
CONTINUOUS
 10
549.562615673
 20
679.946335889
 11
431.562615673
 21
679.946335889
  0
LINE
  8
1
 62
7
  6
CONTINUOUS
 10
541.562615673
 20
764.408409071
 11
439.562615673
 21
764.408409071
  0
ARC
  8
1
 62
2
  6
CENTER
 10
490.562615673
 20
732.796439658
 40
98.994949366
 50
307.816474978
 51
322.412488023
  0
LINE
  8
1
 62
7
  6
CONTINUOUS
 10
431.562615673
 20
729.860617431
 11
439.562615673
 21
732.408409071
  0
LINE
  8
1
 62
7
  6
CONTINUOUS
 10
549.562615673
 20
767.946335889
 11
431.562615673
 21
767.946335889
  0
LINE
  8
1
 62
7
  6
CONTINUOUS
 10
431.562615673
 20
769.860617431
 11
549.562615673
 21
769.860617431
  0
LINE
  8
1
 62
7
  6
CONTINUOUS
 10
541.562615673
 20
772.408409071
 11
439.562615673
 21
772.408409071
  0
LINE
  8
1
 62
7
  6
CONTINUOUS
 10
549.562615673
 20
775.946335889
 11
431.562615673
 21
775.946335889
  0
LINE
  8
1
 62
7
  6
CONTINUOUS
 10
431.562615673
 20
777.860617431
 11
549.562615673
 21
777.860617431
  0
LINE
  8
1
 62
7
  6
CONTINUOUS
 10
541.562615673
 20
780.408409071
 11
439.562615673
 21
780.408409071
  0
LINE
  8
1
 62
7
  6
CONTINUOUS
 10
549.562615673
 20
783.946335889
 11
431.562615673
 21
783.946335889
  0
LINE
  8
1
 62
7
  6
CONTINUOUS
 10
431.562615673
 20
785.860617431
 11
549.562615673
 21
785.860617431
  0
LINE
  8
1
 62
7
  6
CONTINUOUS
 10
541.562615673
 20
788.408409071
 11
439.562615673
 21
788.408409071
  0
ARC
  8
1
 62
1
  6
CONTINUOUS
 10
490.562615673
 20
732.796439658
 40
101.494949366
 50
222.000000000
 51
228.000000000
  0
LINE
  8
1
 62
7
  6
CONTINUOUS
 10
547.151808189
 20
674.519047683
 11
541.562615673
 21
676.194335067
  0
LINE
  8
1
 62
7
  6
CONTINUOUS
 10
549.562615673
 20
681.860617431
 11
541.562615673
 21
684.408409071
  0
LINE
  8
1
 62
7
  6
CONTINUOUS
 10
549.562615673
 20
689.860617431
 11
541.562615673
 21
692.408409071
  0
LINE
  8
1
 62
7
  6
CONTINUOUS
 10
541.562615673
 20
676.194335067
 11
541.562615673
 21
679.946335889
  0
LINE
  8
1
 62
7
  6
CONTINUOUS
 10
541.562615673
 20
684.408409071
 11
541.562615673
 21
687.946335889
  0
LINE
  8
1
 62
7
  6
CONTINUOUS
 10
541.562615673
 20
695.946335889
 11
541.562615673
 21
692.408409071
  0
LINE
  8
1
 62
7
  6
CONTINUOUS
 10
541.562615673
 20
711.946335889
 11
541.562615673
 21
708.408409071
  0
LINE
  8
1
 62
7
  6
CONTINUOUS
 10
431.562615673
 20
737.860617431
 11
439.562615673
 21
740.408409071
  0
LINE
  8
1
 62
7
  6
CONTINUOUS
 10
541.562615673
 20
700.408409071
 11
541.562615673
 21
703.946335889
  0
LINE
  8
1
 62
7
  6
CONTINUOUS
 10
549.562615673
 20
705.860617431
 11
541.562615673
 21
708.408409071
  0
LINE
  8
1
 62
7
  6
CONTINUOUS
 10
439.562615673
 20
732.408409071
 11
439.562615673
 21
735.946335889
  0
LINE
  8
1
 62
7
  6
CONTINUOUS
 10
439.562615673
 20
743.946335889
 11
439.562615673
 21
740.408409071
  0
LINE
  8
1
 62
7
  6
CONTINUOUS
 10
541.562615673
 20
676.194335067
 11
439.562615673
 21
676.194335067
  0
LINE
  8
1
 62
7
  6
CONTINUOUS
 10
431.562615673
 20
713.860617431
 11
439.562615673
 21
716.408409071
  0
LINE
  8
1
 62
7
  6
CONTINUOUS
 10
549.562615673
 20
697.860617431
 11
541.562615673
 21
700.408409071
  0
LINE
  8
1
 62
7
  6
CONTINUOUS
 10
541.562615673
 20
727.946335889
 11
541.562615673
 21
724.408409071
  0
LINE
  8
1
 62
7
  6
CONTINUOUS
 10
431.562615673
 20
721.860617431
 11
439.562615673
 21
724.408409071
  0
ARC
  8
1
 62
1
  6
HIDDEN2
 10
423.812615673
 20
732.796439658
 40
5.500000000
 50
0.000000000
 51
180.000000000
  0
ARC
  8
1
 62
1
  6
CONTINUOUS
 10
424.322065177
 20
659.228855288
 40
2.500000000
 50
228.000000000
 51
48.000000000
  0
ARC
  8
1
 62
1
  6
HIDDEN2
 10
423.812615673
 20
732.796439658
 40
2.500000000
 50
0.000000000
 51
180.000000000
  0
LINE
  8
1
 62
7
  6
CONTINUOUS
 10
439.562615673
 20
716.408409071
 11
439.562615673
 21
719.946335889
  0
LINE
  8
1
 62
7
  6
CONTINUOUS
 10
439.562615673
 20
727.946335889
 11
439.562615673
 21
724.408409071
  0
LINE
  8
1
 62
7
  6
CONTINUOUS
 10
439.562615673
 20
780.408409071
 11
439.562615673
 21
783.946335889
  0
LINE
  8
1
 62
7
  6
CONTINUOUS
 10
431.562615673
 20
697.860617431
 11
439.562615673
 21
700.408409071
  0
LINE
  8
1
 62
7
  6
CONTINUOUS
 10
431.562615673
 20
705.860617431
 11
439.562615673
 21
708.408409071
  0
LINE
  8
1
 62
7
  6
CONTINUOUS
 10
541.562615673
 20
716.408409071
 11
541.562615673
 21
719.946335889
  0
LINE
  8
1
 62
7
  6
CONTINUOUS
 10
549.562615673
 20
721.860617431
 11
541.562615673
 21
724.408409071
  0
LINE
  8
1
 62
2
  6
CENTER
 10
423.812615673
 20
723.385212348
 11
423.812615673
 21
741.531340114
  0
LINE
  8
1
 62
7
  6
CONTINUOUS
 10
549.562615673
 20
713.860617431
 11
541.562615673
 21
716.408409071
  0
LINE
  8
1
 62
7
  6
CONTINUOUS
 10
541.562615673
 20
743.946335889
 11
541.562615673
 21
740.408409071
  0
ARC
  8
1
 62
1
  6
HIDDEN2
 10
490.562615673
 20
732.796439658
 40
101.494949366
 50
132.000000000
 51
138.000000000
  0
ARC
  8
1
 62
1
  6
HIDDEN2
 10
416.995031303
 20
799.036990154
 40
2.500000000
 50
138.000000000
 51
318.000000000
  0
ARC
  8
1
 62
2
  6
CENTER
 10
490.562615673
 20
732.796439658
 40
98.994949366
 50
127.816474978
 51
142.412488023
  0
ARC
  8
1
 62
1
  6
HIDDEN2
 10
490.562615673
 20
732.796439658
 40
92.994949366
 50
132.000000000
 51
138.000000000
  0
LINE
  8
1
 62
2
  6
CENTER
 10
425.950925328
 20
797.408130003
 11
415.164161470
 21
808.194893861
  0
ARC
  8
1
 62
1
  6
HIDDEN2
 10
416.995031303
 20
799.036990154
 40
6.000000000
 50
138.000000000
 51
318.000000000
  0
ARC
  8
1
 62
1
  6
HIDDEN2
 10
490.562615673
 20
732.796439658
 40
104.994949366
 50
132.000000000
 51
138.000000000
  0
ARC
  8
1
 62
1
  6
HIDDEN2
 10
424.322065177
 20
806.364024028
 40
6.000000000
 50
312.000000000
 51
132.000000000
  0
ARC
  8
1
 62
1
  6
HIDDEN2
 10
490.562615673
 20
732.796439658
 40
96.494949366
 50
132.000000000
 51
138.000000000
  0
ARC
  8
1
 62
1
  6
CONTINUOUS
 10
556.803166169
 20
659.228855288
 40
2.500000000
 50
132.000000000
 51
312.000000000
  0
ARC
  8
1
 62
1
  6
CONTINUOUS
 10
557.312615673
 20
732.796439658
 40
5.500000000
 50
180.000000000
 51
0.000000000
  0
ARC
  8
1
 62
1
  6
CONTINUOUS
 10
490.562615673
 20
732.796439658
 40
101.494949366
 50
312.000000000
 51
318.000000000
  0
ARC
  8
1
 62
1
  6
CONTINUOUS
 10
564.130200043
 20
666.555889162
 40
2.500000000
 50
318.000000000
 51
138.000000000
  0
ARC
  8
1
 62
7
  6
CONTINUOUS
 10
718.614558712
 20
775.246765914
 40
100.000000000
 50
154.266850621
 51
170.133475983
  0
LINE
  8
1
 62
7
  6
CONTINUOUS
 10
541.562615673
 20
732.408409071
 11
541.562615673
 21
735.946335889
  0
LINE
  8
1
 62
7
  6
CONTINUOUS
 10
549.562615673
 20
737.860617431
 11
541.562615673
 21
740.408409071
  0
ARC
  8
1
 62
1
  6
CONTINUOUS
 10
248.530782035
 20
732.796439658
 40
104.994949366
 50
312.000000000
 51
318.000000000
  0
ARC
  8
1
 62
1
  6
CONTINUOUS
 10
490.562615673
 20
732.796439658
 40
92.994949366
 50
312.000000000
 51
318.000000000
  0
LINE
  8
1
 62
2
  6
CENTER
 10
555.174306017
 20
668.184749314
 11
565.961069875
 21
657.397985456
  0
ARC
  8
1
 62
1
  6
CONTINUOUS
 10
564.130200043
 20
666.555889162
 40
6.000000000
 50
318.000000000
 51
138.000000000
  0
ARC
  8
1
 62
1
  6
CONTINUOUS
 10
490.562615673
 20
732.796439658
 40
104.994949366
 50
312.000000000
 51
318.000000000
  0
LINE
  8
1
 62
7
  6
CONTINUOUS
 10
549.562615673
 20
729.860617431
 11
541.562615673
 21
732.408409071
  0
ARC
  8
1
 62
7
  6
CONTINUOUS
 10
436.562615673
 20
786.796439658
 40
5.000000000
 50
90.000000000
 51
180.000000000
  0
ARC
  8
1
 62
1
  6
CONTINUOUS
 10
322.098366405
 20
666.555889162
 40
6.000000000
 50
318.000000000
 51
138.000000000
  0
LINE
  8
1
 62
2
  6
CENTER
 10
313.142472380
 20
668.184749314
 11
323.929236238
 21
657.397985456
  0
ARC
  8
1
 62
1
  6
CONTINUOUS
 10
248.530782035
 20
732.796439658
 40
92.994949366
 50
312.000000000
 51
318.000000000
  0
ARC
  8
1
 62
1
  6
CONTINUOUS
 10
322.098366405
 20
666.555889162
 40
2.500000000
 50
318.000000000
 51
138.000000000
  0
ARC
  8
1
 62
1
  6
CONTINUOUS
 10
248.530782035
 20
732.796439658
 40
101.494949366
 50
312.000000000
 51
318.000000000
  0
ARC
  8
1
 62
1
  6
CONTINUOUS
 10
315.280782035
 20
732.796439658
 40
5.500000000
 50
180.000000000
 51
0.000000000
  0
ARC
  8
1
 62
1
  6
CONTINUOUS
 10
314.771332531
 20
659.228855288
 40
2.500000000
 50
132.000000000
 51
312.000000000
  0
ARC
  8
1
 62
1
  6
CONTINUOUS
 10
182.290231540
 20
806.364024028
 40
2.500000000
 50
312.000000000
 51
132.000000000
  0
ARC
  8
1
 62
1
  6
CONTINUOUS
 10
248.530782035
 20
732.796439658
 40
96.494949366
 50
132.000000000
 51
138.000000000
  0
ARC
  8
1
 62
1
  6
CONTINUOUS
 10
182.290231540
 20
806.364024028
 40
6.000000000
 50
312.000000000
 51
132.000000000
  0
ARC
  8
1
 62
1
  6
CONTINUOUS
 10
248.530782035
 20
732.796439658
 40
104.994949366
 50
132.000000000
 51
138.000000000
  0
ARC
  8
1
 62
1
  6
CONTINUOUS
 10
174.963197666
 20
799.036990154
 40
6.000000000
 50
138.000000000
 51
318.000000000
  0
LINE
  8
1
 62
2
  6
CENTER
 10
183.919091691
 20
797.408130003
 11
173.132327833
 21
808.194893861
  0
ARC
  8
1
 62
1
  6
CONTINUOUS
 10
248.530782035
 20
732.796439658
 40
92.994949366
 50
132.000000000
 51
138.000000000
  0
ARC
  8
1
 62
2
  6
CENTER
 10
248.530782035
 20
732.796439658
 40
98.994949366
 50
127.816474978
 51
142.412488023
  0
LINE
  8
1
 62
2
  6
CENTER
 10
616.325752220
 20
732.796439658
 11
693.206777018
 21
732.796439658
  0
ARC
  8
1
 62
1
  6
CONTINUOUS
 10
174.963197666
 20
799.036990154
 40
2.500000000
 50
138.000000000
 51
318.000000000
  0
ARC
  8
1
 62
1
  6
CONTINUOUS
 10
689.586202482
 20
684.296439658
 40
0.500000000
 50
270.000000000
 51
0.000000000
  0
ARC
  8
1
 62
1
  6
CONTINUOUS
 10
689.586202482
 20
781.296439658
 40
0.500000000
 50
0.000000000
 51
90.000000000
  0
ARC
  8
1
 62
1
  6
CONTINUOUS
 10
315.280782035
 20
732.796439658
 40
2.500000000
 50
180.000000000
 51
0.000000000
  0
LINE
  8
1
 62
2
  6
CENTER
 10
257.942009346
 20
666.046439658
 11
239.795881580
 21
666.046439658
  0
CIRCLE
  8
1
 62
1
  6
CONTINUOUS
 10
248.530782035
 20
666.046439658
 40
2.500000000
  0
CIRCLE
  8
1
 62
1
  6
CONTINUOUS
 10
248.530782035
 20
666.046439658
 40
5.500000000
  0
LINE
  8
1
 62
2
  6
CENTER
 10
315.280782035
 20
742.207666969
 11
315.280782035
 21
724.061539203
  0
ARC
  8
1
 62
1
  6
CONTINUOUS
 10
315.280782035
 20
732.796439658
 40
2.500000000
 50
0.000000000
 51
180.000000000
  0
ARC
  8
1
 62
1
  6
CONTINUOUS
 10
315.280782035
 20
732.796439658
 40
5.500000000
 50
0.000000000
 51
180.000000000
  0
LINE
  8
1
 62
2
  6
CENTER
 10
239.119554725
 20
799.546439658
 11
257.265682491
 21
799.546439658
  0
CIRCLE
  8
1
 62
1
  6
CONTINUOUS
 10
248.530782035
 20
799.546439658
 40
2.500000000
  0
ARC
  8
1
 62
1
  6
CONTINUOUS
 10
248.530782035
 20
732.796439658
 40
96.494949366
 50
222.000000000
 51
228.000000000
  0
ARC
  8
1
 62
1
  6
CONTINUOUS
 10
181.780782035
 20
732.796439658
 40
2.500000000
 50
180.000000000
 51
0.000000000
  0
ARC
  8
1
 62
1
  6
CONTINUOUS
 10
248.530782035
 20
732.796439658
 40
96.494949366
 50
42.000000000
 51
48.000000000
  0
ARC
  8
1
 62
1
  6
CONTINUOUS
 10
314.771332531
 20
806.364024028
 40
6.000000000
 50
48.000000000
 51
228.000000000
  0
ARC
  8
1
 62
1
  6
CONTINUOUS
 10
182.290231540
 20
659.228855288
 40
6.000000000
 50
228.000000000
 51
48.000000000
  0
ARC
  8
1
 62
1
  6
CONTINUOUS
 10
248.530782035
 20
732.796439658
 40
104.994949366
 50
42.000000000
 51
48.000000000
  0
LINE
  8
1
 62
1
  6
CONTINUOUS
 10
635.086202482
 20
683.796439658
 11
689.586202482
 21
683.796439658
  0
LINE
  8
1
 62
1
  6
CONTINUOUS
 10
690.086202482
 20
684.296439658
 11
690.086202482
 21
781.296439658
  0
LINE
  8
1
 62
1
  6
CONTINUOUS
 10
689.586202482
 20
781.796439658
 11
635.086202482
 21
781.796439658
  0
ARC
  8
1
 62
1
  6
CONTINUOUS
 10
322.098366405
 20
799.036990154
 40
6.000000000
 50
222.000000000
 51
42.000000000
  0
ARC
  8
1
 62
2
  6
CENTER
 10
248.530782035
 20
732.796439658
 40
98.994949366
 50
37.587511977
 51
52.183525022
  0
CIRCLE
  8
1
 62
1
  6
CONTINUOUS
 10
248.530782035
 20
732.796439658
 40
49.000000000
  0
LINE
  8
1
 62
7
  6
CONTINUOUS
 10
330.530782035
 20
819.796439658
 11
166.530782035
 21
819.796439658
  0
ARC
  8
1
 62
1
  6
CONTINUOUS
 10
322.098366405
 20
799.036990154
 40
2.500000000
 50
222.000000000
 51
42.000000000
  0
LINE
  8
1
 62
7
  6
CONTINUOUS
 10
161.530782035
 20
814.796439658
 11
161.530782035
 21
650.796439658
  0
ARC
  8
1
 62
1
  6
CONTINUOUS
 10
556.803166169
 20
659.228855288
 40
6.000000000
 50
132.000000000
 51
312.000000000
  0
ARC
  8
1
 62
1
  6
CONTINUOUS
 10
423.812615673
 20
732.796439658
 40
5.500000000
 50
180.000000000
 51
0.000000000
  0
ARC
  8
1
 62
1
  6
CONTINUOUS
 10
490.562615673
 20
732.796439658
 40
96.494949366
 50
312.000000000
 51
318.000000000
  0
LINE
  8
1
 62
7
  6
CONTINUOUS
 10
166.530782035
 20
645.796439658
 11
330.530782035
 21
645.796439658
  0
LINE
  8
1
 62
7
  6
CONTINUOUS
 10
335.530782035
 20
650.796439658
 11
335.530782035
 21
814.796439658
  0
ARC
  8
1
 62
7
  6
CONTINUOUS
 10
330.530782035
 20
814.796439658
 40
5.000000000
 50
0.000000000
 51
90.000000000
  0
ARC
  8
1
 62
7
  6
CONTINUOUS
 10
166.530782035
 20
814.796439658
 40
5.000000000
 50
90.000000000
 51
180.000000000
  0
ARC
  8
1
 62
7
  6
CONTINUOUS
 10
166.530782035
 20
650.796439658
 40
5.000000000
 50
180.000000000
 51
270.000000000
  0
ARC
  8
1
 62
7
  6
CONTINUOUS
 10
330.530782035
 20
650.796439658
 40
5.000000000
 50
270.000000000
 51
0.000000000
  0
LINE
  8
1
 62
2
  6
CENTER
 10
248.530782035
 20
821.525422385
 11
248.530782035
 21
643.103310133
  0
ARC
  8
1
 62
1
  6
CONTINUOUS
 10
248.530782035
 20
732.796439658
 40
101.494949366
 50
132.000000000
 51
138.000000000
  0
LINE
  8
1
 62
2
  6
CENTER
 10
181.780782035
 20
723.385212348
 11
181.780782035
 21
741.531340114
  0
ARC
  8
1
 62
1
  6
CONTINUOUS
 10
181.780782035
 20
732.796439658
 40
2.500000000
 50
0.000000000
 51
180.000000000
  0
ARC
  8
1
 62
1
  6
CONTINUOUS
 10
182.290231540
 20
659.228855288
 40
2.500000000
 50
228.000000000
 51
48.000000000
  0
ARC
  8
1
 62
7
  6
CONTINUOUS
 10
620.586202482
 20
792.296439658
 40
0.500000000
 50
170.133475983
 51
180.000000000
  0
ARC
  8
1
 62
1
  6
CONTINUOUS
 10
181.780782035
 20
732.796439658
 40
5.500000000
 50
0.000000000
 51
180.000000000
  0
ARC
  8
1
 62
1
  6
CONTINUOUS
 10
248.530782035
 20
732.796439658
 40
101.494949366
 50
222.000000000
 51
228.000000000
  0
ARC
  8
1
 62
2
  6
CENTER
 10
248.530782035
 20
732.796439658
 40
98.994949366
 50
307.816474978
 51
322.412488023
  0
ARC
  8
1
 62
1
  6
CONTINUOUS
 10
174.963197666
 20
666.555889162
 40
2.500000000
 50
42.000000000
 51
222.000000000
  0
ARC
  8
1
 62
1
  6
CONTINUOUS
 10
314.771332531
 20
806.364024028
 40
2.500000000
 50
48.000000000
 51
228.000000000
  0
ARC
  8
1
 62
2
  6
CENTER
 10
248.530782035
 20
732.796439658
 40
98.994949366
 50
217.587511977
 51
232.183525022
  0
ARC
  8
1
 62
1
  6
CONTINUOUS
 10
248.530782035
 20
732.796439658
 40
92.994949366
 50
222.000000000
 51
228.000000000
  0
CIRCLE
  8
1
 62
1
  6
CONTINUOUS
 10
248.530782035
 20
799.546439658
 40
5.500000000
  0
LINE
  8
1
 62
2
  6
CENTER
 10
183.919091691
 20
668.184749314
 11
173.132327833
 21
657.397985456
  0
LINE
  8
1
 62
7
  6
CONTINUOUS
 10
630.333613632
 20
645.796439658
 11
635.086202482
 21
645.796439658
  0
ARC
  8
1
 62
1
  6
CONTINUOUS
 10
174.963197666
 20
666.555889162
 40
6.000000000
 50
42.000000000
 51
222.000000000
  0
ARC
  8
1
 62
1
  6
CONTINUOUS
 10
248.530782035
 20
732.796439658
 40
104.994949366
 50
222.000000000
 51
228.000000000
  0
ARC
  8
1
 62
1
  6
CONTINUOUS
 10
248.530782035
 20
732.796439658
 40
101.494949366
 50
42.000000000
 51
48.000000000
  0
LINE
  8
1
 62
2
  6
CENTER
 10
157.838534151
 20
732.796439658
 11
338.808013414
 21
732.796439658
  0
LINE
  8
1
 62
7
  6
CONTINUOUS
 10
549.562615673
 20
678.796439658
 11
549.562615673
 21
679.946335889
  0
LINE
  8
1
 62
7
  6
CONTINUOUS
 10
439.562615673
 20
791.796439658
 11
439.562615673
 21
788.408409071
  0
LINE
  8
1
 62
7
  6
CONTINUOUS
 10
431.562615673
 20
761.860617431
 11
439.562615673
 21
764.408409071
  0
LINE
  8
1
 62
7
  6
CONTINUOUS
 10
431.562615673
 20
681.860617431
 11
439.562615673
 21
684.408409071
  0
ARC
  8
1
 62
1
  6
HIDDEN2
 10
564.130200043
 20
799.036990154
 40
6.000000000
 50
222.000000000
 51
42.000000000
  0
ARC
  8
1
 62
1
  6
HIDDEN2
 10
490.562615673
 20
732.796439658
 40
104.994949366
 50
42.000000000
 51
48.000000000
  0
ARC
  8
1
 62
1
  6
CONTINUOUS
 10
424.322065177
 20
659.228855288
 40
6.000000000
 50
228.000000000
 51
48.000000000
  0
ARC
  8
1
 62
1
  6
HIDDEN2
 10
556.803166169
 20
806.364024028
 40
6.000000000
 50
48.000000000
 51
228.000000000
  0
ARC
  8
1
 62
1
  6
HIDDEN2
 10
490.562615673
 20
732.796439658
 40
96.494949366
 50
42.000000000
 51
48.000000000
  0
ARC
  8
1
 62
1
  6
CONTINUOUS
 10
423.812615673
 20
732.796439658
 40
2.500000000
 50
180.000000000
 51
0.000000000
  0
ARC
  8
1
 62
7
  6
CONTINUOUS
 10
544.562615673
 20
678.796439658
 40
5.000000000
 50
270.000000000
 51
0.000000000
  0
LINE
  8
1
 62
7
  6
CONTINUOUS
 10
541.562615673
 20
759.946335889
 11
541.562615673
 21
756.408409071
  0
LINE
  8
1
 62
7
  6
CONTINUOUS
 10
541.562615673
 20
748.408409071
 11
541.562615673
 21
751.946335889
  0
LINE
  8
1
 62
7
  6
CONTINUOUS
 10
549.562615673
 20
753.860617431
 11
541.562615673
 21
756.408409071
  0
LINE
  8
1
 62
7
  6
CONTINUOUS
 10
549.562615673
 20
745.860617431
 11
541.562615673
 21
748.408409071
  0
ARC
  8
1
 62
1
  6
CONTINUOUS
 10
490.562615673
 20
732.796439658
 40
96.494949366
 50
222.000000000
 51
228.000000000
  0
LINE
  8
1
 62
7
  6
CONTINUOUS
 10
541.562615673
 20
775.946335889
 11
541.562615673
 21
772.408409071
  0
CIRCLE
  8
1
 62
1
  6
HIDDEN2
 10
490.562615673
 20
799.546439658
 40
2.500000000
  0
LINE
  8
1
 62
2
  6
CENTER
 10
481.151388362
 20
799.546439658
 11
499.297516129
 21
799.546439658
  0
ARC
  8
1
 62
7
  6
CONTINUOUS
 10
436.562615673
 20
678.796439658
 40
5.000000000
 50
180.000000000
 51
270.000000000
  0
ARC
  8
1
 62
1
  6
HIDDEN2
 10
557.312615673
 20
732.796439658
 40
5.500000000
 50
0.000000000
 51
180.000000000
  0
LINE
  8
1
 62
7
  6
CONTINUOUS
 10
541.562615673
 20
764.408409071
 11
541.562615673
 21
767.946335889
  0
ARC
  8
1
 62
1
  6
HIDDEN2
 10
557.312615673
 20
732.796439658
 40
2.500000000
 50
0.000000000
 51
180.000000000
  0
LINE
  8
1
 62
2
  6
CENTER
 10
557.312615673
 20
742.207666969
 11
557.312615673
 21
724.061539203
  0
CIRCLE
  8
1
 62
1
  6
CONTINUOUS
 10
490.562615673
 20
666.046439658
 40
5.500000000
  0
CIRCLE
  8
1
 62
1
  6
CONTINUOUS
 10
490.562615673
 20
666.046439658
 40
2.500000000
  0
LINE
  8
1
 62
2
  6
CENTER
 10
499.973842983
 20
666.046439658
 11
481.827715217
 21
666.046439658
  0
LINE
  8
1
 62
7
  6
CONTINUOUS
 10
431.562615673
 20
678.796439658
 11
431.562615673
 21
679.946335889
  0
ARC
  8
1
 62
1
  6
CONTINUOUS
 10
557.312615673
 20
732.796439658
 40
2.500000000
 50
180.000000000
 51
0.000000000
  0
LINE
  8
1
 62
2
  6
CENTER
 10
399.870367789
 20
732.796439658
 11
580.839847052
 21
732.796439658
  0
LINE
  8
1
 62
2
  6
CENTER
 10
490.562615673
 20
821.525422385
 11
490.562615673
 21
643.103310133
  0
LINE
  8
1
 62
7
  6
CONTINUOUS
 10
549.562615673
 20
697.860617431
 11
549.562615673
 21
703.946335889
  0
LINE
  8
1
 62
7
  6
CONTINUOUS
 10
549.562615673
 20
705.860617431
 11
549.562615673
 21
711.946335889
  0
LINE
  8
1
 62
7
  6
CONTINUOUS
 10
541.562615673
 20
780.408409071
 11
541.562615673
 21
783.946335889
  0
ARC
  8
1
 62
7
  6
CONTINUOUS
 10
544.562615673
 20
786.796439658
 40
5.000000000
 50
0.000000000
 51
90.000000000
  0
LINE
  8
1
 62
7
  6
CONTINUOUS
 10
431.562615673
 20
689.860617431
 11
439.562615673
 21
692.408409071
  0
LINE
  8
1
 62
7
  6
CONTINUOUS
 10
549.562615673
 20
785.860617431
 11
541.562615673
 21
788.408409071
  0
LINE
  8
1
 62
7
  6
CONTINUOUS
 10
549.562615673
 20
777.860617431
 11
549.562615673
 21
783.946335889
  0
LINE
  8
1
 62
7
  6
CONTINUOUS
 10
431.562615673
 20
777.860617431
 11
439.562615673
 21
780.408409071
  0
LINE
  8
1
 62
7
  6
CONTINUOUS
 10
431.562615673
 20
785.860617431
 11
439.562615673
 21
788.408409071
  0
LINE
  8
1
 62
7
  6
CONTINUOUS
 10
439.562615673
 20
711.946335889
 11
439.562615673
 21
708.408409071
  0
LINE
  8
1
 62
7
  6
CONTINUOUS
 10
549.562615673
 20
769.860617431
 11
549.562615673
 21
775.946335889
  0
ARC
  8
1
 62
7
  6
CONTINUOUS
 10
436.562615673
 20
678.796439658
 40
5.000000000
 50
180.000000000
 51
270.000000000
  0
LINE
  8
1
 62
7
  6
CONTINUOUS
 10
549.562615673
 20
713.860617431
 11
549.562615673
 21
719.946335889
  0
LINE
  8
1
 62
7
  6
CONTINUOUS
 10
549.562615673
 20
785.860617431
 11
549.562615673
 21
786.796439658
  0
LINE
  8
1
 62
7
  6
CONTINUOUS
 10
541.562615673
 20
791.796439658
 11
541.562615673
 21
788.408409071
  0
LINE
  8
1
 62
7
  6
CONTINUOUS
 10
549.562615673
 20
679.732261886
 11
431.562615673
 21
679.732261886
  0
LINE
  8
1
 62
7
  6
CONTINUOUS
 10
431.562615673
 20
679.732261886
 11
431.562615673
 21
678.796439658
  0
LINE
  8
1
 62
7
  6
CONTINUOUS
 10
549.562615673
 20
769.860617431
 11
541.562615673
 21
772.408409071
  0
LINE
  8
1
 62
7
  6
CONTINUOUS
 10
549.562615673
 20
761.860617431
 11
541.562615673
 21
764.408409071
  0
LINE
  8
1
 62
7
  6
CONTINUOUS
 10
549.562615673
 20
679.732261886
 11
549.562615673
 21
678.796439658
  0
LINE
  8
1
 62
7
  6
CONTINUOUS
 10
544.562615673
 20
673.796439658
 11
436.562615673
 21
673.796439658
  0
ARC
  8
1
 62
7
  6
CONTINUOUS
 10
544.562615673
 20
678.796439658
 40
5.000000000
 50
270.000000000
 51
0.000000000
  0
LINE
  8
1
 62
7
  6
CONTINUOUS
 10
549.562615673
 20
761.860617431
 11
549.562615673
 21
767.946335889
  0
LINE
  8
1
 62
7
  6
CONTINUOUS
 10
549.562615673
 20
753.860617431
 11
549.562615673
 21
759.946335889
  0
LINE
  8
1
 62
7
  6
CONTINUOUS
 10
549.562615673
 20
745.860617431
 11
549.562615673
 21
751.946335889
  0
LINE
  8
1
 62
7
  6
CONTINUOUS
 10
549.562615673
 20
737.860617431
 11
549.562615673
 21
743.946335889
  0
LINE
  8
1
 62
7
  6
CONTINUOUS
 10
549.562615673
 20
729.860617431
 11
549.562615673
 21
735.946335889
  0
LINE
  8
1
 62
7
  6
CONTINUOUS
 10
549.562615673
 20
721.860617431
 11
549.562615673
 21
727.946335889
  0
LINE
  8
1
 62
7
  6
CONTINUOUS
 10
549.562615673
 20
689.860617431
 11
549.562615673
 21
695.946335889
  0
LINE
  8
1
 62
7
  6
CONTINUOUS
 10
549.562615673
 20
681.860617431
 11
549.562615673
 21
687.946335889
  0
LINE
  8
1
 62
7
  6
CONTINUOUS
 10
431.562615673
 20
785.860617431
 11
431.562615673
 21
786.796439658
  0
LINE
  8
1
 62
7
  6
CONTINUOUS
 10
431.562615673
 20
777.860617431
 11
431.562615673
 21
783.946335889
  0
LINE
  8
1
 62
7
  6
CONTINUOUS
 10
431.562615673
 20
769.860617431
 11
431.562615673
 21
775.946335889
  0
LINE
  8
1
 62
7
  6
CONTINUOUS
 10
431.562615673
 20
761.860617431
 11
431.562615673
 21
767.946335889
  0
LINE
  8
1
 62
7
  6
CONTINUOUS
 10
431.562615673
 20
753.860617431
 11
431.562615673
 21
759.946335889
  0
LINE
  8
1
 62
7
  6
CONTINUOUS
 10
431.562615673
 20
745.860617431
 11
431.562615673
 21
751.946335889
  0
LINE
  8
1
 62
7
  6
CONTINUOUS
 10
431.562615673
 20
737.860617431
 11
431.562615673
 21
743.946335889
  0
LINE
  8
1
 62
7
  6
CONTINUOUS
 10
431.562615673
 20
729.860617431
 11
431.562615673
 21
735.946335889
  0
LINE
  8
1
 62
7
  6
CONTINUOUS
 10
431.562615673
 20
721.860617431
 11
431.562615673
 21
727.946335889
  0
LINE
  8
1
 62
7
  6
CONTINUOUS
 10
431.562615673
 20
713.860617431
 11
431.562615673
 21
719.946335889
  0
LINE
  8
1
 62
7
  6
CONTINUOUS
 10
431.562615673
 20
705.860617431
 11
431.562615673
 21
711.946335889
  0
LINE
  8
1
 62
7
  6
CONTINUOUS
 10
431.562615673
 20
697.860617431
 11
431.562615673
 21
703.946335889
  0
LINE
  8
1
 62
7
  6
CONTINUOUS
 10
431.562615673
 20
689.860617431
 11
431.562615673
 21
695.946335889
  0
LINE
  8
1
 62
7
  6
CONTINUOUS
 10
431.562615673
 20
681.860617431
 11
431.562615673
 21
687.946335889
  0
LINE
  8
1
 62
7
  6
CONTINUOUS
 10
439.562615673
 20
695.946335889
 11
439.562615673
 21
692.408409071
  0
ARC
  8
1
 62
1
  6
CONTINUOUS
 10
248.530782035
 20
732.796439658
 40
92.994949366
 50
42.000000000
 51
48.000000000
  0
LINE
  8
1
 62
2
  6
CENTER
 10
313.142472380
 20
797.408130003
 11
323.929236238
 21
808.194893861
  0
LINE
  8
1
 62
7
  6
CONTINUOUS
 10
439.562615673
 20
684.408409071
 11
439.562615673
 21
687.946335889
  0
ARC
  8
1
 62
7
  6
CONTINUOUS
 10
572.562615673
 20
650.796439658
 40
5.000000000
 50
270.000000000
 51
0.000000000
  0
ARC
  8
1
 62
7
  6
CONTINUOUS
 10
408.562615673
 20
650.796439658
 40
5.000000000
 50
180.000000000
 51
270.000000000
  0
ARC
  8
1
 62
7
  6
CONTINUOUS
 10
408.562615673
 20
814.796439658
 40
5.000000000
 50
90.000000000
 51
180.000000000
  0
ARC
  8
1
 62
7
  6
CONTINUOUS
 10
572.562615673
 20
814.796439658
 40
5.000000000
 50
0.000000000
 51
90.000000000
  0
LINE
  8
1
 62
7
  6
CONTINUOUS
 10
577.562615673
 20
650.796439658
 11
577.562615673
 21
814.796439658
  0
LINE
  8
1
 62
7
  6
CONTINUOUS
 10
408.562615673
 20
645.796439658
 11
572.562615673
 21
645.796439658
  0
LINE
  8
1
 62
7
  6
CONTINUOUS
 10
403.562615673
 20
814.796439658
 11
403.562615673
 21
650.796439658
  0
LINE
  8
1
 62
7
  6
CONTINUOUS
 10
572.562615673
 20
819.796439658
 11
408.562615673
 21
819.796439658
  0
LINE
  8
1
 62
7
  6
CONTINUOUS
 10
-302.856709162
 20
94.875291389
 11
-288.856709162
 21
94.875291389
  0
LINE
  8
1
 62
7
  6
CONTINUOUS
 10
-262.856709162
 20
94.875291389
 11
-262.856709162
 21
89.855358068
  0
LINE
  8
1
 62
1
  6
HIDDEN2
 10
-262.856709162
 20
46.875291389
 11
-262.856709162
 21
68.875291389
  0
LINE
  8
1
 62
2
  6
CENTER2
 10
-275.035806841
 20
63.025346772
 11
-290.405464056
 21
63.025346772
  0
LINE
  8
1
 62
1
  6
HIDDEN2
 10
-262.856709162
 20
47.901376797
 11
-262.856709162
 21
47.264315448
  0
LINE
  8
1
 62
7
  6
CONTINUOUS
 10
-288.856709162
 20
94.875291389
 11
-288.856709162
 21
89.873547781
  0
ARC
  8
1
 62
1
  6
HIDDEN2
 10
-282.856709162
 20
62.375291389
 40
6.000000000
 50
180.000000000
 51
0.000000000
  0
LINE
  8
1
 62
1
  6
HIDDEN2
 10
-302.856709162
 20
46.875291389
 11
-262.856709162
 21
46.875291389
  0
LINE
  8
1
 62
1
  6
HIDDEN2
 10
-276.856709162
 20
62.375291389
 11
-276.856709162
 21
89.873547781
  0
LINE
  8
1
 62
1
  6
HIDDEN2
 10
-302.856709162
 20
68.875291389
 11
-302.856709162
 21
46.875291389
  0
LINE
  8
1
 62
7
  6
CONTINUOUS
 10
-302.856709162
 20
89.855358068
 11
-302.856709162
 21
94.875291389
  0
LINE
  8
1
 62
7
  6
CONTINUOUS
 10
-276.856709162
 20
456.365903030
 11
-262.856709162
 21
456.365903030
  0
LINE
  8
1
 62
7
  6
CONTINUOUS
 10
-262.856709162
 20
796.365847648
 11
-262.856709162
 21
774.365847648
  0
LINE
  8
1
 62
7
  6
CONTINUOUS
 10
-276.856709162
 20
822.365847648
 11
-276.856709162
 21
817.364048657
  0
ARC
  8
1
 62
7
  6
CONTINUOUS
 10
-282.856709162
 20
789.865847648
 40
6.000000000
 50
180.000000000
 51
0.000000000
  0
LINE
  8
1
 62
7
  6
CONTINUOUS
 10
-262.856709162
 20
461.385836351
 11
-262.856709162
 21
482.365903030
  0
LINE
  8
1
 62
7
  6
CONTINUOUS
 10
-302.856709162
 20
817.345858944
 11
-302.856709162
 21
796.365847648
  0
LINE
  8
1
 62
7
  6
CONTINUOUS
 10
-288.856709162
 20
822.365847648
 11
-302.856709162
 21
822.365847648
  0
LINE
  8
1
 62
2
  6
CENTER2
 10
-275.035806841
 20
468.215847648
 11
-290.405464056
 21
468.215847648
  0
LINE
  8
1
 62
7
  6
CONTINUOUS
 10
-262.856709162
 20
-271.124653228
 11
-276.856709162
 21
-271.124653228
  0
LINE
  8
1
 62
7
  6
CONTINUOUS
 10
-302.856709162
 20
482.365903030
 11
-302.856709162
 21
461.385836351
  0
LINE
  8
1
 62
7
  6
CONTINUOUS
 10
-288.856709162
 20
461.367646639
 11
-288.856709162
 21
488.865903030
  0
LINE
  8
1
 62
7
  6
CONTINUOUS
 10
-276.856709162
 20
817.364048657
 11
-276.856709162
 21
789.865847648
  0
LINE
  8
1
 62
7
  6
CONTINUOUS
 10
-288.856709162
 20
817.364048657
 11
-288.856709162
 21
822.365847648
  0
LINE
  8
1
 62
7
  6
CONTINUOUS
 10
-262.856709162
 20
796.365847648
 11
-262.856709162
 21
817.345858944
  0
LINE
  8
1
 62
7
  6
CONTINUOUS
 10
-302.856709162
 20
775.391933056
 11
-302.856709162
 21
774.754871707
  0
LINE
  8
1
 62
1
  6
HIDDEN2
 10
-262.856709162
 20
-223.124653228
 11
-302.856709162
 21
-223.124653228
  0
LINE
  8
1
 62
7
  6
CONTINUOUS
 10
-302.856709162
 20
822.365847648
 11
-302.856709162
 21
817.345858944
  0
LINE
  8
1
 62
7
  6
CONTINUOUS
 10
-262.856709162
 20
817.345858944
 11
-262.856709162
 21
822.365847648
  0
LINE
  8
1
 62
1
  6
HIDDEN2
 10
-302.856709162
 20
-223.124653228
 11
-302.856709162
 21
-245.124653228
  0
LINE
  8
1
 62
2
  6
CENTER2
 10
-275.035806841
 20
-259.274653228
 11
-290.405464056
 21
-259.274653228
  0
LINE
  8
1
 62
1
  6
HIDDEN2
 10
-288.856709162
 20
-238.624653228
 11
-288.856709162
 21
-266.122854237
  0
LINE
  8
1
 62
2
  6
CENTER2
 10
-275.035806841
 20
-239.274653228
 11
-290.405464056
 21
-239.274653228
  0
LINE
  8
1
 62
7
  6
CONTINUOUS
 10
-276.856709162
 20
461.367646639
 11
-276.856709162
 21
456.365903030
  0
LINE
  8
1
 62
2
  6
CENTER2
 10
-275.035806841
 20
790.515847648
 11
-290.405464056
 21
790.515847648
  0
LINE
  8
1
 62
7
  6
CONTINUOUS
 10
-288.856709162
 20
789.865847648
 11
-288.856709162
 21
817.364048657
  0
LINE
  8
1
 62
2
  6
CENTER2
 10
-275.035806841
 20
810.515847648
 11
-290.405464056
 21
810.515847648
  0
LINE
  8
1
 62
7
  6
CONTINUOUS
 10
-302.856709162
 20
774.365847648
 11
-302.856709162
 21
796.365847648
  0
LINE
  8
1
 62
1
  6
HIDDEN2
 10
-262.856709162
 20
774.365847648
 11
-302.856709162
 21
774.365847648
  0
LINE
  8
1
 62
7
  6
CONTINUOUS
 10
-262.856709162
 20
822.365847648
 11
-276.856709162
 21
822.365847648
  0
LINE
  8
1
 62
7
  6
CONTINUOUS
 10
-302.856709162
 20
461.385836351
 11
-302.856709162
 21
456.365903030
  0
LINE
  8
1
 62
7
  6
CONTINUOUS
 10
-302.856709162
 20
482.365903030
 11
-302.856709162
 21
504.365903030
  0
LINE
  8
1
 62
7
  6
CONTINUOUS
 10
-276.856709162
 20
488.865903030
 11
-276.856709162
 21
461.367646639
  0
LINE
  8
1
 62
7
  6
CONTINUOUS
 10
-302.856709162
 20
504.365903030
 11
-262.856709162
 21
504.365903030
  0
ARC
  8
1
 62
7
  6
CONTINUOUS
 10
-282.856709162
 20
488.865903030
 40
6.000000000
 50
0.000000000
 51
180.000000000
  0
LINE
  8
1
 62
7
  6
CONTINUOUS
 10
-288.856709162
 20
456.365903030
 11
-288.856709162
 21
461.367646639
  0
LINE
  8
1
 62
7
  6
CONTINUOUS
 10
-262.856709162
 20
503.339817622
 11
-262.856709162
 21
503.976878971
  0
LINE
  8
1
 62
2
  6
CENTER2
 10
-275.035806841
 20
488.215847648
 11
-290.405464056
 21
488.215847648
  0
LINE
  8
1
 62
7
  6
CONTINUOUS
 10
-262.856709162
 20
504.365903030
 11
-262.856709162
 21
482.365903030
  0
LINE
  8
1
 62
7
  6
CONTINUOUS
 10
-262.856709162
 20
456.365903030
 11
-262.856709162
 21
461.385836351
  0
LINE
  8
1
 62
7
  6
CONTINUOUS
 10
-302.856709162
 20
456.365903030
 11
-288.856709162
 21
456.365903030
  0
LINE
  8
1
 62
2
  6
CENTER2
 10
-516.342123157
 20
700.865847648
 11
-554.050402832
 21
700.865847648
  0
LINE
  8
1
 62
1
  6
HIDDEN2
 10
-525.556709162
 20
651.865847648
 11
-525.556709162
 21
749.865847648
  0
LINE
  8
1
 62
1
  6
HIDDEN2
 10
-505.556709162
 20
651.865847648
 11
-525.556709162
 21
651.865847648
  0
LINE
  8
1
 62
1
  6
HIDDEN2
 10
-527.556709162
 20
651.865847648
 11
-527.556709162
 21
749.865847648
  0
LINE
  8
1
 62
1
  6
HIDDEN2
 10
-546.556709162
 20
653.365847648
 11
-546.556709162
 21
748.365847648
  0
LINE
  8
1
 62
1
  6
HIDDEN2
 10
-470.557681162
 20
760.865847648
 11
-481.556709162
 21
760.865847648
  0
LINE
  8
1
 62
1
  6
HIDDEN2
 10
-481.556709162
 20
640.865847648
 11
-470.557681162
 21
640.865847648
  0
LINE
  8
1
 62
1
  6
HIDDEN2
 10
-466.856709162
 20
775.565847648
 11
-466.856709162
 21
764.566819648
  0
LINE
  8
1
 62
1
  6
HIDDEN2
 10
-346.856709162
 20
764.566819648
 11
-346.856709162
 21
775.565847648
  0
LINE
  8
1
 62
1
  6
HIDDEN2
 10
-454.356709162
 20
840.565847648
 11
-359.356709162
 21
840.565847648
  0
LINE
  8
1
 62
1
  6
HIDDEN2
 10
-455.856709162
 20
821.565847648
 11
-357.856709162
 21
821.565847648
  0
LINE
  8
1
 62
1
  6
HIDDEN2
 10
-455.856709162
 20
799.565847648
 11
-455.856709162
 21
819.565847648
  0
LINE
  8
1
 62
1
  6
HIDDEN2
 10
-455.856709162
 20
819.565847648
 11
-357.856709162
 21
819.565847648
  0
LINE
  8
1
 62
2
  6
CENTER2
 10
-406.856709162
 20
803.547193396
 11
-406.856709162
 21
848.059541319
  0
LINE
  8
1
 62
1
  6
HIDDEN2
 10
-357.856709162
 20
799.565847648
 11
-353.356709162
 21
793.565847648
  0
LINE
  8
1
 62
1
  6
HIDDEN2
 10
-357.856709162
 20
819.565847648
 11
-357.856709162
 21
799.565847648
  0
LINE
  8
1
 62
1
  6
HIDDEN2
 10
-455.856709162
 20
819.565847648
 11
-455.856709162
 21
821.565847648
  0
LINE
  8
1
 62
1
  6
HIDDEN2
 10
-454.856709162
 20
834.565847648
 11
-454.356709162
 21
840.565847648
  0
LINE
  8
1
 62
1
  6
HIDDEN2
 10
-460.356709162
 20
793.565847648
 11
-353.356709162
 21
793.565847648
  0
LINE
  8
1
 62
1
  6
HIDDEN2
 10
-460.356709162
 20
793.565847648
 11
-455.856709162
 21
799.565847648
  0
LINE
  8
1
 62
1
  6
HIDDEN2
 10
-454.856709162
 20
821.565847648
 11
-454.856709162
 21
834.565847648
  0
LINE
  8
1
 62
7
  6
CONTINUOUS
 10
-276.856709162
 20
89.873547781
 11
-276.856709162
 21
94.875291389
  0
LINE
  8
1
 62
7
  6
CONTINUOUS
 10
296.392483845
 20
529.573062529
 11
296.392483845
 21
461.873062529
  0
LINE
  8
1
 62
7
  6
CONTINUOUS
 10
296.392483845
 20
461.873062529
 11
298.392483845
 21
461.873062529
  0
LINE
  8
1
 62
7
  6
CONTINUOUS
 10
298.392483845
 20
461.873062529
 11
298.392483845
 21
379.878066748
  0
LINE
  8
1
 62
7
  6
CONTINUOUS
 10
295.892483845
 20
529.564334997
 11
296.392483845
 21
529.573062529
  0
LINE
  8
1
 62
7
  6
CONTINUOUS
 10
296.392483845
 20
529.573062529
 11
296.392483845
 21
529.873062529
  0
LINE
  8
1
 62
7
  6
CONTINUOUS
 10
285.892483845
 20
525.751742185
 11
285.892483845
 21
381.994382873
  0
LINE
  8
1
 62
7
  6
CONTINUOUS
 10
295.892483845
 20
529.873062529
 11
295.892483845
 21
377.873062529
  0
LINE
  8
1
 62
7
  6
CONTINUOUS
 10
288.625843878
 20
378.639702495
 11
286.331823673
 21
380.933722701
  0
ARC
  8
1
 62
7
  6
CONTINUOUS
 10
289.686504050
 20
379.700362667
 40
1.500000000
 50
225.000000000
 51
267.000000000
  0
LINE
  8
1
 62
7
  6
CONTINUOUS
 10
295.892483845
 20
377.873062529
 11
289.608000116
 21
378.202418365
  0
ARC
  8
1
 62
7
  6
CONTINUOUS
 10
287.392483845
 20
381.994382873
 40
1.500000000
 50
180.000000000
 51
225.000000000
  0
LINE
  8
1
 62
7
  6
CONTINUOUS
 10
296.392483845
 20
529.873062529
 11
302.101827670
 21
529.573848498
  0
LINE
  8
1
 62
7
  6
CONTINUOUS
 10
295.892483845
 20
529.564334997
 11
295.892483845
 21
528.573062529
  0
ARC
  8
1
 62
7
  6
CONTINUOUS
 10
301.892483845
 20
525.579330359
 40
4.000000000
 50
0.000000000
 51
87.000000000
  0
ARC
  8
1
 62
7
  6
CONTINUOUS
 10
287.392483845
 20
525.751742185
 40
1.500000000
 50
135.000000000
 51
180.000000000
  0
LINE
  8
1
 62
7
  6
CONTINUOUS
 10
295.892483845
 20
529.873062529
 11
289.608000116
 21
529.543706694
  0
ARC
  8
1
 62
7
  6
CONTINUOUS
 10
289.686504050
 20
528.045762391
 40
1.500000000
 50
93.000000000
 51
135.000000000
  0
LINE
  8
1
 62
7
  6
CONTINUOUS
 10
288.625843878
 20
529.106422562
 11
286.331823673
 21
526.812402357
  0
LINE
  8
1
 62
7
  6
CONTINUOUS
 10
199.787471602
 20
336.441689478
 11
199.800177802
 21
336.199240748
  0
LINE
  8
1
 62
7
  6
CONTINUOUS
 10
261.577840485
 20
336.441689478
 11
261.565134286
 21
336.199240748
  0
LINE
  8
1
 62
7
  6
CONTINUOUS
 10
253.682656044
 20
338.941689478
 11
207.682656044
 21
338.941689478
  0
LINE
  8
1
 62
7
  6
CONTINUOUS
 10
207.682656044
 20
338.941689478
 11
207.682656044
 21
336.441689478
  0
LINE
  8
1
 62
7
  6
CONTINUOUS
 10
253.682656044
 20
336.441689478
 11
253.682656044
 21
338.941689478
  0
LINE
  8
1
 62
7
  6
CONTINUOUS
 10
207.682656044
 20
338.441689478
 11
253.682656044
 21
338.441689478
  0
ARC
  8
1
 62
7
  6
CONTINUOUS
 10
257.570616147
 20
336.408584573
 40
4.000000000
 50
284.694198420
 51
357.000000000
  0
ARC
  8
1
 62
7
  6
CONTINUOUS
 10
203.794695941
 20
336.408584573
 40
4.000000000
 50
183.000000000
 51
255.305801580
  0
LINE
  8
1
 62
7
  6
CONTINUOUS
 10
261.577840485
 20
336.441689478
 11
253.682656044
 21
336.441689478
  0
LINE
  8
1
 62
7
  6
CONTINUOUS
 10
207.682656044
 20
336.441689478
 11
199.787471602
 21
336.441689478
  0
ARC
  8
1
 62
7
  6
CONTINUOUS
 10
230.682656044
 20
438.941689478
 40
110.000000000
 50
255.305801580
 51
284.694198420
  0
LINE
  8
1
 62
7
  6
CONTINUOUS
 10
200.682656044
 20
336.441689478
 11
200.682656044
 21
338.941689478
  0
LINE
  8
1
 62
7
  6
CONTINUOUS
 10
260.682656044
 20
336.441689478
 11
260.682656044
 21
338.941689478
  0
LINE
  8
1
 62
7
  6
CONTINUOUS
 10
199.682656044
 20
338.941689478
 11
261.682656044
 21
338.941689478
  0
LINE
  8
1
 62
7
  6
CONTINUOUS
 10
203.803976387
 20
348.941689478
 11
257.561335700
 21
348.941689478
  0
LINE
  8
1
 62
7
  6
CONTINUOUS
 10
200.449296010
 20
346.208329445
 11
202.743316215
 21
348.502349650
  0
ARC
  8
1
 62
7
  6
CONTINUOUS
 10
201.509956182
 20
345.147669273
 40
1.500000000
 50
135.000000000
 51
177.000000000
  0
LINE
  8
1
 62
7
  6
CONTINUOUS
 10
260.916016077
 20
346.208329444
 11
258.621995872
 21
348.502349650
  0
ARC
  8
1
 62
7
  6
CONTINUOUS
 10
203.803976387
 20
347.441689478
 40
1.500000000
 50
90.000000000
 51
135.000000000
  0
LINE
  8
1
 62
7
  6
CONTINUOUS
 10
199.682656044
 20
338.941689478
 11
200.012011880
 21
345.226173207
  0
LINE
  8
1
 62
2
  6
CENTER
 10
230.682656044
 20
536.949114225
 11
230.682656044
 21
373.530187974
  0
LINE
  8
1
 62
7
  6
CONTINUOUS
 10
261.682656044
 20
338.941689478
 11
261.353300208
 21
345.226173207
  0
ARC
  8
1
 62
7
  6
CONTINUOUS
 10
257.561335700
 20
347.441689478
 40
1.500000000
 50
45.000000000
 51
90.000000000
  0
ARC
  8
1
 62
7
  6
CONTINUOUS
 10
259.855355906
 20
345.147669273
 40
1.500000000
 50
3.000000000
 51
45.000000000
  0
ARC
  8
1
 62
7
  6
CONTINUOUS
 10
253.682656044
 20
521.873062529
 40
8.000000000
 50
0.000000000
 51
90.000000000
  0
ARC
  8
1
 62
7
  6
CONTINUOUS
 10
207.682656044
 20
521.873062529
 40
8.000000000
 50
90.000000000
 51
180.000000000
  0
LINE
  8
1
 62
7
  6
CONTINUOUS
 10
253.682656044
 20
529.873062529
 11
207.682656044
 21
529.873062529
  0
LINE
  8
1
 62
7
  6
CONTINUOUS
 10
199.682656044
 20
521.873062529
 11
199.682656044
 21
385.873062529
  0
LINE
  8
1
 62
7
  6
CONTINUOUS
 10
261.682656044
 20
385.873062529
 11
261.682656044
 21
521.873062529
  0
ARC
  8
1
 62
7
  6
CONTINUOUS
 10
207.682656044
 20
412.373062529
 40
3.000000000
 50
180.000000000
 51
270.000000000
  0
ARC
  8
1
 62
7
  6
CONTINUOUS
 10
253.682656044
 20
412.373062529
 40
3.000000000
 50
270.000000000
 51
0.000000000
  0
ARC
  8
1
 62
7
  6
CONTINUOUS
 10
253.682656044
 20
521.873062529
 40
8.000000000
 50
0.000000000
 51
90.000000000
  0
ARC
  8
1
 62
7
  6
CONTINUOUS
 10
207.682656044
 20
521.873062529
 40
8.000000000
 50
90.000000000
 51
180.000000000
  0
LINE
  8
1
 62
7
  6
CONTINUOUS
 10
253.682656044
 20
529.873062529
 11
207.682656044
 21
529.873062529
  0
LINE
  8
1
 62
7
  6
CONTINUOUS
 10
199.682656044
 20
521.873062529
 11
199.682656044
 21
385.873062529
  0
LINE
  8
1
 62
7
  6
CONTINUOUS
 10
261.682656044
 20
385.873062529
 11
261.682656044
 21
521.873062529
  0
LINE
  8
1
 62
7
  6
CONTINUOUS
 10
256.682656044
 20
521.873062529
 11
256.682656044
 21
412.373062529
  0
LINE
  8
1
 62
7
  6
CONTINUOUS
 10
204.682656044
 20
412.373062529
 11
204.682656044
 21
521.873062529
  0
ARC
  8
1
 62
7
  6
CONTINUOUS
 10
207.682656044
 20
521.873062529
 40
3.000000000
 50
90.000000000
 51
180.000000000
  0
ARC
  8
1
 62
7
  6
CONTINUOUS
 10
253.682656044
 20
521.873062529
 40
3.000000000
 50
0.000000000
 51
90.000000000
  0
LINE
  8
1
 62
7
  6
CONTINUOUS
 10
252.682656044
 20
514.873062529
 11
208.682656044
 21
514.873062529
  0
LINE
  8
1
 62
7
  6
CONTINUOUS
 10
208.682656044
 20
514.873062529
 11
208.682656044
 21
469.873062529
  0
LINE
  8
1
 62
7
  6
CONTINUOUS
 10
208.682656044
 20
469.873062529
 11
252.682656044
 21
469.873062529
  0
LINE
  8
1
 62
7
  6
CONTINUOUS
 10
252.682656044
 20
469.873062529
 11
252.682656044
 21
514.873062529
  0
LINE
  8
1
 62
7
  6
CONTINUOUS
 10
208.682656044
 20
469.873062529
 11
252.682656044
 21
469.873062529
  0
LINE
  8
1
 62
7
  6
CONTINUOUS
 10
208.682656044
 20
514.873062529
 11
208.682656044
 21
469.873062529
  0
LINE
  8
1
 62
7
  6
CONTINUOUS
 10
252.682656044
 20
469.873062529
 11
252.682656044
 21
514.873062529
  0
LINE
  8
1
 62
7
  6
CONTINUOUS
 10
252.682656044
 20
514.873062529
 11
208.682656044
 21
514.873062529
  0
LINE
  8
1
 62
7
  6
CONTINUOUS
 10
207.682656044
 20
524.873062529
 11
253.682656044
 21
524.873062529
  0
ARC
  8
1
 62
7
  6
CONTINUOUS
 10
207.682656053
 20
385.873062538
 40
8.000000000
 50
180.000000000
 51
270.000000000
  0
ARC
  8
1
 62
7
  6
CONTINUOUS
 10
253.682656035
 20
385.873062538
 40
8.000000000
 50
270.000000000
 51
0.000000000
  0
LINE
  8
1
 62
7
  6
CONTINUOUS
 10
207.682656044
 20
409.373062529
 11
253.682656044
 21
409.373062529
  0
LINE
  8
1
 62
7
  6
CONTINUOUS
 10
253.682656044
 20
377.873062529
 11
207.682656044
 21
377.873062529
  0
LINE
  8
1
 62
7
  6
CONTINUOUS
 10
295.892483845
 20
529.198134297
 11
295.892483845
 21
379.272565017
  0
LINE
  8
1
 62
7
  6
CONTINUOUS
 10
305.392483845
 20
423.495247984
 11
305.392483845
 21
422.995247984
  0
LINE
  8
1
 62
7
  6
CONTINUOUS
 10
305.892483845
 20
423.503975516
 11
305.892483845
 21
525.579330359
  0
LINE
  8
1
 62
7
  6
CONTINUOUS
 10
298.392483845
 20
422.873062529
 11
305.392483845
 21
422.995247984
  0
LINE
  8
1
 62
7
  6
CONTINUOUS
 10
298.392483845
 20
423.373062529
 11
305.892483845
 21
423.503975516
  0
LINE
  8
1
 62
7
  6
CONTINUOUS
 10
298.392483845
 20
377.977878088
 11
298.392483845
 21
378.873062529
  0
ARC
  8
1
 62
7
  6
CONTINUOUS
 10
301.892483845
 20
382.166794699
 40
4.000000000
 50
273.000000000
 51
0.000000000
  0
LINE
  8
1
 62
7
  6
CONTINUOUS
 10
298.392483845
 20
378.873062529
 11
298.392483845
 21
422.873062529
  0
LINE
  8
1
 62
7
  6
CONTINUOUS
 10
298.392483845
 20
422.873062529
 11
305.892483845
 21
423.003975516
  0
LINE
  8
1
 62
7
  6
CONTINUOUS
 10
295.892483845
 20
378.181790061
 11
295.892483845
 21
379.173062529
  0
LINE
  8
1
 62
7
  6
CONTINUOUS
 10
296.392483845
 20
377.873062529
 11
302.101827670
 21
378.172276560
  0
LINE
  8
1
 62
7
  6
CONTINUOUS
 10
296.392483845
 20
378.173062529
 11
296.392483845
 21
377.873062529
  0
LINE
  8
1
 62
7
  6
CONTINUOUS
 10
305.892483845
 20
423.003975516
 11
305.892483845
 21
382.166794699
  0
LINE
  8
1
 62
7
  6
CONTINUOUS
 10
295.892483845
 20
378.181790061
 11
296.392483845
 21
378.173062529
  0
LINE
  8
1
 62
7
  6
CONTINUOUS
 10
199.682656044
 20
338.441689478
 11
199.982656044
 21
338.441689478
  0
LINE
  8
1
 62
7
  6
CONTINUOUS
 10
261.682656044
 20
338.441689478
 11
261.382656044
 21
338.441689478
  0
LINE
  8
1
 62
7
  6
CONTINUOUS
 10
261.682656044
 20
338.441689478
 11
261.577840485
 21
336.441689478
  0
LINE
  8
1
 62
7
  6
CONTINUOUS
 10
199.682656044
 20
338.441689478
 11
199.787471602
 21
336.441689478
  0
LINE
  8
1
 62
7
  6
CONTINUOUS
 10
199.991383577
 20
338.941689478
 11
199.982656044
 21
338.441689478
  0
LINE
  8
1
 62
7
  6
CONTINUOUS
 10
261.373928512
 20
338.941689478
 11
261.382656044
 21
338.441689478
  0
ARC
  8
1
 62
7
  6
CONTINUOUS
 10
369.626102581
 20
484.076642577
 40
0.500000000
 50
90.000000000
 51
180.000000000
  0
LINE
  8
1
 62
7
  6
CONTINUOUS
 10
437.126102581
 20
354.904678586
 11
368.126102581
 21
354.904678586
  0
LINE
  8
1
 62
2
  6
CENTER
 10
402.626102581
 20
491.211745682
 11
402.626102581
 21
386.750596228
  0
LINE
  8
1
 62
7
  6
CONTINUOUS
 10
435.626102581
 20
484.576642577
 11
369.626102581
 21
484.576642577
  0
LINE
  8
1
 62
7
  6
CONTINUOUS
 10
369.126102581
 20
484.076642577
 11
369.126102581
 21
450.076642577
  0
LINE
  8
1
 62
7
  6
CONTINUOUS
 10
471.288827727
 20
484.576642577
 11
456.236491771
 21
483.787783077
  0
LINE
  8
1
 62
7
  6
CONTINUOUS
 10
455.288827727
 20
482.789153542
 11
455.288827727
 21
451.364131612
  0
LINE
  8
1
 62
7
  6
CONTINUOUS
 10
456.236491771
 20
450.365502077
 11
471.288827727
 21
449.576642577
  0
LINE
  8
1
 62
7
  6
CONTINUOUS
 10
467.288827727
 20
483.892529177
 11
467.288827727
 21
449.786273694
  0
ARC
  8
1
 62
7
  6
CONTINUOUS
 10
463.288827727
 20
400.896578637
 40
4.000000000
 50
273.000000000
 51
0.000000000
  0
LINE
  8
1
 62
7
  6
CONTINUOUS
 10
471.288827727
 20
392.576642577
 11
471.288827727
 21
484.576642577
  0
LINE
  8
1
 62
7
  6
CONTINUOUS
 10
434.126102581
 20
482.576642577
 11
429.126102581
 21
482.576642577
  0
ARC
  8
1
 62
7
  6
CONTINUOUS
 10
456.288827727
 20
451.364131612
 40
1.000000000
 50
180.000000000
 51
267.000000000
  0
ARC
  8
1
 62
7
  6
CONTINUOUS
 10
456.288827727
 20
482.789153542
 40
1.000000000
 50
93.000000000
 51
180.000000000
  0
LINE
  8
1
 62
7
  6
CONTINUOUS
 10
369.626102581
 20
449.576642577
 11
384.626102581
 21
449.576642577
  0
LINE
  8
1
 62
7
  6
CONTINUOUS
 10
384.626102581
 20
449.576642577
 11
384.626102581
 21
396.576642577
  0
LINE
  8
1
 62
7
  6
CONTINUOUS
 10
389.454529707
 20
392.576642577
 11
415.797675456
 21
392.576642577
  0
LINE
  8
1
 62
7
  6
CONTINUOUS
 10
420.626102581
 20
396.576642577
 11
420.626102581
 21
449.576642577
  0
LINE
  8
1
 62
7
  6
CONTINUOUS
 10
420.626102581
 20
449.576642577
 11
435.626102581
 21
449.576642577
  0
LINE
  8
1
 62
7
  6
CONTINUOUS
 10
436.126102581
 20
450.076642577
 11
436.126102581
 21
484.076642577
  0
LINE
  8
1
 62
7
  6
CONTINUOUS
 10
434.126102581
 20
484.076642577
 11
434.126102581
 21
450.076642577
  0
LINE
  8
1
 62
7
  6
CONTINUOUS
 10
371.126102581
 20
450.076642577
 11
371.126102581
 21
484.076642577
  0
ARC
  8
1
 62
7
  6
CONTINUOUS
 10
369.626102581
 20
450.076642577
 40
0.500000000
 50
180.000000000
 51
270.000000000
  0
ARC
  8
1
 62
7
  6
CONTINUOUS
 10
435.626102581
 20
450.076642577
 40
0.500000000
 50
270.000000000
 51
0.000000000
  0
ARC
  8
1
 62
7
  6
CONTINUOUS
 10
435.626102581
 20
484.076642577
 40
0.500000000
 50
0.000000000
 51
90.000000000
  0
ARC
  8
1
 62
7
  6
CONTINUOUS
 10
370.626102581
 20
484.076642577
 40
0.500000000
 50
0.000000000
 51
90.000000000
  0
ARC
  8
1
 62
7
  6
CONTINUOUS
 10
370.626102581
 20
450.076642577
 40
0.500000000
 50
270.000000000
 51
0.000000000
  0
ARC
  8
1
 62
7
  6
CONTINUOUS
 10
434.626102581
 20
484.076642577
 40
0.500000000
 50
90.000000000
 51
180.000000000
  0
ARC
  8
1
 62
7
  6
CONTINUOUS
 10
434.626102581
 20
450.076642577
 40
0.500000000
 50
180.000000000
 51
270.000000000
  0
LINE
  8
1
 62
7
  6
CONTINUOUS
 10
419.418995800
 20
396.576642577
 11
385.833209362
 21
396.576642577
  0
LINE
  8
1
 62
7
  6
CONTINUOUS
 10
384.626102581
 20
396.576642577
 11
388.040316144
 21
393.162429015
  0
LINE
  8
1
 62
7
  6
CONTINUOUS
 10
420.626102581
 20
396.576642577
 11
417.211889018
 21
393.162429015
  0
LINE
  8
1
 62
7
  6
CONTINUOUS
 10
400.626102581
 20
425.576642577
 11
404.626102581
 21
425.576642577
  0
ARC
  8
1
 62
7
  6
CONTINUOUS
 10
385.833209362
 20
396.076642577
 40
0.500000000
 50
90.000000000
 51
225.000000000
  0
ARC
  8
1
 62
7
  6
CONTINUOUS
 10
419.418995800
 20
396.076642577
 40
0.500000000
 50
315.000000000
 51
90.000000000
  0
ARC
  8
1
 62
7
  6
CONTINUOUS
 10
415.797675456
 20
394.576642577
 40
2.000000000
 50
270.000000000
 51
315.000000000
  0
ARC
  8
1
 62
7
  6
CONTINUOUS
 10
389.454529707
 20
394.576642577
 40
2.000000000
 50
225.000000000
 51
270.000000000
  0
LINE
  8
1
 62
7
  6
CONTINUOUS
 10
404.626102581
 20
429.576642577
 11
400.626102581
 21
429.576642577
  0
LINE
  8
1
 62
7
  6
CONTINUOUS
 10
410.626102581
 20
396.576642577
 11
410.626102581
 21
392.576642577
  0
ARC
  8
1
 62
7
  6
CONTINUOUS
 10
400.626102581
 20
427.576642577
 40
2.000000000
 50
90.000000000
 51
270.000000000
  0
ARC
  8
1
 62
7
  6
CONTINUOUS
 10
404.626102581
 20
427.576642577
 40
2.000000000
 50
270.000000000
 51
90.000000000
  0
ARC
  8
1
 62
7
  6
CONTINUOUS
 10
402.626102581
 20
469.576642577
 40
2.000000000
 50
0.000000000
 51
0.000000000
  0
LINE
  8
1
 62
7
  6
CONTINUOUS
 10
434.126102581
 20
480.576642577
 11
433.126102581
 21
480.576642577
  0
LINE
  8
1
 62
7
  6
CONTINUOUS
 10
432.626102581
 20
480.076642577
 11
432.626102581
 21
454.076642577
  0
LINE
  8
1
 62
7
  6
CONTINUOUS
 10
433.126102581
 20
453.576642577
 11
434.126102581
 21
453.576642577
  0
ARC
  8
1
 62
7
  6
CONTINUOUS
 10
-470.356709162
 20
798.015847648
 40
2.250000000
 50
0.000000000
 51
180.000000000
  0
LINE
  8
1
 62
7
  6
CONTINUOUS
 10
-472.606709162
 20
790.515847648
 11
-472.606709162
 21
798.015847648
  0
ARC
  8
1
 62
7
  6
CONTINUOUS
 10
-470.356709162
 20
790.515847648
 40
2.250000000
 50
180.000000000
 51
0.000000000
  0
LINE
  8
1
 62
7
  6
CONTINUOUS
 10
-468.106709162
 20
798.015847648
 11
-468.106709162
 21
790.515839648
  0
ARC
  8
1
 62
7
  6
CONTINUOUS
 10
-504.006709162
 20
514.365847648
 40
2.250000000
 50
90.000000000
 51
270.000000000
  0
LINE
  8
1
 62
7
  6
CONTINUOUS
 10
-504.006709162
 20
516.615847648
 11
-496.506709162
 21
516.615847648
  0
LINE
  8
1
 62
7
  6
CONTINUOUS
 10
-496.506709162
 20
512.115847648
 11
-504.006709162
 21
512.115847648
  0
ARC
  8
1
 62
7
  6
CONTINUOUS
 10
-496.506709162
 20
514.365847648
 40
2.250000000
 50
270.000000000
 51
90.000000000
  0
ARC
  8
1
 62
7
  6
CONTINUOUS
 10
-470.356709162
 20
488.215847648
 40
2.250000000
 50
0.000000000
 51
180.000000000
  0
LINE
  8
1
 62
7
  6
CONTINUOUS
 10
-472.606709162
 20
488.215847648
 11
-472.606709162
 21
480.715847648
  0
ARC
  8
1
 62
7
  6
CONTINUOUS
 10
-470.356709162
 20
480.715847648
 40
2.250000000
 50
180.000000000
 51
0.000000000
  0
LINE
  8
1
 62
7
  6
CONTINUOUS
 10
-468.106709162
 20
480.715847648
 11
-468.106709162
 21
488.215857648
  0
ARC
  8
1
 62
7
  6
CONTINUOUS
 10
-95.356709162
 20
480.715847648
 40
2.250000000
 50
180.000000000
 51
0.000000000
  0
LINE
  8
1
 62
7
  6
CONTINUOUS
 10
-93.106709162
 20
488.215847648
 11
-93.106709162
 21
480.715847648
  0
ARC
  8
1
 62
7
  6
CONTINUOUS
 10
-95.356709162
 20
488.215847648
 40
2.250000000
 50
0.000000000
 51
180.000000000
  0
LINE
  8
1
 62
7
  6
CONTINUOUS
 10
-97.606709162
 20
480.715847648
 11
-97.606709162
 21
488.215857648
  0
LINE
  8
1
 62
7
  6
CONTINUOUS
 10
-69.206709162
 20
512.115847648
 11
-61.706709162
 21
512.115847648
  0
ARC
  8
1
 62
7
  6
CONTINUOUS
 10
-61.706709162
 20
514.365847648
 40
2.250000000
 50
270.000000000
 51
90.000000000
  0
LINE
  8
1
 62
7
  6
CONTINUOUS
 10
-61.706709162
 20
516.615847648
 11
-69.206709162
 21
516.615847648
  0
ARC
  8
1
 62
7
  6
CONTINUOUS
 10
-69.206709162
 20
514.365847648
 40
2.250000000
 50
90.000000000
 51
270.000000000
  0
ARC
  8
1
 62
7
  6
CONTINUOUS
 10
-496.506709162
 20
764.365847648
 40
2.250000000
 50
270.000000000
 51
90.000000000
  0
LINE
  8
1
 62
7
  6
CONTINUOUS
 10
-496.506709162
 20
766.615847648
 11
-504.006709162
 21
766.615847648
  0
ARC
  8
1
 62
7
  6
CONTINUOUS
 10
-504.006709162
 20
764.365847648
 40
2.250000000
 50
90.000000000
 51
270.000000000
  0
LINE
  8
1
 62
7
  6
CONTINUOUS
 10
-504.006709162
 20
762.115847648
 11
-496.506709162
 21
762.115847648
  0
LINE
  8
1
 62
2
  6
CENTER2
 10
-95.356709162
 20
491.965839648
 11
-95.356709162
 21
476.965839648
  0
LINE
  8
1
 62
2
  6
CENTER2
 10
-466.606709162
 20
484.465847648
 11
-474.106709162
 21
484.465847648
  0
LINE
  8
1
 62
2
  6
CENTER2
 10
-91.606709162
 20
484.465839648
 11
-99.106709162
 21
484.465839648
  0
LINE
  8
1
 62
2
  6
CENTER2
 10
-470.356709162
 20
491.965847648
 11
-470.356709162
 21
476.965847648
  0
LINE
  8
1
 62
2
  6
CENTER2
 10
-95.356709162
 20
801.765847648
 11
-95.356709162
 21
786.765847648
  0
LINE
  8
1
 62
2
  6
CENTER2
 10
-500.256709162
 20
510.615847648
 11
-500.256709162
 21
518.115847648
  0
LINE
  8
1
 62
2
  6
CENTER2
 10
-500.256709162
 20
760.615847648
 11
-500.256709162
 21
768.115847648
  0
LINE
  8
1
 62
2
  6
CENTER2
 10
-470.356709162
 20
801.765847648
 11
-470.356709162
 21
786.765847648
  0
LINE
  8
1
 62
7
  6
CONTINUOUS
 10
-97.606709162
 20
798.015847648
 11
-97.606709162
 21
790.515839648
  0
ARC
  8
1
 62
7
  6
CONTINUOUS
 10
-95.356709162
 20
798.015847648
 40
2.250000000
 50
0.000000000
 51
180.000000000
  0
LINE
  8
1
 62
7
  6
CONTINUOUS
 10
-93.106709162
 20
790.515847648
 11
-93.106709162
 21
798.015847648
  0
ARC
  8
1
 62
7
  6
CONTINUOUS
 10
-95.356709162
 20
790.515847648
 40
2.250000000
 50
180.000000000
 51
0.000000000
  0
ARC
  8
1
 62
7
  6
CONTINUOUS
 10
433.126102581
 20
480.076642577
 40
0.500000000
 50
90.000000000
 51
180.000000000
  0
ARC
  8
1
 62
7
  6
CONTINUOUS
 10
433.126102581
 20
454.076642577
 40
0.500000000
 50
180.000000000
 51
270.000000000
  0
LINE
  8
1
 62
7
  6
CONTINUOUS
 10
-95.155737162
 20
566.865847648
 11
-84.156709162
 21
566.865847648
  0
LINE
  8
1
 62
7
  6
CONTINUOUS
 10
-19.156709162
 20
686.865847648
 11
-19.156709162
 21
591.865847648
  0
LINE
  8
1
 62
7
  6
CONTINUOUS
 10
-38.156709162
 20
688.365847648
 11
-38.156709162
 21
590.365847648
  0
LINE
  8
1
 62
7
  6
CONTINUOUS
 10
-60.156709162
 20
688.365847648
 11
-40.156709162
 21
688.365847648
  0
LINE
  8
1
 62
7
  6
CONTINUOUS
 10
-40.156709162
 20
688.365847648
 11
-40.156709162
 21
590.365847648
  0
LINE
  8
1
 62
7
  6
CONTINUOUS
 10
-60.156709162
 20
590.365847648
 11
-66.156709162
 21
585.865847648
  0
LINE
  8
1
 62
7
  6
CONTINUOUS
 10
-40.156709162
 20
590.365847648
 11
-60.156709162
 21
590.365847648
  0
LINE
  8
1
 62
7
  6
CONTINUOUS
 10
-40.156709162
 20
688.365847648
 11
-38.156709162
 21
688.365847648
  0
LINE
  8
1
 62
7
  6
CONTINUOUS
 10
-25.156709162
 20
687.365847648
 11
-19.156709162
 21
686.865847648
  0
LINE
  8
1
 62
7
  6
CONTINUOUS
 10
-66.156709162
 20
692.865847648
 11
-66.156709162
 21
585.865847648
  0
LINE
  8
1
 62
7
  6
CONTINUOUS
 10
-66.156709162
 20
692.865847648
 11
-60.156709162
 21
688.365847648
  0
LINE
  8
1
 62
2
  6
CENTER2
 10
-0.844748918
 20
639.365847648
 11
-564.893057659
 21
639.365847648
  0
LINE
  8
1
 62
2
  6
CENTER2
 10
-282.856709162
 20
845.059379972
 11
-282.856709162
 21
445.374017479
  0
LINE
  8
1
 62
7
  6
CONTINUOUS
 10
371.126102581
 20
480.576642577
 11
372.126102581
 21
480.576642577
  0
LINE
  8
1
 62
7
  6
CONTINUOUS
 10
372.626102581
 20
480.076642577
 11
372.626102581
 21
454.076642577
  0
LINE
  8
1
 62
7
  6
CONTINUOUS
 10
372.126102581
 20
453.576642577
 11
371.126102581
 21
453.576642577
  0
ARC
  8
1
 62
7
  6
CONTINUOUS
 10
372.126102581
 20
480.076642577
 40
0.500000000
 50
0.000000000
 51
90.000000000
  0
ARC
  8
1
 62
7
  6
CONTINUOUS
 10
372.126102581
 20
454.076642577
 40
0.500000000
 50
270.000000000
 51
0.000000000
  0
LINE
  8
1
 62
7
  6
CONTINUOUS
 10
451.906608501
 20
395.458861804
 11
453.333408756
 21
394.032061549
  0
LINE
  8
1
 62
7
  6
CONTINUOUS
 10
-38.156709162
 20
687.365847648
 11
-25.156709162
 21
687.365847648
  0
LINE
  8
1
 62
7
  6
CONTINUOUS
 10
376.126102581
 20
451.576642577
 11
371.126102581
 21
451.576642577
  0
LINE
  8
1
 62
7
  6
CONTINUOUS
 10
394.626102581
 20
396.576642577
 11
394.626102581
 21
392.576642577
  0
LINE
  8
1
 62
7
  6
CONTINUOUS
 10
376.126102581
 20
482.576642577
 11
376.126102581
 21
451.576642577
  0
LINE
  8
1
 62
7
  6
CONTINUOUS
 10
371.126102581
 20
482.576642577
 11
376.126102581
 21
482.576642577
  0
LINE
  8
1
 62
7
  6
CONTINUOUS
 10
454.642950406
 20
393.449016042
 11
471.288827727
 21
392.576642577
  0
LINE
  8
1
 62
7
  6
CONTINUOUS
 10
469.288827727
 20
482.471827018
 11
469.288827727
 21
477.076642577
  0
LINE
  8
1
 62
7
  6
CONTINUOUS
 10
463.498171552
 20
396.902060498
 11
452.233993913
 21
396.311729962
  0
LINE
  8
1
 62
7
  6
CONTINUOUS
 10
471.288827727
 20
482.576642577
 11
469.288827727
 21
482.471827018
  0
LINE
  8
1
 62
7
  6
CONTINUOUS
 10
467.288827727
 20
449.786273694
 11
467.288827727
 21
400.896578637
  0
LINE
  8
1
 62
7
  6
CONTINUOUS
 10
429.126102581
 20
482.576642577
 11
429.126102581
 21
451.576642577
  0
LINE
  8
1
 62
7
  6
CONTINUOUS
 10
429.126102581
 20
451.576642577
 11
434.126102581
 21
451.576642577
  0
LINE
  8
1
 62
7
  6
CONTINUOUS
 10
471.288827727
 20
467.576642577
 11
469.788827727
 21
467.576642577
  0
LINE
  8
1
 62
7
  6
CONTINUOUS
 10
471.288827727
 20
471.576642577
 11
469.788827727
 21
471.576642577
  0
LINE
  8
1
 62
7
  6
CONTINUOUS
 10
-61.706709162
 20
762.115847648
 11
-69.206709162
 21
762.115847648
  0
ARC
  8
1
 62
7
  6
CONTINUOUS
 10
-61.706709162
 20
764.365847648
 40
2.250000000
 50
270.000000000
 51
90.000000000
  0
LINE
  8
1
 62
7
  6
CONTINUOUS
 10
-69.206709162
 20
766.615847648
 11
-61.706709162
 21
766.615847648
  0
ARC
  8
1
 62
7
  6
CONTINUOUS
 10
-69.206709162
 20
764.365847648
 40
2.250000000
 50
90.000000000
 51
270.000000000
  0
ARC
  8
1
 62
7
  6
CONTINUOUS
 10
-282.856709162
 20
798.015847648
 40
2.250000000
 50
0.000000000
 51
180.000000000
  0
ARC
  8
1
 62
7
  6
CONTINUOUS
 10
-282.856709162
 20
790.515847648
 40
2.250000000
 50
180.000000000
 51
0.000000000
  0
LINE
  8
1
 62
7
  6
CONTINUOUS
 10
-280.606709162
 20
798.015847648
 11
-280.606709162
 21
790.515847648
  0
LINE
  8
1
 62
7
  6
CONTINUOUS
 10
-285.106709162
 20
798.015847648
 11
-285.106709162
 21
790.515839648
  0
LINE
  8
1
 62
7
  6
CONTINUOUS
 10
-285.106709162
 20
480.715847648
 11
-285.106709162
 21
488.215857648
  0
LINE
  8
1
 62
7
  6
CONTINUOUS
 10
-280.606709162
 20
480.715847648
 11
-280.606709162
 21
488.215847648
  0
ARC
  8
1
 62
7
  6
CONTINUOUS
 10
-282.856709162
 20
488.215847648
 40
2.250000000
 50
0.000000000
 51
180.000000000
  0
ARC
  8
1
 62
7
  6
CONTINUOUS
 10
-282.856709162
 20
480.715847648
 40
2.250000000
 50
180.000000000
 51
0.000000000
  0
LINE
  8
1
 62
7
  6
CONTINUOUS
 10
471.288827727
 20
477.076642577
 11
469.288827727
 21
477.076642577
  0
LINE
  8
1
 62
7
  6
CONTINUOUS
 10
469.788827727
 20
475.076642577
 11
467.288827727
 21
475.076642577
  0
ARC
  8
1
 62
7
  6
CONTINUOUS
 10
467.788827727
 20
483.892529177
 40
0.500000000
 50
93.000000000
 51
180.000000000
  0
LINE
  8
1
 62
7
  6
CONTINUOUS
 10
469.288827727
 20
420.076642577
 11
469.288827727
 21
400.576642577
  0
LINE
  8
1
 62
7
  6
CONTINUOUS
 10
469.288827727
 20
462.076642577
 11
469.288827727
 21
435.076642577
  0
LINE
  8
1
 62
7
  6
CONTINUOUS
 10
469.788827727
 20
433.076642577
 11
469.788827727
 21
422.076642577
  0
LINE
  8
1
 62
7
  6
CONTINUOUS
 10
469.288827727
 20
462.076642577
 11
471.288827727
 21
462.076642577
  0
ARC
  8
1
 62
7
  6
CONTINUOUS
 10
402.626102581
 20
469.576642577
 40
5.500000000
 50
0.000000000
 51
0.000000000
  0
ARC
  8
1
 62
7
  6
CONTINUOUS
 10
400.626102581
 20
427.576642577
 40
5.500000000
 50
90.000000000
 51
270.000000000
  0
ARC
  8
1
 62
7
  6
CONTINUOUS
 10
404.626102581
 20
427.576642577
 40
5.500000000
 50
270.000000000
 51
90.000000000
  0
LINE
  8
1
 62
7
  6
CONTINUOUS
 10
404.626102581
 20
433.076642577
 11
400.626102581
 21
433.076642577
  0
LINE
  8
1
 62
7
  6
CONTINUOUS
 10
400.626102581
 20
422.076642577
 11
404.626102581
 21
422.076642577
  0
LINE
  8
1
 62
7
  6
CONTINUOUS
 10
467.288827727
 20
464.076642577
 11
469.788827727
 21
464.076642577
  0
LINE
  8
1
 62
7
  6
CONTINUOUS
 10
-288.856709162
 20
343.027689349
 11
-288.856709162
 21
335.027689349
  0
LINE
  8
1
 62
1
  6
HIDDEN2
 10
-276.856709162
 20
341.827689349
 11
-262.856709162
 21
341.827689349
  0
LINE
  8
1
 62
7
  6
CONTINUOUS
 10
-288.856709162
 20
341.827689349
 11
-276.856709162
 21
341.827689349
  0
LINE
  8
1
 62
7
  6
CONTINUOUS
 10
-276.856709162
 20
335.027689349
 11
-276.856709162
 21
343.027689349
  0
LINE
  8
1
 62
7
  6
CONTINUOUS
 10
-276.856709162
 20
335.027689349
 11
-262.856709162
 21
335.027689349
  0
LINE
  8
1
 62
1
  6
HIDDEN2
 10
-302.856709162
 20
341.827689349
 11
-288.856709162
 21
341.827689349
  0
LINE
  8
1
 62
7
  6
CONTINUOUS
 10
-302.856709162
 20
335.027689349
 11
-288.856709162
 21
335.027689349
  0
LINE
  8
1
 62
7
  6
CONTINUOUS
 10
-262.856709162
 20
343.027689349
 11
-302.856709162
 21
343.027689349
  0
LINE
  8
1
 62
7
  6
CONTINUOUS
 10
-262.856709162
 20
223.027689349
 11
-262.856709162
 21
343.027689349
  0
LINE
  8
1
 62
7
  6
CONTINUOUS
 10
-302.856709162
 20
343.027689349
 11
-302.856709162
 21
223.027689349
  0
ARC
  8
1
 62
7
  6
CONTINUOUS
 10
253.506571592
 20
49.875095279
 40
1.500000000
 50
269.999877095
 51
0.000000000
  0
ARC
  8
1
 62
7
  6
CONTINUOUS
 10
253.506571592
 20
91.875095279
 40
1.500000000
 50
0.000000000
 51
90.000000000
  0
LINE
  8
1
 62
7
  6
CONTINUOUS
 10
248.506571592
 20
93.375095279
 11
253.506571592
 21
93.375095279
  0
LINE
  8
1
 62
7
  6
CONTINUOUS
 10
253.506569017
 20
48.375095279
 11
136.506571592
 21
48.375350271
  0
LINE
  8
1
 62
7
  6
CONTINUOUS
 10
255.006571592
 20
91.875095279
 11
255.006571592
 21
49.875095279
  0
ARC
  8
1
 62
7
  6
CONTINUOUS
 10
253.506571592
 20
91.875095279
 40
3.000000000
 50
0.000000000
 51
90.000000000
  0
LINE
  8
1
 62
7
  6
CONTINUOUS
 10
256.506571592
 20
91.875095279
 11
256.506571592
 21
49.875095279
  0
LINE
  8
1
 62
7
  6
CONTINUOUS
 10
248.506571592
 20
93.375095279
 11
248.506571592
 21
94.875095279
  0
LINE
  8
1
 62
7
  6
CONTINUOUS
 10
248.506571592
 20
94.875095279
 11
253.506571592
 21
94.875095279
  0
LINE
  8
1
 62
7
  6
CONTINUOUS
 10
256.506571592
 20
56.083856028
 11
255.006571592
 21
56.083856028
  0
LINE
  8
1
 62
7
  6
CONTINUOUS
 10
255.006571592
 20
52.072145762
 11
251.309525821
 21
48.375099992
  0
ARC
  8
1
 62
7
  6
CONTINUOUS
 10
253.506571592
 20
49.875095279
 40
3.000000000
 50
269.999889392
 51
0.000000000
  0
LINE
  8
1
 62
7
  6
CONTINUOUS
 10
471.288827727
 20
425.576642577
 11
469.788827727
 21
425.576642577
  0
LINE
  8
1
 62
7
  6
CONTINUOUS
 10
-262.856709162
 20
-266.104664525
 11
-262.856709162
 21
-271.124653228
  0
LINE
  8
1
 62
7
  6
CONTINUOUS
 10
471.288827727
 20
429.576642577
 11
469.788827727
 21
429.576642577
  0
LINE
  8
1
 62
7
  6
CONTINUOUS
 10
471.288827727
 20
435.076642577
 11
469.288827727
 21
435.076642577
  0
LINE
  8
1
 62
7
  6
CONTINUOUS
 10
469.788827727
 20
433.076642577
 11
467.288827727
 21
433.076642577
  0
LINE
  8
1
 62
7
  6
CONTINUOUS
 10
469.288827727
 20
420.076642577
 11
471.288827727
 21
420.076642577
  0
LINE
  8
1
 62
7
  6
CONTINUOUS
 10
467.288827727
 20
422.076642577
 11
469.788827727
 21
422.076642577
  0
LINE
  8
1
 62
7
  6
CONTINUOUS
 10
469.788827727
 20
475.076642577
 11
469.788827727
 21
464.076642577
  0
LINE
  8
1
 62
7
  6
CONTINUOUS
 10
-302.856709162
 20
-271.124653228
 11
-302.856709162
 21
-266.104664525
  0
LINE
  8
1
 62
1
  6
HIDDEN2
 10
-302.856709162
 20
-224.150738636
 11
-302.856709162
 21
-223.513677287
  0
LINE
  8
1
 62
1
  6
HIDDEN2
 10
-262.856709162
 20
-245.124653228
 11
-262.856709162
 21
-266.104664525
  0
LINE
  8
1
 62
7
  6
CONTINUOUS
 10
-288.856709162
 20
-266.122854237
 11
-288.856709162
 21
-271.124653228
  0
LINE
  8
1
 62
1
  6
HIDDEN2
 10
-276.856709162
 20
-266.122854237
 11
-276.856709162
 21
-238.624653228
  0
LINE
  8
1
 62
2
  6
CENTER
 10
402.626102581
 20
380.542344709
 11
402.626102581
 21
348.073432136
  0
ARC
  8
1
 62
7
  6
CONTINUOUS
 10
402.626102581
 20
469.404678586
 40
110.500000000
 50
279.225523810
 51
284.694198420
  0
LINE
  8
1
 62
7
  6
CONTINUOUS
 10
371.045433334
 20
370.430846564
 11
371.244309572
 21
366.636061877
  0
ARC
  8
1
 62
7
  6
CONTINUOUS
 10
394.151620299
 20
374.197571805
 40
0.500000000
 50
3.000000000
 51
90.000000000
  0
ARC
  8
1
 62
7
  6
CONTINUOUS
 10
375.738142478
 20
366.871573680
 40
4.500000000
 50
183.000000000
 51
255.305801580
  0
LINE
  8
1
 62
7
  6
CONTINUOUS
 10
-25.156709162
 20
687.365847648
 11
-25.156709162
 21
591.365847648
  0
LINE
  8
1
 62
7
  6
CONTINUOUS
 10
-25.156709162
 20
591.365847648
 11
-38.156709162
 21
591.365847648
  0
LINE
  8
1
 62
7
  6
CONTINUOUS
 10
-66.156709162
 20
585.865847648
 11
-84.156709162
 21
585.865847648
  0
LINE
  8
1
 62
7
  6
CONTINUOUS
 10
-84.156709162
 20
692.865847648
 11
-66.156709162
 21
692.865847648
  0
LINE
  8
1
 62
7
  6
CONTINUOUS
 10
-60.156709162
 20
688.365847648
 11
-60.156709162
 21
590.365847648
  0
LINE
  8
1
 62
7
  6
CONTINUOUS
 10
-38.156709162
 20
590.365847648
 11
-40.156709162
 21
590.365847648
  0
LINE
  8
1
 62
7
  6
CONTINUOUS
 10
-19.156709162
 20
591.865847648
 11
-25.156709162
 21
591.365847648
  0
LINE
  8
1
 62
7
  6
CONTINUOUS
 10
-86.756709162
 20
566.865847648
 11
-86.756709162
 21
711.865847648
  0
LINE
  8
1
 62
7
  6
CONTINUOUS
 10
-84.756709162
 20
566.865847648
 11
-84.756709162
 21
711.865847648
  0
LINE
  8
1
 62
7
  6
CONTINUOUS
 10
-84.156709162
 20
566.865847648
 11
-84.156709162
 21
711.865847648
  0
LINE
  8
1
 62
7
  6
CONTINUOUS
 10
-84.156709162
 20
711.865847648
 11
-95.155737162
 21
711.865847648
  0
LINE
  8
1
 62
7
  6
CONTINUOUS
 10
-95.155737162
 20
711.865847648
 11
-95.155737162
 21
566.865847648
  0
LINE
  8
1
 62
7
  6
CONTINUOUS
 10
368.939794566
 20
370.430846564
 11
368.126102581
 21
354.904678586
  0
LINE
  8
1
 62
1
  6
HIDDEN2
 10
-470.557681162
 20
640.865847648
 11
-470.557681162
 21
760.865847648
  0
LINE
  8
1
 62
1
  6
HIDDEN2
 10
-481.556709162
 20
760.865847648
 11
-481.556709162
 21
640.865847648
  0
LINE
  8
1
 62
1
  6
HIDDEN2
 10
-480.956709162
 20
760.865847648
 11
-480.956709162
 21
640.865847648
  0
LINE
  8
1
 62
1
  6
HIDDEN2
 10
-478.956709162
 20
760.865847648
 11
-478.956709162
 21
640.865847648
  0
LINE
  8
1
 62
1
  6
HIDDEN2
 10
-546.556709162
 20
748.365847648
 11
-540.556709162
 21
748.865847648
  0
LINE
  8
1
 62
1
  6
HIDDEN2
 10
-527.556709162
 20
749.865847648
 11
-525.556709162
 21
749.865847648
  0
LINE
  8
1
 62
1
  6
HIDDEN2
 10
-505.556709162
 20
651.865847648
 11
-505.556709162
 21
749.865847648
  0
LINE
  8
1
 62
1
  6
HIDDEN2
 10
-481.556709162
 20
647.365847648
 11
-499.556709162
 21
647.365847648
  0
LINE
  8
1
 62
1
  6
HIDDEN2
 10
-499.556709162
 20
754.365847648
 11
-481.556709162
 21
754.365847648
  0
LINE
  8
1
 62
1
  6
HIDDEN2
 10
-540.556709162
 20
748.865847648
 11
-527.556709162
 21
748.865847648
  0
LINE
  8
1
 62
1
  6
HIDDEN2
 10
-540.556709162
 20
652.865847648
 11
-540.556709162
 21
748.865847648
  0
LINE
  8
1
 62
1
  6
HIDDEN2
 10
-527.556709162
 20
652.865847648
 11
-540.556709162
 21
652.865847648
  0
LINE
  8
1
 62
1
  6
HIDDEN2
 10
-499.556709162
 20
647.365847648
 11
-505.556709162
 21
651.865847648
  0
LINE
  8
1
 62
1
  6
HIDDEN2
 10
-499.556709162
 20
647.365847648
 11
-499.556709162
 21
754.365847648
  0
LINE
  8
1
 62
1
  6
HIDDEN2
 10
-540.556709162
 20
652.865847648
 11
-546.556709162
 21
653.365847648
  0
LINE
  8
1
 62
1
  6
HIDDEN2
 10
-525.556709162
 20
651.865847648
 11
-527.556709162
 21
651.865847648
  0
LINE
  8
1
 62
1
  6
HIDDEN2
 10
-525.556709162
 20
749.865847648
 11
-505.556709162
 21
749.865847648
  0
LINE
  8
1
 62
1
  6
HIDDEN2
 10
-505.556709162
 20
749.865847648
 11
-499.556709162
 21
754.365847648
  0
ARC
  8
1
 62
7
  6
CONTINUOUS
 10
397.037255502
 20
366.904678586
 40
2.000000000
 50
183.000000000
 51
270.000000000
  0
LINE
  8
1
 62
7
  6
CONTINUOUS
 10
394.650935065
 20
374.223739783
 11
395.039996431
 21
366.800006672
  0
ARC
  8
1
 62
7
  6
CONTINUOUS
 10
-282.856709162
 20
-9188.300818447
 40
10005.666666084
 50
90.114526737
 51
90.429478999
  0
LINE
  8
1
 62
1
  6
HIDDEN2
 10
-454.856709162
 20
834.565847648
 11
-358.856709162
 21
834.565847648
  0
LINE
  8
1
 62
1
  6
HIDDEN2
 10
-358.856709162
 20
834.565847648
 11
-358.856709162
 21
821.565847648
  0
LINE
  8
1
 62
1
  6
HIDDEN2
 10
-353.356709162
 20
793.565847648
 11
-353.356709162
 21
775.565847648
  0
LINE
  8
1
 62
1
  6
HIDDEN2
 10
-460.356709162
 20
775.565847648
 11
-460.356709162
 21
793.565847648
  0
LINE
  8
1
 62
1
  6
HIDDEN2
 10
-455.856709162
 20
799.565847648
 11
-357.856709162
 21
799.565847648
  0
LINE
  8
1
 62
1
  6
HIDDEN2
 10
-357.856709162
 20
821.565847648
 11
-357.856709162
 21
819.565847648
  0
LINE
  8
1
 62
1
  6
HIDDEN2
 10
-359.356709162
 20
840.565847648
 11
-358.856709162
 21
834.565847648
  0
LINE
  8
1
 62
1
  6
HIDDEN2
 10
-346.856709162
 20
772.965847648
 11
-466.856709162
 21
772.965847648
  0
LINE
  8
1
 62
1
  6
HIDDEN2
 10
-346.856709162
 20
774.965847648
 11
-466.856709162
 21
774.965847648
  0
LINE
  8
1
 62
1
  6
HIDDEN2
 10
-346.856709162
 20
775.565847648
 11
-466.856709162
 21
775.565847648
  0
LINE
  8
1
 62
7
  6
CONTINUOUS
 10
394.151620299
 20
374.697571805
 11
393.255120695
 21
374.697571805
  0
LINE
  8
1
 62
1
  6
HIDDEN2
 10
-466.856709162
 20
764.566819648
 11
-346.856709162
 21
764.566819648
  0
ARC
  8
1
 62
7
  6
CONTINUOUS
 10
-67.247878768
 20
493.696147947
 40
29.999999998
 50
271.238457381
 51
358.905665021
  0
ARC
  8
1
 62
7
  6
CONTINUOUS
 10
-67.247878768
 20
785.035547348
 40
29.999999998
 50
1.094334979
 51
88.761542619
  0
ARC
  8
1
 62
7
  6
CONTINUOUS
 10
-498.465539555
 20
785.035547348
 40
29.999999998
 50
91.238457381
 51
178.905665021
  0
ARC
  8
1
 62
7
  6
CONTINUOUS
 10
-498.465539555
 20
493.696147947
 40
29.999999998
 50
181.094334979
 51
268.761542619
  0
ARC
  8
1
 62
7
  6
CONTINUOUS
 10
-282.856709162
 20
10467.032513742
 40
10005.666666084
 50
270.114526737
 51
271.238457381
  0
ARC
  8
1
 62
7
  6
CONTINUOUS
 10
7127.393290399
 20
639.365847648
 40
7657.249999546
 50
178.905665021
 51
181.094334979
  0
ARC
  8
1
 62
7
  6
CONTINUOUS
 10
-282.856709162
 20
-9188.300818447
 40
10005.666666084
 50
90.990704980
 51
91.238457381
  0
ARC
  8
1
 62
7
  6
CONTINUOUS
 10
-7693.106708722
 20
639.365847648
 40
7657.249999546
 50
358.905665021
 51
1.094334979
  0
ARC
  8
1
 62
7
  6
CONTINUOUS
 10
408.214949661
 20
366.904678586
 40
2.000000000
 50
270.000000000
 51
357.000000000
  0
ARC
  8
1
 62
7
  6
CONTINUOUS
 10
-282.856709162
 20
10467.032513742
 40
10005.666666084
 50
268.761542619
 51
269.885473263
  0
ARC
  8
1
 62
7
  6
CONTINUOUS
 10
-282.856709162
 20
10467.032513742
 40
10005.666666084
 50
269.965642000
 51
270.034358000
  0
LINE
  8
1
 62
7
  6
CONTINUOUS
 10
-85.356709162
 20
504.365932661
 11
-85.356709162
 21
774.365847648
  0
LINE
  8
1
 62
7
  6
CONTINUOUS
 10
-480.356709162
 20
504.365932661
 11
-85.356709162
 21
504.365932661
  0
LINE
  8
1
 62
1
  6
HIDDEN2
 10
-288.856709162
 20
89.873547781
 11
-288.856709162
 21
62.375291389
  0
LINE
  8
1
 62
7
  6
CONTINUOUS
 10
-480.356709162
 20
774.365847648
 11
-480.356709162
 21
504.365932661
  0
LINE
  8
1
 62
7
  6
CONTINUOUS
 10
-85.356709162
 20
774.365847648
 11
-480.356709162
 21
774.365847648
  0
ARC
  8
1
 62
7
  6
CONTINUOUS
 10
-282.856709162
 20
-9188.300818447
 40
10005.666666084
 50
89.965642000
 51
90.034358000
  0
LINE
  8
1
 62
1
  6
HIDDEN2
 10
-302.856709162
 20
68.875291389
 11
-302.856709162
 21
89.855358068
  0
ARC
  8
1
 62
7
  6
CONTINUOUS
 10
-282.856709162
 20
-9188.300818447
 40
10005.666666084
 50
88.761542619
 51
89.885473263
  0
LINE
  8
1
 62
2
  6
CENTER2
 10
-275.035806841
 20
83.025346772
 11
-290.405464056
 21
83.025346772
  0
LINE
  8
1
 62
7
  6
CONTINUOUS
 10
-288.856709162
 20
-271.124653228
 11
-302.856709162
 21
-271.124653228
  0
LINE
  8
1
 62
1
  6
HIDDEN2
 10
-302.856709162
 20
-266.104664525
 11
-302.856709162
 21
-245.124653228
  0
LINE
  8
1
 62
1
  6
HIDDEN2
 10
-262.856709162
 20
89.855358068
 11
-262.856709162
 21
68.875291389
  0
ARC
  8
1
 62
1
  6
HIDDEN2
 10
-282.856709162
 20
-238.624653228
 40
6.000000000
 50
0.000000000
 51
180.000000000
  0
LINE
  8
1
 62
7
  6
CONTINUOUS
 10
-276.856709162
 20
-271.124653228
 11
-276.856709162
 21
-266.122854237
  0
LINE
  8
1
 62
1
  6
HIDDEN2
 10
-262.856709162
 20
-245.124653228
 11
-262.856709162
 21
-223.124653228
  0
LINE
  8
1
 62
7
  6
CONTINUOUS
 10
408.214949661
 20
364.904678586
 11
397.037255502
 21
364.904678586
  0
LINE
  8
1
 62
7
  6
CONTINUOUS
 10
434.706086596
 20
370.904678586
 11
435.813095829
 21
370.904678586
  0
ARC
  8
1
 62
7
  6
CONTINUOUS
 10
369.439109334
 20
370.404678586
 40
0.500000000
 50
90.000000000
 51
177.000000000
  0
ARC
  8
1
 62
7
  6
CONTINUOUS
 10
402.626102581
 20
469.404678586
 40
110.500000000
 50
255.305801580
 51
260.774476190
  0
LINE
  8
1
 62
7
  6
CONTINUOUS
 10
411.997084468
 20
374.697571805
 11
411.100584864
 21
374.697571805
  0
LINE
  8
1
 62
7
  6
CONTINUOUS
 10
410.601270097
 20
374.223739783
 11
410.212208732
 21
366.800006672
  0
ARC
  8
1
 62
7
  6
CONTINUOUS
 10
370.546118566
 20
370.404678586
 40
0.500000000
 50
3.000000000
 51
90.000000000
  0
LINE
  8
1
 62
7
  6
CONTINUOUS
 10
433.126102581
 20
369.404678586
 11
434.152992644
 21
369.404678586
  0
ARC
  8
1
 62
7
  6
CONTINUOUS
 10
433.126102581
 20
368.904678586
 40
0.500000000
 50
90.000000000
 51
210.000000000
  0
LINE
  8
1
 62
7
  6
CONTINUOUS
 10
433.990134724
 20
366.408131017
 11
432.693089879
 21
368.654678586
  0
ARC
  8
1
 62
7
  6
CONTINUOUS
 10
411.100584864
 20
374.197571805
 40
0.500000000
 50
90.000000000
 51
177.000000000
  0
LINE
  8
1
 62
2
  6
CENTER2
 10
-492.756709162
 20
514.365847648
 11
-507.756709162
 21
514.365847648
  0
LINE
  8
1
 62
2
  6
CENTER2
 10
-65.456709162
 20
510.615847648
 11
-65.456709162
 21
518.115847648
  0
LINE
  8
1
 62
2
  6
CENTER2
 10
-57.956709162
 20
764.365847648
 11
-72.956709162
 21
764.365847648
  0
LINE
  8
1
 62
2
  6
CENTER2
 10
-65.456709162
 20
760.615847648
 11
-65.456709162
 21
768.115847648
  0
LINE
  8
1
 62
2
  6
CENTER2
 10
-492.756709162
 20
764.365847648
 11
-507.756709162
 21
764.365847648
  0
LINE
  8
1
 62
2
  6
CENTER2
 10
-466.606709162
 20
794.265847648
 11
-474.106709162
 21
794.265847648
  0
LINE
  8
1
 62
2
  6
CENTER2
 10
-91.606709162
 20
794.265847648
 11
-99.106709162
 21
794.265847648
  0
ARC
  8
1
 62
7
  6
CONTINUOUS
 10
393.255120695
 20
366.697571805
 40
8.000000000
 50
90.000000000
 51
177.000000000
  0
LINE
  8
1
 62
7
  6
CONTINUOUS
 10
371.262070439
 20
366.408131017
 11
372.559115283
 21
368.654678586
  0
ARC
  8
1
 62
7
  6
CONTINUOUS
 10
434.706086596
 20
370.404678586
 40
0.500000000
 50
90.000000000
 51
177.000000000
  0
LINE
  8
1
 62
2
  6
CENTER2
 10
-57.956709162
 20
514.365847648
 11
-72.956709162
 21
514.365847648
  0
ARC
  8
1
 62
7
  6
CONTINUOUS
 10
435.813095829
 20
370.404678586
 40
0.500000000
 50
3.000000000
 51
90.000000000
  0
LINE
  8
1
 62
7
  6
CONTINUOUS
 10
436.312410597
 20
370.430846564
 11
437.126102581
 21
354.904678586
  0
ARC
  8
1
 62
7
  6
CONTINUOUS
 10
429.514062685
 20
366.871573680
 40
4.500000000
 50
284.694198420
 51
357.000000000
  0
ARC
  8
1
 62
7
  6
CONTINUOUS
 10
372.126102581
 20
368.904678586
 40
0.500000000
 50
330.000000000
 51
90.000000000
  0
LINE
  8
1
 62
7
  6
CONTINUOUS
 10
372.126102581
 20
369.404678586
 11
371.099212519
 21
369.404678586
  0
ARC
  8
1
 62
7
  6
CONTINUOUS
 10
411.997084468
 20
366.697571805
 40
8.000000000
 50
3.000000000
 51
90.000000000
  0
LINE
  8
1
 62
7
  6
CONTINUOUS
 10
420.626102581
 20
354.904678586
 11
419.986120747
 21
367.116259455
  0
LINE
  8
1
 62
7
  6
CONTINUOUS
 10
384.626102581
 20
354.904678586
 11
385.266084416
 21
367.116259455
  0
LINE
  8
1
 62
7
  6
CONTINUOUS
 10
370.546118566
 20
370.904678586
 11
369.439109334
 21
370.904678586
  0
LINE
  8
1
 62
7
  6
CONTINUOUS
 10
434.206771829
 20
370.430846564
 11
434.007895590
 21
366.636061877
  0
LINE
  8
1
 62
2
  6
CENTER2
 10
-275.035806841
 20
794.265847648
 11
-290.405464056
 21
794.265847648
  0
LINE
  8
1
 62
2
  6
CENTER2
 10
-275.035806841
 20
484.465847648
 11
-290.405464056
 21
484.465847648
  0
ARC
  8
1
 62
7
  6
CONTINUOUS
 10
452.260161891
 20
395.812415195
 40
0.500000000
 50
93.000000000
 51
225.000000000
  0
ARC
  8
1
 62
7
  6
CONTINUOUS
 10
454.747622319
 20
395.446275111
 40
2.000000000
 50
225.000000000
 51
267.000000000
  0
ARC
  8
1
 62
7
  6
CONTINUOUS
 10
463.288827727
 20
400.576642577
 40
6.000000000
 50
288.744014337
 51
0.000000000
  0
LINE
  8
1
 62
7
  6
CONTINUOUS
 10
465.216870957
 20
394.894860347
 11
471.288827727
 21
394.576642577
  0
TEXT
  8
1
 62
7
  6
CONTINUOUS
 72
5
 10
-464.183084288
 20
918.872358849
 40
44.000000000
  1
[BF-152RX]
 41
0.899999965
 11
-120.983084288
 21
918.872358849
  0
ARC
  8
1
 62
7
  6
CONTINUOUS
 10
407.626102581
 20
357.201172607
 40
0.403505978
 50
0.500000000
 51
179.500000000
  0
LINE
  8
1
 62
7
  6
CONTINUOUS
 10
407.202540038
 20
354.904678586
 11
407.222611967
 21
357.204693817
  0
LINE
  8
1
 62
7
  6
CONTINUOUS
 10
408.049665124
 20
354.904678586
 11
408.029593196
 21
357.204693817
  0
LINE
  8
1
 62
7
  6
CONTINUOUS
 10
-276.856709162
 20
94.875291389
 11
-262.856709162
 21
94.875291389
  0
ENDSEC
  0
EOF
