  0
SECTION
  2
HEADER
  9
$ACADVER
  1
AC1009
  9
$INSBASE
 10
0.000000000
 20
0.000000000
  9
$EXTMIN
 10
-1808.125630663
 20
-578.331354723
  9
$EXTMAX
 10
2023.577770853
 20
3803.833860720
  9
$LIMMIN
 10
-1808.125630663
 20
-578.331354723
  9
$LIMMAX
 10
2023.577770853
 20
3803.833860720
  9
$SNAPBASE
 10
0.000000000
 20
0.000000000
  9
$SNAPANG
 50
0.000000000
  9
$SNAPSTYLE
 70
0
  9
$GRIDMODE
 70
0
  9
$GRIDUNIT
 10
0.000000000
 20
0.000000000
  9
$DIMEXO
 40
0.000000000
  9
$DIMDLI
 40
8.000000000
  9
$DIMDLE
 40
0.000000000
  9
$DIMEXE
 40
1.000000000
  9
$DIMTIH
 70
1
  9
$DIMTOH
 70
1
  9
$DIMTAD
 70
2
  9
$DIMZIN
 70
0
  9
$FILLETRAD
 40
1.000000000
  9
$CHAMFERA
 40
1.000000000
  9
$CHAMFERB
 40
1.000000000
  9
$TDCREATE
 40
2453237.406516204
  9
$TDUPDATE
 40
2453237.406516204
  9
$ANGBASE
 50
0.000000000
  9
$ANGDIR
 70
0
  0
ENDSEC
  0
SECTION
  2
TABLES
  0
TABLE
  2
LTYPE
 70
7
  0
LTYPE
  2
CENTER
 70
64
  3
___ _ ___ _ __
 72
65
 73
4
 40
13.000000000
 49
8.500000000
 49
-1.500000000
 49
1.500000000
 49
-1.500000000
  0
LTYPE
  2
CONTINUOUS
 70
64
  3
______________
 72
65
 73
0
 40
0.000000000
  0
LTYPE
  2
DASHDOT
 70
64
  3
__ . __ . __ .
 72
65
 73
4
 40
13.000000000
 49
6.500000000
 49
-3.250000000
 49
0.000000000
 49
-3.250000000
  0
LTYPE
  2
DASHDOT2
 70
64
  3
_ . _ . _ . _ 
 72
65
 73
4
 40
10.000000000
 49
5.000000000
 49
-2.500000000
 49
0.000000000
 49
-2.500000000
  0
LTYPE
  2
DIVIDE
 70
64
  3
___ . . ___ . 
 72
65
 73
6
 40
12.999999523
 49
5.199999809
 49
-2.599999905
 49
0.000000000
 49
-2.599999905
 49
0.000000000
 49
-2.599999905
  0
LTYPE
  2
HIDDEN
 70
64
  3
__ __ __ __ __
 72
65
 73
2
 40
3.000000000
 49
2.000000000
 49
-1.000000000
  0
LTYPE
  2
HIDDEN2
 70
64
  3
_ _ _ _ _ _ _ 
 72
65
 73
2
 40
2.000000000
 49
1.399999976
 49
-0.600000024
  0
ENDTAB
  0
TABLE
  2
LAYER
 70
9
  0
LAYER
  2
1
 70
0
 62
7
  6
CONTINUOUS
999
1
  0
LAYER
  2
2
 70
0
 62
7
  6
CONTINUOUS
999
2
  0
LAYER
  2
3
 70
0
 62
3
  6
CONTINUOUS
999
3
  0
LAYER
  2
4
 70
0
 62
7
  6
CONTINUOUS
999
4
  0
LAYER
  2
5
 70
0
 62
4
  6
CONTINUOUS
999
5
  0
LAYER
  2
6
 70
0
 62
5
  6
CONTINUOUS
999
6
  0
LAYER
  2
7
 70
0
 62
6
  6
CONTINUOUS
999
7
  0
LAYER
  2
8
 70
0
 62
1
  6
CONTINUOUS
999
8
  0
LAYER
  2
10
 70
0
 62
1
  6
CONTINUOUS
999
本体
  0
LAYER
  2
_CONSTR
 70
0
 62
5
  6
CONTINUOUS
  0
ENDTAB
  0
TABLE
  2
STYLE
 70
1
  0
STYLE
  2
STANDARD
 70
64
 40
0.000000000
 41
1.000000000
 50
0.000000000
 71
0
 42
3.200000000
  3
TXT
  4
EXTFONT
  0
ENDTAB
  0
TABLE
  2
VIEW
 70
0
  0
ENDTAB
  0
ENDSEC
  0
SECTION
  2
BLOCKS
  0
ENDSEC
  0
SECTION
  2
ENTITIES
  0
LINE
  8
1
 62
7
  6
CONTINUOUS
 10
267.001584043
 20
-117.650920103
 11
267.001584043
 21
-110.650920103
  0
LINE
  8
4
 62
2
  6
DASHDOT2
 10
33.226070095
 20
497.970387294
 11
33.226070095
 21
449.998283184
  0
LINE
  8
1
 62
7
  6
CONTINUOUS
 10
107.726070095
 20
-117.650920103
 11
326.748070095
 21
-117.650920103
  0
LINE
  8
1
 62
7
  6
CONTINUOUS
 10
107.726070095
 20
-110.650920103
 11
326.748070095
 21
-110.650920103
  0
LINE
  8
1
 62
7
  6
CONTINUOUS
 10
165.626070095
 20
-106.650920103
 11
165.626070095
 21
-99.650920103
  0
LINE
  8
1
 62
7
  6
CONTINUOUS
 10
168.126070095
 20
-106.650920103
 11
168.126070095
 21
-99.650920103
  0
LINE
  8
1
 62
7
  6
CONTINUOUS
 10
267.001584043
 20
-106.650920103
 11
267.001584043
 21
-99.650920103
  0
LINE
  8
1
 62
7
  6
CONTINUOUS
 10
107.726070095
 20
-106.650920103
 11
326.748070095
 21
-106.650920103
  0
LINE
  8
1
 62
7
  6
CONTINUOUS
 10
165.626070095
 20
109.349079897
 11
165.626070095
 21
102.349079897
  0
LINE
  8
1
 62
7
  6
CONTINUOUS
 10
107.726070095
 20
-22.650920103
 11
326.748070095
 21
-22.650920103
  0
LINE
  8
6
 62
7
  6
CONTINUOUS
 10
-335.756399370
 20
-140.650920103
 11
-447.656399370
 21
-140.650920103
  0
LINE
  8
6
 62
7
  6
CONTINUOUS
 10
-447.656399370
 20
-140.650920103
 11
-447.656399370
 21
-60.650920103
  0
LINE
  8
6
 62
2
  6
DASHDOT
 10
-368.656399370
 20
8.468101143
 11
-368.656399370
 21
-130.024107652
  0
LINE
  8
6
 62
7
  6
CONTINUOUS
 10
-335.756399370
 20
19.349079897
 11
-447.656399370
 21
19.349079897
  0
LINE
  8
6
 62
7
  6
CONTINUOUS
 10
-447.656399370
 20
19.349079897
 11
-447.656399370
 21
-60.650920103
  0
LINE
  8
1
 62
7
  6
CONTINUOUS
 10
267.001584043
 20
109.349079897
 11
267.001584043
 21
102.349079897
  0
LINE
  8
1
 62
7
  6
CONTINUOUS
 10
107.726070095
 20
109.349079897
 11
326.748070095
 21
109.349079897
  0
LINE
  8
1
 62
7
  6
CONTINUOUS
 10
107.726070095
 20
102.349079897
 11
326.748070095
 21
102.349079897
  0
LINE
  8
1
 62
7
  6
CONTINUOUS
 10
165.626070095
 20
98.349079897
 11
165.626070095
 21
91.349079897
  0
LINE
  8
1
 62
7
  6
CONTINUOUS
 10
267.001584043
 20
98.349079897
 11
267.001584043
 21
91.349079897
  0
LINE
  8
1
 62
7
  6
CONTINUOUS
 10
107.726070095
 20
98.349079897
 11
326.748070095
 21
98.349079897
  0
LINE
  8
1
 62
7
  6
CONTINUOUS
 10
107.726070095
 20
91.349079897
 11
326.748070095
 21
91.349079897
  0
LINE
  8
1
 62
7
  6
CONTINUOUS
 10
165.626070095
 20
87.349079897
 11
165.626070095
 21
80.349079897
  0
LINE
  8
1
 62
7
  6
CONTINUOUS
 10
168.126070095
 20
87.349079897
 11
168.126070095
 21
80.349079897
  0
LINE
  8
1
 62
7
  6
CONTINUOUS
 10
267.001584043
 20
87.349079897
 11
267.001584043
 21
80.349079897
  0
LINE
  8
1
 62
7
  6
CONTINUOUS
 10
107.726070095
 20
87.349079897
 11
326.748070095
 21
87.349079897
  0
LINE
  8
1
 62
7
  6
CONTINUOUS
 10
107.726070095
 20
80.349079897
 11
326.748070095
 21
80.349079897
  0
LINE
  8
1
 62
7
  6
CONTINUOUS
 10
165.626070095
 20
76.349079897
 11
165.626070095
 21
69.349079897
  0
LINE
  8
1
 62
7
  6
CONTINUOUS
 10
168.126070095
 20
76.349079897
 11
168.126070095
 21
69.349079897
  0
LINE
  8
1
 62
7
  6
CONTINUOUS
 10
267.001584043
 20
76.349079897
 11
267.001584043
 21
69.349079897
  0
LINE
  8
1
 62
7
  6
CONTINUOUS
 10
107.726070095
 20
76.349079897
 11
326.748070095
 21
76.349079897
  0
LINE
  8
1
 62
7
  6
CONTINUOUS
 10
107.726070095
 20
69.349079897
 11
326.748070095
 21
69.349079897
  0
LINE
  8
1
 62
7
  6
CONTINUOUS
 10
165.626070095
 20
65.349079897
 11
165.626070095
 21
58.349079897
  0
LINE
  8
1
 62
7
  6
CONTINUOUS
 10
168.126070095
 20
65.349079897
 11
168.126070095
 21
58.349079897
  0
LINE
  8
1
 62
7
  6
CONTINUOUS
 10
267.001584043
 20
65.349079897
 11
267.001584043
 21
58.349079897
  0
LINE
  8
1
 62
7
  6
CONTINUOUS
 10
107.726070095
 20
65.349079897
 11
326.748070095
 21
65.349079897
  0
LINE
  8
1
 62
7
  6
CONTINUOUS
 10
107.726070095
 20
58.349079897
 11
326.748070095
 21
58.349079897
  0
LINE
  8
1
 62
7
  6
CONTINUOUS
 10
165.626070095
 20
54.349079897
 11
165.626070095
 21
47.349079897
  0
LINE
  8
1
 62
7
  6
CONTINUOUS
 10
168.126070095
 20
54.349079897
 11
168.126070095
 21
47.349079897
  0
LINE
  8
1
 62
7
  6
CONTINUOUS
 10
267.001584043
 20
54.349079897
 11
267.001584043
 21
47.349079897
  0
LINE
  8
1
 62
7
  6
CONTINUOUS
 10
107.726070095
 20
54.349079897
 11
326.748070095
 21
54.349079897
  0
LINE
  8
1
 62
7
  6
CONTINUOUS
 10
107.726070095
 20
47.349079897
 11
326.748070095
 21
47.349079897
  0
LINE
  8
1
 62
7
  6
CONTINUOUS
 10
165.626070095
 20
43.349079897
 11
165.626070095
 21
36.349079897
  0
LINE
  8
1
 62
7
  6
CONTINUOUS
 10
168.126070095
 20
43.349079897
 11
168.126070095
 21
36.349079897
  0
LINE
  8
1
 62
7
  6
CONTINUOUS
 10
267.001584043
 20
43.349079897
 11
267.001584043
 21
36.349079897
  0
LINE
  8
1
 62
7
  6
CONTINUOUS
 10
107.726070095
 20
43.349079897
 11
326.748070095
 21
43.349079897
  0
LINE
  8
1
 62
7
  6
CONTINUOUS
 10
107.726070095
 20
36.349079897
 11
326.748070095
 21
36.349079897
  0
LINE
  8
1
 62
7
  6
CONTINUOUS
 10
165.626070095
 20
32.349079897
 11
165.626070095
 21
25.349079897
  0
LINE
  8
1
 62
7
  6
CONTINUOUS
 10
168.126070095
 20
32.349079897
 11
168.126070095
 21
25.349079897
  0
LINE
  8
1
 62
7
  6
CONTINUOUS
 10
267.001584043
 20
32.349079897
 11
267.001584043
 21
25.349079897
  0
LINE
  8
1
 62
7
  6
CONTINUOUS
 10
107.726070095
 20
32.349079897
 11
326.748070095
 21
32.349079897
  0
LINE
  8
1
 62
7
  6
CONTINUOUS
 10
107.726070095
 20
25.349079897
 11
326.748070095
 21
25.349079897
  0
LINE
  8
1
 62
7
  6
CONTINUOUS
 10
165.626070095
 20
21.349079897
 11
165.626070095
 21
14.349079897
  0
LINE
  8
1
 62
7
  6
CONTINUOUS
 10
168.126070095
 20
21.349079897
 11
168.126070095
 21
14.349079897
  0
LINE
  8
1
 62
7
  6
CONTINUOUS
 10
267.001584043
 20
21.349079897
 11
267.001584043
 21
14.349079897
  0
LINE
  8
1
 62
7
  6
CONTINUOUS
 10
107.726070095
 20
21.349079897
 11
326.748070095
 21
21.349079897
  0
LINE
  8
1
 62
7
  6
CONTINUOUS
 10
107.726070095
 20
14.349079897
 11
326.748070095
 21
14.349079897
  0
LINE
  8
1
 62
7
  6
CONTINUOUS
 10
165.626070095
 20
10.349079897
 11
165.626070095
 21
3.349079897
  0
LINE
  8
1
 62
7
  6
CONTINUOUS
 10
168.126070095
 20
10.349079897
 11
168.126070095
 21
3.349079897
  0
LINE
  8
1
 62
7
  6
CONTINUOUS
 10
267.001584043
 20
10.349079897
 11
267.001584043
 21
3.349079897
  0
LINE
  8
1
 62
7
  6
CONTINUOUS
 10
107.726070095
 20
10.349079897
 11
326.748070095
 21
10.349079897
  0
LINE
  8
1
 62
7
  6
CONTINUOUS
 10
107.726070095
 20
3.349079897
 11
326.748070095
 21
3.349079897
  0
LINE
  8
1
 62
7
  6
CONTINUOUS
 10
107.726070095
 20
-7.650920103
 11
326.748070095
 21
-7.650920103
  0
LINE
  8
1
 62
7
  6
CONTINUOUS
 10
107.726070095
 20
-0.650920103
 11
326.748070095
 21
-0.650920103
  0
LINE
  8
1
 62
7
  6
CONTINUOUS
 10
267.001584043
 20
-0.650920103
 11
267.001584043
 21
-7.650920103
  0
LINE
  8
1
 62
7
  6
CONTINUOUS
 10
168.126070095
 20
-0.650920103
 11
168.126070095
 21
-7.650920103
  0
LINE
  8
1
 62
7
  6
CONTINUOUS
 10
165.626070095
 20
-0.650920103
 11
165.626070095
 21
-7.650920103
  0
LINE
  8
1
 62
7
  6
CONTINUOUS
 10
165.626070095
 20
-11.650920103
 11
165.626070095
 21
-18.650920103
  0
LINE
  8
1
 62
7
  6
CONTINUOUS
 10
168.126070095
 20
-11.650920103
 11
168.126070095
 21
-18.650920103
  0
LINE
  8
1
 62
7
  6
CONTINUOUS
 10
267.001584043
 20
-11.650920103
 11
267.001584043
 21
-18.650920103
  0
LINE
  8
6
 62
2
  6
CENTER
 10
-252.747765550
 20
-60.650920103
 11
-456.073807640
 21
-60.650920103
  0
LINE
  8
1
 62
7
  6
CONTINUOUS
 10
107.726070095
 20
-11.650920103
 11
326.748070095
 21
-11.650920103
  0
LINE
  8
1
 62
7
  6
CONTINUOUS
 10
326.748070095
 20
-18.650920103
 11
107.726070095
 21
-18.650920103
  0
LINE
  8
1
 62
7
  6
CONTINUOUS
 10
107.726070095
 20
-29.650920103
 11
326.748070095
 21
-29.650920103
  0
LINE
  8
1
 62
7
  6
CONTINUOUS
 10
326.748070095
 20
-22.650920103
 11
107.726070095
 21
-22.650920103
  0
LINE
  8
1
 62
7
  6
CONTINUOUS
 10
107.726070095
 20
-18.650920103
 11
326.748070095
 21
-18.650920103
  0
LINE
  8
1
 62
7
  6
CONTINUOUS
 10
267.001584043
 20
-29.650920103
 11
267.001584043
 21
-22.650920103
  0
LINE
  8
1
 62
7
  6
CONTINUOUS
 10
168.126070095
 20
-29.650920103
 11
168.126070095
 21
-22.650920103
  0
LINE
  8
1
 62
7
  6
CONTINUOUS
 10
165.626070095
 20
-29.650920103
 11
165.626070095
 21
-22.650920103
  0
LINE
  8
1
 62
7
  6
CONTINUOUS
 10
165.626070095
 20
-40.650920103
 11
165.626070095
 21
-33.650920103
  0
LINE
  8
2
 62
2
  6
DASHDOT2
 10
107.726070095
 20
170.176033753
 11
107.726070095
 21
-209.898385471
  0
LINE
  8
1
 62
7
  6
CONTINUOUS
 10
168.126070095
 20
-40.650920103
 11
168.126070095
 21
-33.650920103
  0
LINE
  8
1
 62
7
  6
CONTINUOUS
 10
267.001584043
 20
-40.650920103
 11
267.001584043
 21
-33.650920103
  0
LINE
  8
1
 62
7
  6
CONTINUOUS
 10
107.726070095
 20
-40.650920103
 11
326.748070095
 21
-40.650920103
  0
LINE
  8
1
 62
7
  6
CONTINUOUS
 10
-91.273929905
 20
158.349079897
 11
87.726070095
 21
158.349079897
  0
LINE
  8
1
 62
7
  6
CONTINUOUS
 10
107.726070095
 20
-33.650920103
 11
326.748070095
 21
-33.650920103
  0
LINE
  8
1
 62
7
  6
CONTINUOUS
 10
336.726070095
 20
128.349079897
 11
336.726070095
 21
-169.650920103
  0
LINE
  8
1
 62
7
  6
CONTINUOUS
 10
306.726070095
 20
-199.650920103
 11
-91.273929905
 21
-199.650920103
  0
LINE
  8
1
 62
7
  6
CONTINUOUS
 10
-121.273929905
 20
-169.650920103
 11
-121.273929905
 21
128.349079897
  0
ARC
  8
1
 62
7
  6
CONTINUOUS
 10
-91.273929905
 20
-169.650920103
 40
30.000000000
 50
180.000000000
 51
270.000000000
  0
ARC
  8
1
 62
7
  6
CONTINUOUS
 10
306.726070095
 20
-169.650920103
 40
30.000000000
 50
270.000000000
 51
0.000000000
  0
ARC
  8
1
 62
7
  6
CONTINUOUS
 10
-91.273929905
 20
128.349079897
 40
30.000000000
 50
90.000000000
 51
180.000000000
  0
ARC
  8
1
 62
7
  6
CONTINUOUS
 10
306.726070095
 20
128.349079897
 40
30.000000000
 50
0.000000000
 51
90.000000000
  0
LINE
  8
1
 62
7
  6
CONTINUOUS
 10
107.726070095
 20
-44.650920103
 11
326.748070095
 21
-44.650920103
  0
LINE
  8
1
 62
7
  6
CONTINUOUS
 10
107.726070095
 20
-51.650920103
 11
326.748070095
 21
-51.650920103
  0
LINE
  8
1
 62
7
  6
CONTINUOUS
 10
267.001584043
 20
-51.650920103
 11
267.001584043
 21
-44.650920103
  0
LINE
  8
1
 62
7
  6
CONTINUOUS
 10
168.126070095
 20
-51.650920103
 11
168.126070095
 21
-44.650920103
  0
LINE
  8
1
 62
7
  6
CONTINUOUS
 10
165.626070095
 20
-51.650920103
 11
165.626070095
 21
-44.650920103
  0
LINE
  8
1
 62
7
  6
CONTINUOUS
 10
107.726070095
 20
-55.650920103
 11
326.748070095
 21
-55.650920103
  0
LINE
  8
1
 62
7
  6
CONTINUOUS
 10
107.726070095
 20
-62.650920103
 11
326.748070095
 21
-62.650920103
  0
LINE
  8
1
 62
7
  6
CONTINUOUS
 10
267.001584043
 20
-62.650920103
 11
267.001584043
 21
-55.650920103
  0
LINE
  8
1
 62
7
  6
CONTINUOUS
 10
168.126070095
 20
-62.650920103
 11
168.126070095
 21
-55.650920103
  0
LINE
  8
1
 62
7
  6
CONTINUOUS
 10
165.626070095
 20
-62.650920103
 11
165.626070095
 21
-55.650920103
  0
LINE
  8
1
 62
7
  6
CONTINUOUS
 10
107.726070095
 20
-66.650920103
 11
326.748070095
 21
-66.650920103
  0
LINE
  8
1
 62
7
  6
CONTINUOUS
 10
107.726070095
 20
-73.650920103
 11
326.748070095
 21
-73.650920103
  0
LINE
  8
1
 62
7
  6
CONTINUOUS
 10
267.001584043
 20
-73.650920103
 11
267.001584043
 21
-66.650920103
  0
LINE
  8
1
 62
7
  6
CONTINUOUS
 10
168.126070095
 20
-73.650920103
 11
168.126070095
 21
-66.650920103
  0
LINE
  8
1
 62
7
  6
CONTINUOUS
 10
165.626070095
 20
-73.650920103
 11
165.626070095
 21
-66.650920103
  0
LINE
  8
1
 62
7
  6
CONTINUOUS
 10
107.726070095
 20
-77.650920103
 11
326.748070095
 21
-77.650920103
  0
LINE
  8
1
 62
7
  6
CONTINUOUS
 10
107.726070095
 20
-84.650920103
 11
326.748070095
 21
-84.650920103
  0
LINE
  8
1
 62
7
  6
CONTINUOUS
 10
267.001584043
 20
-84.650920103
 11
267.001584043
 21
-77.650920103
  0
LINE
  8
1
 62
7
  6
CONTINUOUS
 10
168.126070095
 20
-84.650920103
 11
168.126070095
 21
-77.650920103
  0
LINE
  8
1
 62
7
  6
CONTINUOUS
 10
165.626070095
 20
-84.650920103
 11
165.626070095
 21
-77.650920103
  0
LINE
  8
1
 62
7
  6
CONTINUOUS
 10
107.726070095
 20
-88.650920103
 11
326.748070095
 21
-88.650920103
  0
LINE
  8
1
 62
7
  6
CONTINUOUS
 10
107.726070095
 20
-95.650920103
 11
326.748070095
 21
-95.650920103
  0
LINE
  8
1
 62
7
  6
CONTINUOUS
 10
267.001584043
 20
-95.650920103
 11
267.001584043
 21
-88.650920103
  0
LINE
  8
1
 62
7
  6
CONTINUOUS
 10
168.126070095
 20
-95.650920103
 11
168.126070095
 21
-88.650920103
  0
LINE
  8
1
 62
7
  6
CONTINUOUS
 10
165.626070095
 20
-95.650920103
 11
165.626070095
 21
-88.650920103
  0
LINE
  8
1
 62
7
  6
CONTINUOUS
 10
107.726070095
 20
-99.650920103
 11
326.748070095
 21
-99.650920103
  0
LINE
  8
1
 62
7
  6
CONTINUOUS
 10
-240.756399370
 20
-161.650920103
 11
-226.756399370
 21
-161.650920103
  0
ARC
  8
1
 62
7
  6
CONTINUOUS
 10
-226.756399370
 20
-153.650920103
 40
1.000000000
 50
270.000000000
 51
0.000000000
  0
LINE
  8
1
 62
7
  6
CONTINUOUS
 10
-225.756399370
 20
-153.650920103
 11
-225.756399370
 21
-151.650920103
  0
LINE
  8
1
 62
7
  6
CONTINUOUS
 10
-226.756399370
 20
-150.650920103
 11
-240.756399370
 21
-150.650920103
  0
ARC
  8
1
 62
7
  6
CONTINUOUS
 10
-250.756399370
 20
-188.300391775
 40
10.000000000
 50
275.000000000
 51
0.000000000
  0
LINE
  8
1
 62
7
  6
CONTINUOUS
 10
-240.756399370
 20
-188.300391775
 11
-240.756399370
 21
-20.650920103
  0
LINE
  8
2
 62
7
  6
CONTINUOUS
 10
-265.756399370
 20
-199.650920103
 11
-249.392689487
 21
-198.219280995
  0
LINE
  8
1
 62
7
  6
CONTINUOUS
 10
-265.756399370
 20
-20.650920103
 11
-265.756399370
 21
-199.650920103
  0
LINE
  8
1
 62
7
  6
CONTINUOUS
 10
-226.756399370
 20
-154.650920103
 11
-240.756399370
 21
-154.650920103
  0
ARC
  8
1
 62
7
  6
CONTINUOUS
 10
-226.756399370
 20
-142.650920103
 40
1.000000000
 50
270.000000000
 51
0.000000000
  0
LINE
  8
1
 62
7
  6
CONTINUOUS
 10
-225.756399370
 20
-142.650920103
 11
-225.756399370
 21
-140.650920103
  0
LINE
  8
1
 62
7
  6
CONTINUOUS
 10
-226.756399370
 20
-139.650920103
 11
-240.756399370
 21
-139.650920103
  0
LINE
  8
1
 62
7
  6
CONTINUOUS
 10
-226.756399370
 20
-143.650920103
 11
-240.756399370
 21
-143.650920103
  0
ARC
  8
1
 62
7
  6
CONTINUOUS
 10
-226.756399370
 20
-129.650920103
 40
1.000000000
 50
0.000000000
 51
90.000000000
  0
ARC
  8
1
 62
7
  6
CONTINUOUS
 10
-226.756399370
 20
-131.650920103
 40
1.000000000
 50
270.000000000
 51
0.000000000
  0
LINE
  8
1
 62
7
  6
CONTINUOUS
 10
-225.756399370
 20
-131.650920103
 11
-225.756399370
 21
-129.650920103
  0
LINE
  8
1
 62
7
  6
CONTINUOUS
 10
-226.756399370
 20
-128.650920103
 11
-240.756399370
 21
-128.650920103
  0
LINE
  8
1
 62
7
  6
CONTINUOUS
 10
-226.756399370
 20
-132.650920103
 11
-240.756399370
 21
-132.650920103
  0
ARC
  8
1
 62
7
  6
CONTINUOUS
 10
-226.756399370
 20
-118.650920103
 40
1.000000000
 50
0.000000000
 51
90.000000000
  0
ARC
  8
1
 62
7
  6
CONTINUOUS
 10
-226.756399370
 20
-162.650920103
 40
1.000000000
 50
0.000000000
 51
90.000000000
  0
LINE
  8
1
 62
7
  6
CONTINUOUS
 10
-232.756399370
 20
120.349079897
 11
-232.756399370
 21
113.349079897
  0
LINE
  8
1
 62
7
  6
CONTINUOUS
 10
-232.756399370
 20
109.349079897
 11
-232.756399370
 21
102.349079897
  0
LINE
  8
1
 62
7
  6
CONTINUOUS
 10
-232.756399370
 20
98.349079897
 11
-232.756399370
 21
91.349079897
  0
LINE
  8
1
 62
7
  6
CONTINUOUS
 10
-232.756399370
 20
-161.650920103
 11
-232.756399370
 21
-154.650920103
  0
LINE
  8
1
 62
7
  6
CONTINUOUS
 10
-232.756399370
 20
-150.650920103
 11
-232.756399370
 21
-143.650920103
  0
LINE
  8
1
 62
7
  6
CONTINUOUS
 10
-232.756399370
 20
-139.650920103
 11
-232.756399370
 21
-132.650920103
  0
ARC
  8
1
 62
7
  6
CONTINUOUS
 10
-251.310115828
 20
-176.302997637
 40
22.000000000
 50
275.000000000
 51
330.818735057
  0
ARC
  8
1
 62
7
  6
CONTINUOUS
 10
-251.310115828
 20
135.001157431
 40
22.000000000
 50
29.181264943
 51
85.000000000
  0
LINE
  8
2
 62
2
  6
DASHDOT2
 10
-165.636040076
 20
-60.650920103
 11
-114.787912567
 21
-60.650920103
  0
ARC
  8
2
 62
7
  6
CONTINUOUS
 10
-410.256399370
 20
-102.650920103
 40
37.500000000
 50
180.000000000
 51
270.000000000
  0
LINE
  8
5
 62
7
  6
CONTINUOUS
 10
-335.756399370
 20
-165.150920103
 11
-422.656399370
 21
-165.150920103
  0
LINE
  8
7
 62
7
  6
CONTINUOUS
 10
-335.756399370
 20
-168.142269390
 11
-335.756399370
 21
-121.650920103
  0
ARC
  8
7
 62
7
  6
CONTINUOUS
 10
-266.756399370
 20
128.840391108
 40
1.000000000
 50
270.500000000
 51
0.000000000
  0
LINE
  8
2
 62
7
  6
CONTINUOUS
 10
-335.756399370
 20
0.349079897
 11
-327.656399370
 21
0.349079897
  0
LINE
  8
2
 62
7
  6
CONTINUOUS
 10
-265.756399370
 20
-187.650920103
 11
-265.756399370
 21
-165.150920103
  0
ARC
  8
7
 62
7
  6
CONTINUOUS
 10
-91.765241116
 20
286.567258169
 40
1.000000000
 50
270.000000000
 51
359.500000000
  0
LINE
  8
7
 62
7
  6
CONTINUOUS
 10
-90.163049160
 20
355.567258169
 11
-90.765279193
 21
286.558531634
  0
LINE
  8
7
 62
7
  6
CONTINUOUS
 10
277.726070095
 20
355.567258169
 11
48.726070095
 21
355.567258169
  0
LINE
  8
7
 62
7
  6
CONTINUOUS
 10
277.726070095
 20
355.567258169
 11
303.115094154
 21
355.567258169
  0
LINE
  8
3
 62
7
  6
CONTINUOUS
 10
-473.756399370
 20
-41.850920103
 11
-473.756399370
 21
-5.650920103
  0
LINE
  8
7
 62
7
  6
CONTINUOUS
 10
303.115094154
 20
355.567258169
 11
304.623878139
 21
355.567258169
  0
LINE
  8
7
 62
7
  6
CONTINUOUS
 10
305.623840062
 20
354.575984705
 11
306.217419382
 21
286.558531634
  0
ARC
  8
7
 62
7
  6
CONTINUOUS
 10
307.217381305
 20
286.567258169
 40
1.000000000
 50
180.500000000
 51
270.000000000
  0
ARC
  8
7
 62
7
  6
CONTINUOUS
 10
304.623878139
 20
354.567258169
 40
1.000000000
 50
0.500000000
 51
90.000000000
  0
LINE
  8
7
 62
7
  6
CONTINUOUS
 10
-335.756399370
 20
124.738103956
 11
-335.756399370
 21
126.840429185
  0
LINE
  8
1
 62
7
  6
CONTINUOUS
 10
168.126070095
 20
-117.650920103
 11
168.126070095
 21
-110.650920103
  0
LINE
  8
1
 62
7
  6
CONTINUOUS
 10
165.626070095
 20
-117.650920103
 11
165.626070095
 21
-110.650920103
  0
LINE
  8
1
 62
7
  6
CONTINUOUS
 10
107.726070095
 20
-121.650920103
 11
326.748070095
 21
-121.650920103
  0
LINE
  8
1
 62
7
  6
CONTINUOUS
 10
107.726070095
 20
-128.650920103
 11
326.748070095
 21
-128.650920103
  0
LINE
  8
1
 62
7
  6
CONTINUOUS
 10
267.001584043
 20
-128.650920103
 11
267.001584043
 21
-121.650920103
  0
LINE
  8
1
 62
7
  6
CONTINUOUS
 10
168.126070095
 20
-128.650920103
 11
168.126070095
 21
-121.650920103
  0
LINE
  8
1
 62
7
  6
CONTINUOUS
 10
165.626070095
 20
-128.650920103
 11
165.626070095
 21
-121.650920103
  0
LINE
  8
1
 62
7
  6
CONTINUOUS
 10
107.726070095
 20
-132.650920103
 11
326.748070095
 21
-132.650920103
  0
LINE
  8
1
 62
7
  6
CONTINUOUS
 10
107.726070095
 20
-139.650920103
 11
326.748070095
 21
-139.650920103
  0
LINE
  8
1
 62
7
  6
CONTINUOUS
 10
267.001584043
 20
-139.650920103
 11
267.001584043
 21
-132.650920103
  0
LINE
  8
1
 62
7
  6
CONTINUOUS
 10
165.626070095
 20
-139.650920103
 11
165.626070095
 21
-132.650920103
  0
LINE
  8
1
 62
7
  6
CONTINUOUS
 10
107.726070095
 20
-143.650920103
 11
326.748070095
 21
-143.650920103
  0
LINE
  8
1
 62
7
  6
CONTINUOUS
 10
107.726070095
 20
-150.650920103
 11
326.748070095
 21
-150.650920103
  0
LINE
  8
1
 62
7
  6
CONTINUOUS
 10
267.001584043
 20
-150.650920103
 11
267.001584043
 21
-143.650920103
  0
LINE
  8
1
 62
7
  6
CONTINUOUS
 10
165.626070095
 20
-150.650920103
 11
165.626070095
 21
-143.650920103
  0
LINE
  8
1
 62
7
  6
CONTINUOUS
 10
107.726070095
 20
-22.650920103
 11
-111.295929905
 21
-22.650920103
  0
LINE
  8
1
 62
7
  6
CONTINUOUS
 10
-111.295929905
 20
-18.650920103
 11
107.726070095
 21
-18.650920103
  0
LINE
  8
1
 62
7
  6
CONTINUOUS
 10
107.726070095
 20
-29.650920103
 11
-111.295929905
 21
-29.650920103
  0
LINE
  8
1
 62
7
  6
CONTINUOUS
 10
-51.549443853
 20
-29.650920103
 11
-51.549443853
 21
-22.650920103
  0
LINE
  8
1
 62
7
  6
CONTINUOUS
 10
-51.549443853
 20
-40.650920103
 11
-51.549443853
 21
-33.650920103
  0
LINE
  8
1
 62
7
  6
CONTINUOUS
 10
107.726070095
 20
-40.650920103
 11
-111.295929905
 21
-40.650920103
  0
LINE
  8
1
 62
7
  6
CONTINUOUS
 10
107.726070095
 20
-33.650920103
 11
-111.295929905
 21
-33.650920103
  0
LINE
  8
1
 62
7
  6
CONTINUOUS
 10
107.726070095
 20
-44.650920103
 11
-111.295929905
 21
-44.650920103
  0
LINE
  8
1
 62
7
  6
CONTINUOUS
 10
107.726070095
 20
-51.650920103
 11
-111.295929905
 21
-51.650920103
  0
LINE
  8
1
 62
7
  6
CONTINUOUS
 10
-51.549443853
 20
-51.650920103
 11
-51.549443853
 21
-44.650920103
  0
LINE
  8
1
 62
7
  6
CONTINUOUS
 10
107.726070095
 20
-55.650920103
 11
-111.295929905
 21
-55.650920103
  0
LINE
  8
1
 62
7
  6
CONTINUOUS
 10
107.726070095
 20
-62.650920103
 11
-111.295929905
 21
-62.650920103
  0
LINE
  8
1
 62
7
  6
CONTINUOUS
 10
-51.549443853
 20
-62.650920103
 11
-51.549443853
 21
-55.650920103
  0
LINE
  8
1
 62
7
  6
CONTINUOUS
 10
107.726070095
 20
-66.650920103
 11
-111.295929905
 21
-66.650920103
  0
LINE
  8
1
 62
7
  6
CONTINUOUS
 10
107.726070095
 20
-73.650920103
 11
-111.295929905
 21
-73.650920103
  0
LINE
  8
1
 62
7
  6
CONTINUOUS
 10
-51.549443853
 20
-73.650920103
 11
-51.549443853
 21
-66.650920103
  0
LINE
  8
1
 62
7
  6
CONTINUOUS
 10
107.726070095
 20
-77.650920103
 11
-111.295929905
 21
-77.650920103
  0
LINE
  8
1
 62
7
  6
CONTINUOUS
 10
107.726070095
 20
-84.650920103
 11
-111.295929905
 21
-84.650920103
  0
LINE
  8
1
 62
7
  6
CONTINUOUS
 10
-51.549443853
 20
-84.650920103
 11
-51.549443853
 21
-77.650920103
  0
LINE
  8
1
 62
7
  6
CONTINUOUS
 10
107.726070095
 20
-88.650920103
 11
-111.295929905
 21
-88.650920103
  0
LINE
  8
1
 62
7
  6
CONTINUOUS
 10
107.726070095
 20
-95.650920103
 11
-111.295929905
 21
-95.650920103
  0
LINE
  8
1
 62
7
  6
CONTINUOUS
 10
-51.549443853
 20
-95.650920103
 11
-51.549443853
 21
-88.650920103
  0
LINE
  8
1
 62
7
  6
CONTINUOUS
 10
107.726070095
 20
-99.650920103
 11
-111.295929905
 21
-99.650920103
  0
LINE
  8
1
 62
7
  6
CONTINUOUS
 10
107.726070095
 20
-106.650920103
 11
-111.295929905
 21
-106.650920103
  0
LINE
  8
1
 62
7
  6
CONTINUOUS
 10
-51.549443853
 20
-106.650920103
 11
-51.549443853
 21
-99.650920103
  0
LINE
  8
1
 62
7
  6
CONTINUOUS
 10
107.726070095
 20
-110.650920103
 11
-111.295929905
 21
-110.650920103
  0
LINE
  8
1
 62
7
  6
CONTINUOUS
 10
107.726070095
 20
-117.650920103
 11
-111.295929905
 21
-117.650920103
  0
LINE
  8
1
 62
7
  6
CONTINUOUS
 10
-51.549443853
 20
-117.650920103
 11
-51.549443853
 21
-110.650920103
  0
LINE
  8
1
 62
7
  6
CONTINUOUS
 10
107.726070095
 20
-121.650920103
 11
-111.295929905
 21
-121.650920103
  0
LINE
  8
1
 62
7
  6
CONTINUOUS
 10
107.726070095
 20
-128.650920103
 11
-111.295929905
 21
-128.650920103
  0
LINE
  8
1
 62
7
  6
CONTINUOUS
 10
-51.549443853
 20
-128.650920103
 11
-51.549443853
 21
-121.650920103
  0
LINE
  8
1
 62
7
  6
CONTINUOUS
 10
107.726070095
 20
-132.650920103
 11
-111.295929905
 21
-132.650920103
  0
LINE
  8
1
 62
7
  6
CONTINUOUS
 10
107.726070095
 20
-139.650920103
 11
-111.295929905
 21
-139.650920103
  0
LINE
  8
1
 62
7
  6
CONTINUOUS
 10
-51.549443853
 20
-139.650920103
 11
-51.549443853
 21
-132.650920103
  0
LINE
  8
1
 62
7
  6
CONTINUOUS
 10
107.726070095
 20
-143.650920103
 11
-111.295929905
 21
-143.650920103
  0
LINE
  8
1
 62
7
  6
CONTINUOUS
 10
107.726070095
 20
-150.650920103
 11
-111.295929905
 21
-150.650920103
  0
LINE
  8
1
 62
7
  6
CONTINUOUS
 10
-51.549443853
 20
-150.650920103
 11
-51.549443853
 21
-143.650920103
  0
LINE
  8
1
 62
7
  6
CONTINUOUS
 10
107.726070095
 20
-18.650920103
 11
-111.295929905
 21
-18.650920103
  0
LINE
  8
1
 62
7
  6
CONTINUOUS
 10
-111.295929905
 20
-22.650920103
 11
107.726070095
 21
-22.650920103
  0
LINE
  8
1
 62
7
  6
CONTINUOUS
 10
107.726070095
 20
-11.650920103
 11
-111.295929905
 21
-11.650920103
  0
LINE
  8
1
 62
7
  6
CONTINUOUS
 10
-51.549443853
 20
-11.650920103
 11
-51.549443853
 21
-18.650920103
  0
LINE
  8
1
 62
7
  6
CONTINUOUS
 10
-51.549443853
 20
-0.650920103
 11
-51.549443853
 21
-7.650920103
  0
LINE
  8
1
 62
7
  6
CONTINUOUS
 10
107.726070095
 20
-0.650920103
 11
-111.295929905
 21
-0.650920103
  0
LINE
  8
1
 62
7
  6
CONTINUOUS
 10
107.726070095
 20
-7.650920103
 11
-111.295929905
 21
-7.650920103
  0
LINE
  8
1
 62
7
  6
CONTINUOUS
 10
107.726070095
 20
3.349079897
 11
-111.295929905
 21
3.349079897
  0
LINE
  8
1
 62
7
  6
CONTINUOUS
 10
107.726070095
 20
10.349079897
 11
-111.295929905
 21
10.349079897
  0
LINE
  8
1
 62
7
  6
CONTINUOUS
 10
-51.549443853
 20
10.349079897
 11
-51.549443853
 21
3.349079897
  0
LINE
  8
1
 62
7
  6
CONTINUOUS
 10
107.726070095
 20
14.349079897
 11
-111.295929905
 21
14.349079897
  0
LINE
  8
1
 62
7
  6
CONTINUOUS
 10
107.726070095
 20
21.349079897
 11
-111.295929905
 21
21.349079897
  0
LINE
  8
1
 62
7
  6
CONTINUOUS
 10
-51.549443853
 20
21.349079897
 11
-51.549443853
 21
14.349079897
  0
LINE
  8
1
 62
7
  6
CONTINUOUS
 10
107.726070095
 20
25.349079897
 11
-111.295929905
 21
25.349079897
  0
LINE
  8
1
 62
7
  6
CONTINUOUS
 10
107.726070095
 20
32.349079897
 11
-111.295929905
 21
32.349079897
  0
LINE
  8
1
 62
7
  6
CONTINUOUS
 10
-51.549443853
 20
32.349079897
 11
-51.549443853
 21
25.349079897
  0
LINE
  8
1
 62
7
  6
CONTINUOUS
 10
107.726070095
 20
36.349079897
 11
-111.295929905
 21
36.349079897
  0
LINE
  8
1
 62
7
  6
CONTINUOUS
 10
107.726070095
 20
43.349079897
 11
-111.295929905
 21
43.349079897
  0
LINE
  8
1
 62
7
  6
CONTINUOUS
 10
-51.549443853
 20
43.349079897
 11
-51.549443853
 21
36.349079897
  0
LINE
  8
1
 62
7
  6
CONTINUOUS
 10
107.726070095
 20
47.349079897
 11
-111.295929905
 21
47.349079897
  0
LINE
  8
1
 62
7
  6
CONTINUOUS
 10
107.726070095
 20
54.349079897
 11
-111.295929905
 21
54.349079897
  0
LINE
  8
1
 62
7
  6
CONTINUOUS
 10
-51.549443853
 20
54.349079897
 11
-51.549443853
 21
47.349079897
  0
LINE
  8
1
 62
7
  6
CONTINUOUS
 10
107.726070095
 20
58.349079897
 11
-111.295929905
 21
58.349079897
  0
LINE
  8
1
 62
7
  6
CONTINUOUS
 10
107.726070095
 20
65.349079897
 11
-111.295929905
 21
65.349079897
  0
LINE
  8
1
 62
7
  6
CONTINUOUS
 10
-51.549443853
 20
65.349079897
 11
-51.549443853
 21
58.349079897
  0
LINE
  8
1
 62
7
  6
CONTINUOUS
 10
107.726070095
 20
69.349079897
 11
-111.295929905
 21
69.349079897
  0
LINE
  8
1
 62
7
  6
CONTINUOUS
 10
107.726070095
 20
76.349079897
 11
-111.295929905
 21
76.349079897
  0
LINE
  8
1
 62
7
  6
CONTINUOUS
 10
-51.549443853
 20
76.349079897
 11
-51.549443853
 21
69.349079897
  0
ARC
  8
3
 62
7
  6
CONTINUOUS
 10
-468.756399370
 20
-41.850920103
 40
5.000000000
 50
180.000000000
 51
270.000000000
  0
LINE
  8
1
 62
7
  6
CONTINUOUS
 10
107.726070095
 20
80.349079897
 11
-111.295929905
 21
80.349079897
  0
LINE
  8
1
 62
7
  6
CONTINUOUS
 10
107.726070095
 20
87.349079897
 11
-111.295929905
 21
87.349079897
  0
LINE
  8
1
 62
7
  6
CONTINUOUS
 10
-51.549443853
 20
87.349079897
 11
-51.549443853
 21
80.349079897
  0
LINE
  8
1
 62
7
  6
CONTINUOUS
 10
107.726070095
 20
91.349079897
 11
-111.295929905
 21
91.349079897
  0
LINE
  8
1
 62
7
  6
CONTINUOUS
 10
107.726070095
 20
98.349079897
 11
-111.295929905
 21
98.349079897
  0
LINE
  8
1
 62
7
  6
CONTINUOUS
 10
-51.549443853
 20
98.349079897
 11
-51.549443853
 21
91.349079897
  0
LINE
  8
1
 62
7
  6
CONTINUOUS
 10
107.726070095
 20
102.349079897
 11
-111.295929905
 21
102.349079897
  0
LINE
  8
1
 62
7
  6
CONTINUOUS
 10
107.726070095
 20
109.349079897
 11
-111.295929905
 21
109.349079897
  0
LINE
  8
1
 62
7
  6
CONTINUOUS
 10
-51.549443853
 20
109.349079897
 11
-51.549443853
 21
102.349079897
  0
LINE
  8
2
 62
2
  6
DASHDOT2
 10
-165.636040076
 20
-20.650920103
 11
354.823256237
 21
-20.650920103
  0
LINE
  8
2
 62
2
  6
DASHDOT2
 10
107.726070095
 20
519.650651845
 11
107.726070095
 21
259.428766515
  0
ARC
  8
2
 62
7
  6
CONTINUOUS
 10
27.726070095
 20
352.067258169
 40
21.000000000
 50
270.000000000
 51
0.000000000
  0
LINE
  8
2
 62
7
  6
CONTINUOUS
 10
48.726070095
 20
352.067258169
 11
48.726070095
 21
355.567258169
  0
LINE
  8
7
 62
7
  6
CONTINUOUS
 10
-63.273929905
 20
355.567258169
 11
-90.163049160
 21
355.567258169
  0
LINE
  8
1
 62
7
  6
CONTINUOUS
 10
107.726070095
 20
285.567258169
 11
-121.273929905
 21
285.567258169
  0
ARC
  8
1
 62
7
  6
CONTINUOUS
 10
107.726070095
 20
1842.110342135
 40
1596.543083965
 50
270.000000000
 51
277.884970806
  0
ARC
  8
1
 62
7
  6
CONTINUOUS
 10
107.726070095
 20
1842.110342135
 40
1596.543083965
 50
262.115029194
 51
270.000000000
  0
ARC
  8
2
 62
7
  6
CONTINUOUS
 10
-410.256399370
 20
-18.650920103
 40
37.500000000
 50
90.000000000
 51
180.000000000
  0
LINE
  8
6
 62
2
  6
DASHDOT
 10
-69.437071661
 20
385.067258169
 11
-165.636040076
 21
385.067258169
  0
LINE
  8
7
 62
7
  6
CONTINUOUS
 10
-335.756399370
 20
124.738103956
 11
-335.756399370
 21
0.349079897
  0
LINE
  8
2
 62
7
  6
CONTINUOUS
 10
-473.756399370
 20
123.849079897
 11
-473.756399370
 21
-20.650920103
  0
ARC
  8
8
 62
7
  6
CONTINUOUS
 10
96.322658251
 20
448.601232766
 40
13.375374204
 50
69.411906409
 51
92.142337532
  0
LINE
  8
1
 62
7
  6
CONTINUOUS
 10
-109.923401577
 20
260.567258169
 11
325.375541767
 21
260.567258169
  0
LINE
  8
2
 62
7
  6
CONTINUOUS
 10
-473.756399370
 20
-165.150920103
 11
-473.756399370
 21
-20.650920103
  0
LINE
  8
2
 62
7
  6
CONTINUOUS
 10
-121.273929905
 20
285.567258169
 11
-119.885348558
 21
269.695700742
  0
LINE
  8
3
 62
7
  6
CONTINUOUS
 10
-441.556399370
 20
50.349079897
 11
-444.056399370
 21
50.349079897
  0
LINE
  8
8
 62
7
  6
CONTINUOUS
 10
95.822658251
 20
461.967258170
 11
72.726070095
 21
461.967258169
  0
LINE
  8
2
 62
7
  6
CONTINUOUS
 10
-335.756399370
 20
-121.650920103
 11
-327.656399370
 21
-121.650920103
  0
ARC
  8
2
 62
7
  6
CONTINUOUS
 10
-327.656399370
 20
-105.650920103
 40
16.000000000
 50
270.000000000
 51
0.000000000
  0
LINE
  8
2
 62
7
  6
CONTINUOUS
 10
-311.656399370
 20
-15.650920103
 11
-311.656399370
 21
-105.650920103
  0
LINE
  8
2
 62
7
  6
CONTINUOUS
 10
-417.556399370
 20
-165.150920103
 11
-423.756399370
 21
-165.150920103
  0
LINE
  8
5
 62
7
  6
CONTINUOUS
 10
-335.756399370
 20
123.849079897
 11
-368.756399370
 21
123.849079897
  0
ARC
  8
3
 62
7
  6
CONTINUOUS
 10
-468.756399370
 20
30.549079897
 40
5.000000000
 50
90.000000000
 51
180.000000000
  0
LINE
  8
2
 62
7
  6
CONTINUOUS
 10
-422.656399370
 20
-165.150920103
 11
-422.656399370
 21
-140.650920103
  0
ARC
  8
1
 62
7
  6
CONTINUOUS
 10
-109.923401577
 20
270.567258169
 40
10.000000000
 50
185.000000000
 51
270.000000000
  0
ARC
  8
1
 62
7
  6
CONTINUOUS
 10
325.375541767
 20
270.567258169
 40
10.000000000
 50
270.000000000
 51
355.000000000
  0
LINE
  8
5
 62
2
  6
CENTER
 10
-252.747765550
 20
-60.650920103
 11
-438.367220688
 21
-60.650920103
  0
LINE
  8
2
 62
7
  6
CONTINUOUS
 10
72.726070095
 20
443.067258169
 11
161.026070095
 21
443.067258169
  0
ARC
  8
1
 62
7
  6
CONTINUOUS
 10
-275.756399370
 20
-162.650920103
 40
50.000000000
 50
330.818735057
 51
0.000000000
  0
ARC
  8
1
 62
7
  6
CONTINUOUS
 10
-275.756399370
 20
121.349079897
 40
50.000000000
 50
0.000000000
 51
29.181264943
  0
ARC
  8
3
 62
7
  6
CONTINUOUS
 10
-445.556399370
 20
37.049079897
 40
1.500000000
 50
270.000000000
 51
0.000000000
  0
LINE
  8
2
 62
2
  6
DASHDOT2
 10
107.726070095
 20
234.177397811
 11
107.726070095
 21
303.307048842
  0
LINE
  8
2
 62
7
  6
CONTINUOUS
 10
336.726070095
 20
285.567258169
 11
335.337488748
 21
269.695700742
  0
LINE
  8
1
 62
7
  6
CONTINUOUS
 10
107.726070095
 20
285.567258169
 11
336.726070095
 21
285.567258169
  0
LINE
  8
2
 62
7
  6
CONTINUOUS
 10
-422.656399370
 20
123.849079897
 11
-422.656399370
 21
19.349079897
  0
ARC
  8
2
 62
7
  6
CONTINUOUS
 10
-327.656399370
 20
-15.650920103
 40
16.000000000
 50
0.000000000
 51
90.000000000
  0
ARC
  8
1
 62
7
  6
CONTINUOUS
 10
-226.756399370
 20
121.349079897
 40
1.000000000
 50
270.000000000
 51
0.000000000
  0
ARC
  8
1
 62
7
  6
CONTINUOUS
 10
-226.756399370
 20
77.349079897
 40
1.000000000
 50
270.000000000
 51
0.000000000
  0
LINE
  8
2
 62
7
  6
CONTINUOUS
 10
-7.273929905
 20
331.067258169
 11
27.726070095
 21
331.067258169
  0
LINE
  8
1
 62
7
  6
CONTINUOUS
 10
-226.756399370
 20
91.349079897
 11
-240.756399370
 21
91.349079897
  0
LINE
  8
1
 62
7
  6
CONTINUOUS
 10
-226.756399370
 20
87.349079897
 11
-240.756399370
 21
87.349079897
  0
LINE
  8
1
 62
7
  6
CONTINUOUS
 10
-225.756399370
 20
90.349079897
 11
-225.756399370
 21
88.349079897
  0
ARC
  8
1
 62
7
  6
CONTINUOUS
 10
-226.756399370
 20
90.349079897
 40
1.000000000
 50
0.000000000
 51
90.000000000
  0
ARC
  8
1
 62
7
  6
CONTINUOUS
 10
-226.756399370
 20
88.349079897
 40
1.000000000
 50
270.000000000
 51
0.000000000
  0
LINE
  8
1
 62
7
  6
CONTINUOUS
 10
-226.756399370
 20
102.349079897
 11
-240.756399370
 21
102.349079897
  0
LINE
  8
1
 62
7
  6
CONTINUOUS
 10
-226.756399370
 20
98.349079897
 11
-240.756399370
 21
98.349079897
  0
LINE
  8
1
 62
7
  6
CONTINUOUS
 10
-225.756399370
 20
101.349079897
 11
-225.756399370
 21
99.349079897
  0
ARC
  8
1
 62
7
  6
CONTINUOUS
 10
-226.756399370
 20
101.349079897
 40
1.000000000
 50
0.000000000
 51
90.000000000
  0
LINE
  8
1
 62
7
  6
CONTINUOUS
 10
-226.756399370
 20
-22.650920103
 11
-240.756399370
 21
-22.650920103
  0
LINE
  8
1
 62
7
  6
CONTINUOUS
 10
-225.756399370
 20
-21.650920103
 11
-225.756399370
 21
-20.650920103
  0
ARC
  8
1
 62
7
  6
CONTINUOUS
 10
-226.756399370
 20
-21.650920103
 40
1.000000000
 50
270.000000000
 51
0.000000000
  0
LINE
  8
1
 62
7
  6
CONTINUOUS
 10
-226.756399370
 20
-33.650920103
 11
-240.756399370
 21
-33.650920103
  0
LINE
  8
1
 62
7
  6
CONTINUOUS
 10
-226.756399370
 20
113.349079897
 11
-240.756399370
 21
113.349079897
  0
LINE
  8
1
 62
7
  6
CONTINUOUS
 10
-265.756399370
 20
-20.650920103
 11
-265.756399370
 21
158.349079897
  0
LINE
  8
2
 62
7
  6
CONTINUOUS
 10
-265.756399370
 20
158.349079897
 11
-249.392689488
 21
156.917440789
  0
LINE
  8
1
 62
7
  6
CONTINUOUS
 10
-240.756399370
 20
146.998551569
 11
-240.756399370
 21
-20.650920103
  0
ARC
  8
1
 62
7
  6
CONTINUOUS
 10
-250.756399370
 20
146.998551569
 40
10.000000000
 50
0.000000000
 51
85.000000000
  0
LINE
  8
1
 62
7
  6
CONTINUOUS
 10
-226.756399370
 20
-29.650920103
 11
-240.756399370
 21
-29.650920103
  0
LINE
  8
1
 62
7
  6
CONTINUOUS
 10
-225.756399370
 20
-32.650920103
 11
-225.756399370
 21
-30.650920103
  0
LINE
  8
1
 62
7
  6
CONTINUOUS
 10
-226.756399370
 20
109.349079897
 11
-240.756399370
 21
109.349079897
  0
LINE
  8
1
 62
7
  6
CONTINUOUS
 10
-225.756399370
 20
112.349079897
 11
-225.756399370
 21
110.349079897
  0
ARC
  8
1
 62
7
  6
CONTINUOUS
 10
-226.756399370
 20
-32.650920103
 40
1.000000000
 50
270.000000000
 51
0.000000000
  0
ARC
  8
1
 62
7
  6
CONTINUOUS
 10
-226.756399370
 20
112.349079897
 40
1.000000000
 50
0.000000000
 51
90.000000000
  0
ARC
  8
1
 62
7
  6
CONTINUOUS
 10
-226.756399370
 20
-30.650920103
 40
1.000000000
 50
0.000000000
 51
90.000000000
  0
LINE
  8
1
 62
7
  6
CONTINUOUS
 10
-240.756399370
 20
120.349079897
 11
-226.756399370
 21
120.349079897
  0
LINE
  8
1
 62
7
  6
CONTINUOUS
 10
-226.756399370
 20
-44.650920103
 11
-240.756399370
 21
-44.650920103
  0
ARC
  8
1
 62
7
  6
CONTINUOUS
 10
-226.756399370
 20
110.349079897
 40
1.000000000
 50
270.000000000
 51
0.000000000
  0
LINE
  8
1
 62
7
  6
CONTINUOUS
 10
-226.756399370
 20
-40.650920103
 11
-240.756399370
 21
-40.650920103
  0
ARC
  8
1
 62
7
  6
CONTINUOUS
 10
-226.756399370
 20
99.349079897
 40
1.000000000
 50
270.000000000
 51
0.000000000
  0
ARC
  8
1
 62
7
  6
CONTINUOUS
 10
-226.756399370
 20
79.349079897
 40
1.000000000
 50
0.000000000
 51
90.000000000
  0
LINE
  8
1
 62
7
  6
CONTINUOUS
 10
-225.756399370
 20
79.349079897
 11
-225.756399370
 21
77.349079897
  0
LINE
  8
1
 62
7
  6
CONTINUOUS
 10
-226.756399370
 20
76.349079897
 11
-240.756399370
 21
76.349079897
  0
LINE
  8
1
 62
7
  6
CONTINUOUS
 10
-226.756399370
 20
80.349079897
 11
-240.756399370
 21
80.349079897
  0
ARC
  8
1
 62
7
  6
CONTINUOUS
 10
-226.756399370
 20
66.349079897
 40
1.000000000
 50
270.000000000
 51
0.000000000
  0
ARC
  8
1
 62
7
  6
CONTINUOUS
 10
-226.756399370
 20
68.349079897
 40
1.000000000
 50
0.000000000
 51
90.000000000
  0
LINE
  8
1
 62
7
  6
CONTINUOUS
 10
-225.756399370
 20
68.349079897
 11
-225.756399370
 21
66.349079897
  0
LINE
  8
1
 62
7
  6
CONTINUOUS
 10
-226.756399370
 20
65.349079897
 11
-240.756399370
 21
65.349079897
  0
LINE
  8
1
 62
7
  6
CONTINUOUS
 10
-226.756399370
 20
69.349079897
 11
-240.756399370
 21
69.349079897
  0
ARC
  8
1
 62
7
  6
CONTINUOUS
 10
-226.756399370
 20
55.349079897
 40
1.000000000
 50
270.000000000
 51
0.000000000
  0
ARC
  8
1
 62
7
  6
CONTINUOUS
 10
-226.756399370
 20
57.349079897
 40
1.000000000
 50
0.000000000
 51
90.000000000
  0
LINE
  8
1
 62
7
  6
CONTINUOUS
 10
-225.756399370
 20
57.349079897
 11
-225.756399370
 21
55.349079897
  0
LINE
  8
1
 62
7
  6
CONTINUOUS
 10
-226.756399370
 20
54.349079897
 11
-240.756399370
 21
54.349079897
  0
LINE
  8
1
 62
7
  6
CONTINUOUS
 10
-226.756399370
 20
58.349079897
 11
-240.756399370
 21
58.349079897
  0
ARC
  8
1
 62
7
  6
CONTINUOUS
 10
-226.756399370
 20
44.349079897
 40
1.000000000
 50
270.000000000
 51
0.000000000
  0
ARC
  8
1
 62
7
  6
CONTINUOUS
 10
-226.756399370
 20
46.349079897
 40
1.000000000
 50
0.000000000
 51
90.000000000
  0
LINE
  8
1
 62
7
  6
CONTINUOUS
 10
-225.756399370
 20
46.349079897
 11
-225.756399370
 21
44.349079897
  0
LINE
  8
1
 62
7
  6
CONTINUOUS
 10
-226.756399370
 20
43.349079897
 11
-240.756399370
 21
43.349079897
  0
LINE
  8
1
 62
7
  6
CONTINUOUS
 10
-226.756399370
 20
47.349079897
 11
-240.756399370
 21
47.349079897
  0
ARC
  8
1
 62
7
  6
CONTINUOUS
 10
-226.756399370
 20
33.349079897
 40
1.000000000
 50
270.000000000
 51
0.000000000
  0
ARC
  8
1
 62
7
  6
CONTINUOUS
 10
-226.756399370
 20
35.349079897
 40
1.000000000
 50
0.000000000
 51
90.000000000
  0
LINE
  8
1
 62
7
  6
CONTINUOUS
 10
-225.756399370
 20
35.349079897
 11
-225.756399370
 21
33.349079897
  0
LINE
  8
1
 62
7
  6
CONTINUOUS
 10
-226.756399370
 20
32.349079897
 11
-240.756399370
 21
32.349079897
  0
LINE
  8
1
 62
7
  6
CONTINUOUS
 10
-226.756399370
 20
36.349079897
 11
-240.756399370
 21
36.349079897
  0
LINE
  8
3
 62
7
  6
CONTINUOUS
 10
-441.556399370
 20
50.349079897
 11
-441.556399370
 21
19.349079897
  0
LINE
  8
3
 62
7
  6
CONTINUOUS
 10
-444.056399370
 20
37.049079897
 11
-444.056399370
 21
19.349079897
  0
ARC
  8
1
 62
7
  6
CONTINUOUS
 10
-226.756399370
 20
22.349079897
 40
1.000000000
 50
270.000000000
 51
0.000000000
  0
LINE
  8
2
 62
7
  6
CONTINUOUS
 10
-63.273929905
 20
355.567258169
 11
-63.273929905
 21
352.067258169
  0
ARC
  8
2
 62
7
  6
CONTINUOUS
 10
-42.273929905
 20
352.067258169
 40
21.000000000
 50
180.000000000
 51
270.000000000
  0
LINE
  8
2
 62
7
  6
CONTINUOUS
 10
-42.273929905
 20
331.067258169
 11
-7.273929905
 21
331.067258169
  0
LINE
  8
3
 62
7
  6
CONTINUOUS
 10
-473.756399370
 20
30.549079897
 11
-473.756399370
 21
-5.650920103
  0
LINE
  8
3
 62
7
  6
CONTINUOUS
 10
-445.556399370
 20
35.549079897
 11
-468.756399370
 21
35.549079897
  0
LINE
  8
3
 62
7
  6
CONTINUOUS
 10
-444.056399370
 20
50.349079897
 11
-444.056399370
 21
37.049079897
  0
LINE
  8
2
 62
7
  6
CONTINUOUS
 10
302.226070095
 20
493.567258169
 11
302.226070095
 21
355.567258169
  0
LINE
  8
2
 62
7
  6
CONTINUOUS
 10
161.026070095
 20
493.567258169
 11
302.226070095
 21
493.567258169
  0
LINE
  8
2
 62
7
  6
CONTINUOUS
 10
161.026070095
 20
443.067258169
 11
161.026070095
 21
493.567258169
  0
LINE
  8
2
 62
7
  6
CONTINUOUS
 10
-153.473929905
 20
-107.950920103
 11
-153.473929905
 21
-13.350920103
  0
ARC
  8
1
 62
7
  6
CONTINUOUS
 10
-226.756399370
 20
24.349079897
 40
1.000000000
 50
0.000000000
 51
90.000000000
  0
LINE
  8
1
 62
7
  6
CONTINUOUS
 10
-225.756399370
 20
24.349079897
 11
-225.756399370
 21
22.349079897
  0
LINE
  8
1
 62
7
  6
CONTINUOUS
 10
-226.756399370
 20
21.349079897
 11
-240.756399370
 21
21.349079897
  0
LINE
  8
1
 62
7
  6
CONTINUOUS
 10
-226.756399370
 20
25.349079897
 11
-240.756399370
 21
25.349079897
  0
ARC
  8
1
 62
7
  6
CONTINUOUS
 10
-226.756399370
 20
11.349079897
 40
1.000000000
 50
270.000000000
 51
0.000000000
  0
ARC
  8
1
 62
7
  6
CONTINUOUS
 10
-226.756399370
 20
13.349079897
 40
1.000000000
 50
0.000000000
 51
90.000000000
  0
LINE
  8
1
 62
7
  6
CONTINUOUS
 10
-225.756399370
 20
13.349079897
 11
-225.756399370
 21
11.349079897
  0
LINE
  8
1
 62
7
  6
CONTINUOUS
 10
-226.756399370
 20
10.349079897
 11
-240.756399370
 21
10.349079897
  0
ARC
  8
2
 62
7
  6
CONTINUOUS
 10
-398.244017763
 20
-31.650920103
 40
1.500000000
 50
90.000000000
 51
180.000000000
  0
LINE
  8
1
 62
7
  6
CONTINUOUS
 10
-226.756399370
 20
14.349079897
 11
-240.756399370
 21
14.349079897
  0
ARC
  8
1
 62
7
  6
CONTINUOUS
 10
-226.756399370
 20
0.349079897
 40
1.000000000
 50
270.000000000
 51
360.000000000
  0
ARC
  8
1
 62
7
  6
CONTINUOUS
 10
-226.756399370
 20
2.349079897
 40
1.000000000
 50
0.000000000
 51
90.000000000
  0
LINE
  8
1
 62
7
  6
CONTINUOUS
 10
-225.756399370
 20
2.349079897
 11
-225.756399370
 21
0.349079897
  0
LINE
  8
2
 62
7
  6
CONTINUOUS
 10
-385.256399370
 20
-35.616583553
 11
-353.938420983
 21
-27.531388626
  0
LINE
  8
1
 62
7
  6
CONTINUOUS
 10
-226.756399370
 20
-0.650920103
 11
-240.756399370
 21
-0.650920103
  0
LINE
  8
1
 62
7
  6
CONTINUOUS
 10
-226.756399370
 20
3.349079897
 11
-240.756399370
 21
3.349079897
  0
ARC
  8
1
 62
7
  6
CONTINUOUS
 10
-226.756399370
 20
-10.650920103
 40
1.000000000
 50
270.000000000
 51
0.000000000
  0
ARC
  8
1
 62
7
  6
CONTINUOUS
 10
-226.756399370
 20
-8.650920103
 40
1.000000000
 50
0.000000000
 51
90.000000000
  0
LINE
  8
1
 62
7
  6
CONTINUOUS
 10
-225.756399370
 20
-8.650920103
 11
-225.756399370
 21
-10.650920103
  0
LINE
  8
1
 62
7
  6
CONTINUOUS
 10
-226.756399370
 20
-11.650920103
 11
-240.756399370
 21
-11.650920103
  0
LINE
  8
1
 62
7
  6
CONTINUOUS
 10
-226.756399370
 20
-7.650920103
 11
-240.756399370
 21
-7.650920103
  0
ARC
  8
1
 62
7
  6
CONTINUOUS
 10
-226.756399370
 20
-19.650920103
 40
1.000000000
 50
0.000000000
 51
90.000000000
  0
LINE
  8
1
 62
7
  6
CONTINUOUS
 10
-225.756399370
 20
-19.650920103
 11
-225.756399370
 21
-20.650920103
  0
LINE
  8
1
 62
7
  6
CONTINUOUS
 10
-226.756399370
 20
-18.650920103
 11
-240.756399370
 21
-18.650920103
  0
LINE
  8
1
 62
7
  6
CONTINUOUS
 10
-225.756399370
 20
-43.650920103
 11
-225.756399370
 21
-41.650920103
  0
ARC
  8
1
 62
7
  6
CONTINUOUS
 10
-226.756399370
 20
-43.650920103
 40
1.000000000
 50
270.000000000
 51
0.000000000
  0
ARC
  8
1
 62
7
  6
CONTINUOUS
 10
-226.756399370
 20
-41.650920103
 40
1.000000000
 50
0.000000000
 51
90.000000000
  0
LINE
  8
1
 62
7
  6
CONTINUOUS
 10
-226.756399370
 20
-55.650920103
 11
-240.756399370
 21
-55.650920103
  0
LINE
  8
1
 62
7
  6
CONTINUOUS
 10
-226.756399370
 20
-51.650920103
 11
-240.756399370
 21
-51.650920103
  0
LINE
  8
1
 62
7
  6
CONTINUOUS
 10
-225.756399370
 20
-54.650920103
 11
-225.756399370
 21
-52.650920103
  0
ARC
  8
1
 62
7
  6
CONTINUOUS
 10
-226.756399370
 20
-54.650920103
 40
1.000000000
 50
270.000000000
 51
0.000000000
  0
ARC
  8
1
 62
7
  6
CONTINUOUS
 10
-226.756399370
 20
-52.650920103
 40
1.000000000
 50
0.000000000
 51
90.000000000
  0
LINE
  8
1
 62
7
  6
CONTINUOUS
 10
-226.756399370
 20
-66.650920103
 11
-240.756399370
 21
-66.650920103
  0
LINE
  8
1
 62
7
  6
CONTINUOUS
 10
-226.756399370
 20
-62.650920103
 11
-240.756399370
 21
-62.650920103
  0
LINE
  8
1
 62
7
  6
CONTINUOUS
 10
-225.756399370
 20
-65.650920103
 11
-225.756399370
 21
-63.650920103
  0
ARC
  8
1
 62
7
  6
CONTINUOUS
 10
-226.756399370
 20
-65.650920103
 40
1.000000000
 50
270.000000000
 51
0.000000000
  0
ARC
  8
1
 62
7
  6
CONTINUOUS
 10
-226.756399370
 20
-63.650920103
 40
1.000000000
 50
0.000000000
 51
90.000000000
  0
LINE
  8
1
 62
7
  6
CONTINUOUS
 10
-226.756399370
 20
-77.650920103
 11
-240.756399370
 21
-77.650920103
  0
LINE
  8
1
 62
7
  6
CONTINUOUS
 10
-226.756399370
 20
-73.650920103
 11
-240.756399370
 21
-73.650920103
  0
LINE
  8
1
 62
7
  6
CONTINUOUS
 10
-225.756399370
 20
-76.650920103
 11
-225.756399370
 21
-74.650920103
  0
ARC
  8
1
 62
7
  6
CONTINUOUS
 10
-226.756399370
 20
-76.650920103
 40
1.000000000
 50
270.000000000
 51
0.000000000
  0
ARC
  8
1
 62
7
  6
CONTINUOUS
 10
-226.756399370
 20
-74.650920103
 40
1.000000000
 50
0.000000000
 51
90.000000000
  0
LINE
  8
1
 62
7
  6
CONTINUOUS
 10
-226.756399370
 20
-88.650920103
 11
-240.756399370
 21
-88.650920103
  0
LINE
  8
1
 62
7
  6
CONTINUOUS
 10
-226.756399370
 20
-84.650920103
 11
-240.756399370
 21
-84.650920103
  0
LINE
  8
1
 62
7
  6
CONTINUOUS
 10
-225.756399370
 20
-87.650920103
 11
-225.756399370
 21
-85.650920103
  0
ARC
  8
1
 62
7
  6
CONTINUOUS
 10
-226.756399370
 20
-87.650920103
 40
1.000000000
 50
270.000000000
 51
0.000000000
  0
ARC
  8
1
 62
7
  6
CONTINUOUS
 10
-226.756399370
 20
-85.650920103
 40
1.000000000
 50
0.000000000
 51
90.000000000
  0
LINE
  8
1
 62
7
  6
CONTINUOUS
 10
-226.756399370
 20
-99.650920103
 11
-240.756399370
 21
-99.650920103
  0
LINE
  8
1
 62
7
  6
CONTINUOUS
 10
-226.756399370
 20
-95.650920103
 11
-240.756399370
 21
-95.650920103
  0
LINE
  8
1
 62
7
  6
CONTINUOUS
 10
-225.756399370
 20
-98.650920103
 11
-225.756399370
 21
-96.650920103
  0
ARC
  8
1
 62
7
  6
CONTINUOUS
 10
-226.756399370
 20
-98.650920103
 40
1.000000000
 50
270.000000000
 51
0.000000000
  0
ARC
  8
1
 62
7
  6
CONTINUOUS
 10
-226.756399370
 20
-96.650920103
 40
1.000000000
 50
0.000000000
 51
90.000000000
  0
LINE
  8
1
 62
7
  6
CONTINUOUS
 10
-226.756399370
 20
-110.650920103
 11
-240.756399370
 21
-110.650920103
  0
LINE
  8
1
 62
7
  6
CONTINUOUS
 10
-226.756399370
 20
-106.650920103
 11
-240.756399370
 21
-106.650920103
  0
LINE
  8
1
 62
7
  6
CONTINUOUS
 10
-225.756399370
 20
-109.650920103
 11
-225.756399370
 21
-107.650920103
  0
ARC
  8
1
 62
7
  6
CONTINUOUS
 10
-226.756399370
 20
-109.650920103
 40
1.000000000
 50
270.000000000
 51
0.000000000
  0
ARC
  8
1
 62
7
  6
CONTINUOUS
 10
-226.756399370
 20
-107.650920103
 40
1.000000000
 50
0.000000000
 51
90.000000000
  0
LINE
  8
1
 62
7
  6
CONTINUOUS
 10
-226.756399370
 20
-121.650920103
 11
-240.756399370
 21
-121.650920103
  0
LINE
  8
1
 62
7
  6
CONTINUOUS
 10
-226.756399370
 20
-117.650920103
 11
-240.756399370
 21
-117.650920103
  0
LINE
  8
1
 62
7
  6
CONTINUOUS
 10
-225.756399370
 20
-120.650920103
 11
-225.756399370
 21
-118.650920103
  0
ARC
  8
1
 62
7
  6
CONTINUOUS
 10
-226.756399370
 20
-120.650920103
 40
1.000000000
 50
270.000000000
 51
0.000000000
  0
ARC
  8
1
 62
7
  6
CONTINUOUS
 10
-226.756399370
 20
-140.650920103
 40
1.000000000
 50
0.000000000
 51
90.000000000
  0
LINE
  8
2
 62
2
  6
DASHDOT2
 10
-502.530581874
 20
-20.650920103
 11
-213.432564845
 21
-20.650920103
  0
ARC
  8
1
 62
7
  6
CONTINUOUS
 10
-226.756399370
 20
-151.650920103
 40
1.000000000
 50
0.000000000
 51
90.000000000
  0
ARC
  8
7
 62
7
  6
CONTINUOUS
 10
-334.756399370
 20
126.840429185
 40
1.000000000
 50
90.000000000
 51
180.000000000
  0
LINE
  8
7
 62
7
  6
CONTINUOUS
 10
-266.747672835
 20
127.840429185
 11
-334.756399370
 21
127.840429185
  0
ARC
  8
7
 62
7
  6
CONTINUOUS
 10
-266.756399370
 20
-170.142231313
 40
1.000000000
 50
0.000000000
 51
89.500000000
  0
LINE
  8
2
 62
7
  6
CONTINUOUS
 10
-266.356399370
 20
-187.650920103
 11
-265.756399370
 21
-187.650920103
  0
LINE
  8
2
 62
7
  6
CONTINUOUS
 10
-422.656399370
 20
-165.150920103
 11
-473.756399370
 21
-165.150920103
  0
LINE
  8
7
 62
7
  6
CONTINUOUS
 10
-266.747672835
 20
-169.142269390
 11
-334.756399370
 21
-169.142269390
  0
LINE
  8
3
 62
7
  6
CONTINUOUS
 10
89.226070095
 20
461.967258169
 11
89.226070095
 21
464.467258169
  0
LINE
  8
3
 62
7
  6
CONTINUOUS
 10
89.226070095
 20
464.467258169
 11
75.926070095
 21
464.467258169
  0
LINE
  8
3
 62
7
  6
CONTINUOUS
 10
74.426070095
 20
465.967258169
 11
74.426070095
 21
488.567258169
  0
LINE
  8
3
 62
7
  6
CONTINUOUS
 10
69.426070095
 20
493.567258169
 11
33.226070095
 21
493.567258169
  0
LINE
  8
3
 62
7
  6
CONTINUOUS
 10
75.926070095
 20
464.467258169
 11
72.726070095
 21
464.467258169
  0
LINE
  8
3
 62
7
  6
CONTINUOUS
 10
89.226070095
 20
461.967258169
 11
72.726070095
 21
461.967258169
  0
ARC
  8
3
 62
7
  6
CONTINUOUS
 10
75.926070095
 20
465.967258169
 40
1.500000000
 50
180.000000000
 51
270.000000000
  0
ARC
  8
3
 62
7
  6
CONTINUOUS
 10
69.426070095
 20
488.567258169
 40
5.000000000
 50
0.000000000
 51
90.000000000
  0
ARC
  8
2
 62
7
  6
CONTINUOUS
 10
-393.406399370
 20
-28.425542453
 40
1.000000000
 50
104.475672986
 51
180.000000000
  0
ARC
  8
3
 62
7
  6
CONTINUOUS
 10
-2.973929905
 20
488.567258169
 40
5.000000000
 50
90.000000000
 51
180.000000000
  0
LINE
  8
3
 62
7
  6
CONTINUOUS
 10
-2.973929905
 20
493.567258169
 11
33.226070095
 21
493.567258169
  0
LINE
  8
3
 62
7
  6
CONTINUOUS
 10
-7.973929905
 20
468.067258169
 11
-7.973929905
 21
488.567258169
  0
LINE
  8
3
 62
7
  6
CONTINUOUS
 10
-447.656399370
 20
-46.850920103
 11
-468.756399370
 21
-46.850920103
  0
LINE
  8
2
 62
7
  6
CONTINUOUS
 10
101.026070095
 20
443.067258169
 11
101.026070095
 21
493.567258169
  0
LINE
  8
2
 62
7
  6
CONTINUOUS
 10
101.026070095
 20
493.567258169
 11
161.026070095
 21
493.567258169
  0
LINE
  8
8
 62
7
  6
CONTINUOUS
 10
-441.556399370
 20
62.945668053
 11
-441.556399370
 21
19.349079897
  0
ARC
  8
8
 62
7
  6
CONTINUOUS
 10
-428.190373966
 20
63.445668053
 40
13.375374204
 50
122.142337532
 51
182.142337532
  0
LINE
  8
8
 62
7
  6
CONTINUOUS
 10
-422.656399370
 20
82.074466505
 11
-435.306399370
 21
74.770985600
  0
CIRCLE
  8
2
 62
7
  6
CONTINUOUS
 10
-365.256399370
 20
-60.650920103
 40
47.500000000
  0
ARC
  8
2
 62
7
  6
CONTINUOUS
 10
-365.256399370
 20
-60.650920103
 40
63.500000000
 50
32.424952812
 51
327.575047188
  0
ARC
  8
2
 62
7
  6
CONTINUOUS
 10
-365.256399370
 20
-60.650920103
 40
40.500000000
 50
286.459177744
 51
360.000000000
  0
LINE
  8
2
 62
7
  6
CONTINUOUS
 10
-390.756399370
 20
-89.945679580
 11
-353.781448100
 21
-99.491304928
  0
LINE
  8
2
 62
7
  6
CONTINUOUS
 10
-390.756399370
 20
-60.650920103
 11
-390.756399370
 21
-89.945679580
  0
LINE
  8
2
 62
7
  6
CONTINUOUS
 10
-385.256399370
 20
-60.650920103
 11
-385.256399370
 21
-85.685256656
  0
LINE
  8
2
 62
7
  6
CONTINUOUS
 10
-87.873929905
 20
467.567258169
 11
-87.273929905
 21
467.567258169
  0
LINE
  8
2
 62
7
  6
CONTINUOUS
 10
-109.773929905
 20
285.567258169
 11
-87.273929905
 21
285.567258169
  0
LINE
  8
2
 62
7
  6
CONTINUOUS
 10
-394.406399370
 20
-28.425542453
 11
-394.406399370
 21
-34.450920103
  0
LINE
  8
2
 62
7
  6
CONTINUOUS
 10
-88.473929905
 20
448.567258169
 11
-87.873929905
 21
448.567258169
  0
LINE
  8
1
 62
2
  6
DASHDOT2
 10
-400.403396573
 20
139.348828957
 11
-390.683240623
 21
139.348828957
  0
ARC
  8
1
 62
7
  6
CONTINUOUS
 10
-394.056399370
 20
126.849079919
 40
1.800000000
 50
180.000000000
 51
270.000000000
  0
ARC
  8
1
 62
7
  6
CONTINUOUS
 10
-394.056399370
 20
168.848828957
 40
1.800000000
 50
90.000000000
 51
180.000000000
  0
LINE
  8
1
 62
7
  6
CONTINUOUS
 10
-395.856399370
 20
126.849079919
 11
-395.856399370
 21
168.848828957
  0
ARC
  8
1
 62
7
  6
CONTINUOUS
 10
-394.056399370
 20
126.848828957
 40
3.000000000
 50
180.000000000
 51
270.000110608
  0
LINE
  8
7
 62
7
  6
CONTINUOUS
 10
-394.056399369
 20
125.048827413
 11
-335.756399995
 21
125.048944758
  0
ARC
  8
2
 62
7
  6
CONTINUOUS
 10
-365.256399370
 20
-60.650920103
 40
45.000000000
 50
0.000000000
 51
74.826133844
  0
ARC
  8
2
 62
7
  6
CONTINUOUS
 10
-365.256399370
 20
-60.650920103
 40
45.000000000
 50
285.173866156
 51
360.000000000
  0
LINE
  8
2
 62
7
  6
CONTINUOUS
 10
-106.473929905
 20
438.567258169
 11
-88.473929905
 21
438.567258169
  0
LINE
  8
1
 62
7
  6
CONTINUOUS
 10
-395.856399370
 20
129.345879441
 11
-391.559599848
 21
125.049079919
  0
LINE
  8
1
 62
7
  6
CONTINUOUS
 10
-397.056399370
 20
133.057589707
 11
-395.856399370
 21
133.057589707
  0
LINE
  8
1
 62
7
  6
CONTINUOUS
 10
-389.056399370
 20
171.848828957
 11
-394.056399370
 21
171.848828957
  0
LINE
  8
1
 62
7
  6
CONTINUOUS
 10
-389.056399370
 20
170.648828957
 11
-389.056399370
 21
171.848828957
  0
LINE
  8
2
 62
7
  6
CONTINUOUS
 10
-132.473929905
 20
336.067258169
 11
-132.473929905
 21
434.067258169
  0
LINE
  8
1
 62
7
  6
CONTINUOUS
 10
-397.056399370
 20
168.848828957
 11
-397.056399370
 21
126.848828957
  0
LINE
  8
1
 62
7
  6
CONTINUOUS
 10
-473.756399369
 20
123.848676053
 11
-335.756426984
 21
123.848940806
  0
ARC
  8
1
 62
7
  6
CONTINUOUS
 10
-394.056399370
 20
168.848828957
 40
3.000000000
 50
90.000000000
 51
180.000000000
  0
LINE
  8
1
 62
7
  6
CONTINUOUS
 10
-394.056399370
 20
170.648828957
 11
-389.056399370
 21
170.648828957
  0
LINE
  8
2
 62
7
  6
CONTINUOUS
 10
-90.372493987
 20
331.567258169
 11
-106.473929905
 21
331.567258169
  0
LINE
  8
2
 62
7
  6
CONTINUOUS
 10
-106.473929905
 20
331.567258169
 11
-106.473929905
 21
438.567258169
  0
LINE
  8
1
 62
7
  6
CONTINUOUS
 10
87.726070095
 20
-199.650920103
 11
87.726070095
 21
-213.150920103
  0
LINE
  8
1
 62
7
  6
CONTINUOUS
 10
113.726070095
 20
-199.650920103
 11
113.726070095
 21
-213.150920103
  0
LINE
  8
1
 62
1
  6
HIDDEN2
 10
101.726070095
 20
-199.650920103
 11
101.726070095
 21
-180.650920103
  0
LINE
  8
1
 62
7
  6
CONTINUOUS
 10
113.726070095
 20
-211.950920103
 11
127.726070095
 21
-211.950920103
  0
LINE
  8
1
 62
7
  6
CONTINUOUS
 10
113.726070095
 20
-213.150920103
 11
127.726070095
 21
-213.150920103
  0
CIRCLE
  8
5
 62
1
  6
HIDDEN2
 10
-100.273929905
 20
-60.650920103
 40
2.250000000
  0
LINE
  8
5
 62
7
  6
CONTINUOUS
 10
-86.773929905
 20
-193.650920103
 11
302.226070095
 21
-193.650920103
  0
LINE
  8
1
 62
1
  6
HIDDEN2
 10
113.726070095
 20
-180.650920103
 11
113.726070095
 21
-199.650920103
  0
LINE
  8
1
 62
7
  6
CONTINUOUS
 10
101.726070095
 20
-213.150920103
 11
101.726070095
 21
-199.650920103
  0
ARC
  8
1
 62
1
  6
HIDDEN2
 10
107.726070095
 20
-180.650920103
 40
6.000000000
 50
0.000000000
 51
180.000000000
  0
LINE
  8
1
 62
7
  6
CONTINUOUS
 10
87.726070095
 20
-211.950920103
 11
101.726070095
 21
-211.950920103
  0
LINE
  8
1
 62
1
  6
HIDDEN2
 10
87.726070095
 20
-165.150920103
 11
127.726070095
 21
-165.150920103
  0
LINE
  8
1
 62
7
  6
CONTINUOUS
 10
87.726070095
 20
158.349079897
 11
306.726070095
 21
158.349079897
  0
LINE
  8
1
 62
1
  6
HIDDEN2
 10
87.726070095
 20
-199.650920103
 11
87.726070095
 21
-165.150920103
  0
LINE
  8
1
 62
7
  6
CONTINUOUS
 10
127.726070095
 20
171.849079897
 11
127.726070095
 21
158.349079897
  0
LINE
  8
1
 62
7
  6
CONTINUOUS
 10
87.726070095
 20
171.849079897
 11
101.726070095
 21
171.849079897
  0
LINE
  8
1
 62
1
  6
HIDDEN2
 10
127.726070095
 20
123.849079897
 11
127.726070095
 21
158.349079897
  0
LINE
  8
1
 62
1
  6
HIDDEN2
 10
127.726070095
 20
-165.150920103
 11
127.726070095
 21
-199.650920103
  0
LINE
  8
1
 62
1
  6
HIDDEN2
 10
87.726070095
 20
158.349079897
 11
87.726070095
 21
123.849079897
  0
LINE
  8
1
 62
1
  6
HIDDEN2
 10
87.726070095
 20
123.849079897
 11
127.726070095
 21
123.849079897
  0
LINE
  8
1
 62
7
  6
CONTINUOUS
 10
87.726070095
 20
-213.150920103
 11
101.726070095
 21
-213.150920103
  0
LINE
  8
1
 62
7
  6
CONTINUOUS
 10
127.726070095
 20
-213.150920103
 11
127.726070095
 21
-199.650920103
  0
LINE
  8
1
 62
7
  6
CONTINUOUS
 10
87.726070095
 20
170.649079897
 11
101.726070095
 21
170.649079897
  0
ARC
  8
1
 62
1
  6
HIDDEN2
 10
107.726070095
 20
139.349079897
 40
6.000000000
 50
180.000000000
 51
0.000000000
  0
LINE
  8
1
 62
7
  6
CONTINUOUS
 10
101.726070095
 20
171.849079897
 11
101.726070095
 21
158.349079897
  0
LINE
  8
1
 62
1
  6
HIDDEN2
 10
113.726070095
 20
139.349079897
 11
113.726070095
 21
158.349079897
  0
ARC
  8
5
 62
7
  6
CONTINUOUS
 10
-86.773929905
 20
-165.150920103
 40
28.500000000
 50
180.000000000
 51
270.000000000
  0
ARC
  8
5
 62
7
  6
CONTINUOUS
 10
-86.773929905
 20
123.849079897
 40
28.500000000
 50
90.000000000
 51
180.000000000
  0
LINE
  8
1
 62
7
  6
CONTINUOUS
 10
113.726070095
 20
171.849079897
 11
127.726070095
 21
171.849079897
  0
LINE
  8
1
 62
7
  6
CONTINUOUS
 10
113.726070095
 20
170.649079897
 11
127.726070095
 21
170.649079897
  0
LINE
  8
1
 62
1
  6
HIDDEN2
 10
101.726070095
 20
158.349079897
 11
101.726070095
 21
139.349079897
  0
LINE
  8
1
 62
7
  6
CONTINUOUS
 10
113.726070095
 20
158.349079897
 11
113.726070095
 21
171.849079897
  0
LINE
  8
1
 62
7
  6
CONTINUOUS
 10
87.726070095
 20
158.349079897
 11
87.726070095
 21
171.849079897
  0
LINE
  8
1
 62
7
  6
CONTINUOUS
 10
113.726070095
 20
416.367258169
 11
101.726070095
 21
416.367258169
  0
LINE
  8
1
 62
7
  6
CONTINUOUS
 10
101.726070095
 20
417.567258169
 11
101.726070095
 21
409.567258169
  0
LINE
  8
1
 62
7
  6
CONTINUOUS
 10
113.726070095
 20
417.567258169
 11
113.726070095
 21
409.567258169
  0
LINE
  8
1
 62
7
  6
CONTINUOUS
 10
127.726070095
 20
409.567258169
 11
87.726070095
 21
409.567258169
  0
LINE
  8
1
 62
7
  6
CONTINUOUS
 10
87.726070095
 20
417.567258169
 11
87.726070095
 21
355.567258169
  0
LINE
  8
1
 62
7
  6
CONTINUOUS
 10
127.726070095
 20
417.567258169
 11
87.726070095
 21
417.567258169
  0
LINE
  8
1
 62
7
  6
CONTINUOUS
 10
127.726070095
 20
355.567258169
 11
127.726070095
 21
417.567258169
  0
LINE
  8
1
 62
2
  6
DASHDOT2
 10
107.726070095
 20
274.728907360
 11
107.726070095
 21
424.395525262
  0
LINE
  8
1
 62
1
  6
HIDDEN2
 10
314.976070095
 20
103.599079897
 11
320.476070095
 21
103.599079897
  0
LINE
  8
1
 62
1
  6
HIDDEN2
 10
320.476070095
 20
99.099079897
 11
314.976070095
 21
99.099079897
  0
CIRCLE
  8
5
 62
1
  6
HIDDEN2
 10
317.726070095
 20
-20.650920103
 40
2.500000000
  0
CIRCLE
  8
5
 62
1
  6
HIDDEN2
 10
-7.273929905
 20
-178.650920103
 40
2.500000000
  0
CIRCLE
  8
1
 62
1
  6
HIDDEN2
 10
140.726070095
 20
-176.650920103
 40
5.500000000
  0
CIRCLE
  8
1
 62
1
  6
HIDDEN2
 10
140.726070095
 20
-176.650920103
 40
2.250000000
  0
LINE
  8
1
 62
1
  6
HIDDEN2
 10
136.684618164
 20
-176.650920103
 11
138.705344129
 21
-173.150920062
  0
LINE
  8
5
 62
2
  6
DASHDOT2
 10
107.726070095
 20
142.367562303
 11
107.726070095
 21
130.317852278
  0
LINE
  8
5
 62
2
  6
DASHDOT2
 10
-102.273929905
 20
106.975488628
 11
-102.273929905
 21
95.262871871
  0
LINE
  8
5
 62
2
  6
DASHDOT2
 10
113.352478826
 20
136.349079897
 11
101.639862069
 21
136.349079897
  0
LINE
  8
5
 62
2
  6
DASHDOT2
 10
-109.292412310
 20
101.349079897
 11
-94.242702286
 21
101.349079897
  0
ARC
  8
1
 62
1
  6
HIDDEN2
 10
-99.523929905
 20
101.349079897
 40
2.250000000
 50
270.000000000
 51
90.000000001
  0
LINE
  8
1
 62
1
  6
HIDDEN2
 10
-99.523929905
 20
103.599079897
 11
-105.023929905
 21
103.599079897
  0
ARC
  8
1
 62
1
  6
HIDDEN2
 10
-105.023929905
 20
101.349079897
 40
2.250000000
 50
90.000000000
 51
270.000000000
  0
ARC
  8
1
 62
1
  6
HIDDEN2
 10
314.976070095
 20
101.349079897
 40
2.250000000
 50
89.999999999
 51
270.000000000
  0
LINE
  8
5
 62
2
  6
DASHDOT2
 10
324.744552500
 20
101.349079897
 11
309.694842476
 21
101.349079897
  0
LINE
  8
5
 62
2
  6
DASHDOT2
 10
317.726070095
 20
106.975488628
 11
317.726070095
 21
95.262871871
  0
LINE
  8
1
 62
1
  6
HIDDEN2
 10
320.476070095
 20
-140.400920103
 11
314.976070095
 21
-140.400920103
  0
ARC
  8
1
 62
1
  6
HIDDEN2
 10
320.476070095
 20
-142.650920103
 40
2.250000000
 50
270.000000000
 51
90.000000000
  0
LINE
  8
1
 62
1
  6
HIDDEN2
 10
314.976070095
 20
-144.900920103
 11
320.476070095
 21
-144.900920103
  0
ARC
  8
1
 62
1
  6
HIDDEN2
 10
314.976070095
 20
-142.650920103
 40
2.250000000
 50
90.000000000
 51
270.000000001
  0
LINE
  8
5
 62
2
  6
DASHDOT2
 10
324.744552500
 20
-142.650920103
 11
309.694842476
 21
-142.650920103
  0
LINE
  8
1
 62
1
  6
HIDDEN2
 10
-105.023929905
 20
-150.400920103
 11
-99.523929905
 21
-150.400920103
  0
LINE
  8
1
 62
1
  6
HIDDEN2
 10
-105.023929905
 20
99.099079897
 11
-99.523929905
 21
99.099079897
  0
ARC
  8
1
 62
1
  6
HIDDEN2
 10
-105.023929905
 20
-152.650920103
 40
2.250000000
 50
90.000000000
 51
270.000000000
  0
LINE
  8
5
 62
7
  6
CONTINUOUS
 10
-115.273929905
 20
123.849079897
 11
-115.273929905
 21
-165.150920103
  0
LINE
  8
1
 62
1
  6
HIDDEN2
 10
-99.523929905
 20
-154.900920103
 11
-105.023929905
 21
-154.900920103
  0
ARC
  8
1
 62
1
  6
HIDDEN2
 10
-99.523929905
 20
-152.650920103
 40
2.250000000
 50
269.999999999
 51
90.000000000
  0
LINE
  8
5
 62
2
  6
DASHDOT2
 10
-109.292412310
 20
-152.650920103
 11
-94.242702286
 21
-152.650920103
  0
LINE
  8
5
 62
7
  6
CONTINUOUS
 10
302.226070095
 20
152.349079897
 11
-86.773929905
 21
152.349079897
  0
ARC
  8
5
 62
7
  6
CONTINUOUS
 10
302.226070095
 20
123.849079897
 40
28.500000000
 50
0.000000000
 51
90.000000000
  0
LINE
  8
5
 62
7
  6
CONTINUOUS
 10
330.726070095
 20
-165.150920103
 11
330.726070095
 21
123.849079897
  0
ARC
  8
5
 62
7
  6
CONTINUOUS
 10
302.226070095
 20
-165.150920103
 40
28.500000000
 50
270.000000000
 51
0.000000000
  0
LINE
  8
5
 62
2
  6
DASHDOT2
 10
113.352478826
 20
-177.650920103
 11
101.639862069
 21
-177.650920103
  0
LINE
  8
5
 62
2
  6
DASHDOT2
 10
107.726070095
 20
-183.669402508
 11
107.726070095
 21
-171.619692484
  0
ARC
  8
1
 62
1
  6
HIDDEN2
 10
320.476070095
 20
101.349079897
 40
2.250000000
 50
270.000000000
 51
90.000000000
  0
LINE
  8
5
 62
2
  6
DASHDOT2
 10
-109.293578626
 20
-60.650920103
 11
-92.937569870
 21
-60.650920103
  0
LINE
  8
2
 62
7
  6
CONTINUOUS
 10
-106.473929905
 20
331.567258169
 11
-112.473929905
 21
336.067258169
  0
LINE
  8
2
 62
7
  6
CONTINUOUS
 10
-112.473929905
 20
336.067258169
 11
-112.473929905
 21
434.067258169
  0
LINE
  8
2
 62
7
  6
CONTINUOUS
 10
-112.473929905
 20
434.067258169
 11
-106.473929905
 21
438.567258169
  0
LINE
  8
2
 62
7
  6
CONTINUOUS
 10
-134.473929905
 20
337.067258169
 11
-147.473929905
 21
337.067258169
  0
LINE
  8
2
 62
7
  6
CONTINUOUS
 10
-147.473929905
 20
433.067258169
 11
-134.473929905
 21
433.067258169
  0
LINE
  8
2
 62
7
  6
CONTINUOUS
 10
-147.473929905
 20
337.067258169
 11
-147.473929905
 21
433.067258169
  0
LINE
  8
2
 62
7
  6
CONTINUOUS
 10
-134.473929905
 20
336.067258169
 11
-134.473929905
 21
434.067258169
  0
LINE
  8
2
 62
7
  6
CONTINUOUS
 10
-134.473929905
 20
434.067258169
 11
-132.473929905
 21
434.067258169
  0
LINE
  8
2
 62
7
  6
CONTINUOUS
 10
-147.473929905
 20
337.067258169
 11
-153.473929905
 21
337.567258169
  0
LINE
  8
2
 62
7
  6
CONTINUOUS
 10
-153.473929905
 20
337.567258169
 11
-153.473929905
 21
432.567258169
  0
LINE
  8
2
 62
7
  6
CONTINUOUS
 10
-132.473929905
 20
434.067258169
 11
-112.473929905
 21
434.067258169
  0
LINE
  8
2
 62
7
  6
CONTINUOUS
 10
-112.473929905
 20
336.067258169
 11
-132.473929905
 21
336.067258169
  0
LINE
  8
6
 62
7
  6
CONTINUOUS
 10
-87.273929905
 20
468.067258169
 11
-7.273929905
 21
468.067258169
  0
LINE
  8
6
 62
7
  6
CONTINUOUS
 10
72.726070095
 20
356.167258169
 11
72.726070095
 21
468.067258169
  0
LINE
  8
6
 62
7
  6
CONTINUOUS
 10
72.726070095
 20
468.067258169
 11
-7.273929905
 21
468.067258169
  0
LINE
  8
2
 62
7
  6
CONTINUOUS
 10
34.726070095
 20
467.567258169
 11
-49.273929905
 21
467.567258169
  0
LINE
  8
2
 62
7
  6
CONTINUOUS
 10
-396.744017763
 20
-35.450920103
 11
-395.406399370
 21
-35.450920103
  0
LINE
  8
2
 62
7
  6
CONTINUOUS
 10
-396.744017763
 20
-31.650920103
 11
-396.744017763
 21
-60.650920103
  0
LINE
  8
2
 62
7
  6
CONTINUOUS
 10
-399.744017763
 20
-60.650920103
 11
-399.744017763
 21
-31.650920103
  0
ARC
  8
2
 62
7
  6
CONTINUOUS
 10
-398.244017763
 20
-31.650920103
 40
1.500000000
 50
0.000000000
 51
90.000000000
  0
ARC
  8
2
 62
7
  6
CONTINUOUS
 10
-365.256399370
 20
-60.650920103
 40
35.000000000
 50
0.000000000
 51
71.133099752
  0
ARC
  8
2
 62
7
  6
CONTINUOUS
 10
-353.739443963
 20
-18.184936796
 40
1.000000000
 50
74.826133844
 51
104.475672986
  0
ARC
  8
2
 62
7
  6
CONTINUOUS
 10
-395.406399370
 20
-34.450920103
 40
1.000000000
 50
270.000000000
 51
0.000000000
  0
LINE
  8
2
 62
7
  6
CONTINUOUS
 10
-393.656368289
 20
-27.457288592
 11
-353.989412882
 21
-17.216682935
  0
ARC
  8
2
 62
7
  6
CONTINUOUS
 10
-365.256399370
 20
-60.650920103
 40
43.500000000
 50
130.066640716
 51
130.066640716
  0
LINE
  8
2
 62
7
  6
CONTINUOUS
 10
-87.273929905
 20
443.567258169
 11
-87.273929905
 21
454.067258169
  0
LINE
  8
6
 62
7
  6
CONTINUOUS
 10
-87.273929905
 20
355.567258169
 11
-87.273929905
 21
468.067258169
  0
ARC
  8
2
 62
7
  6
CONTINUOUS
 10
-365.256399370
 20
-60.650920103
 40
40.500000000
 50
0.000000000
 51
73.540822256
  0
LINE
  8
2
 62
7
  6
CONTINUOUS
 10
-390.756399370
 20
-31.356160630
 11
-353.781448100
 21
-21.810535278
  0
LINE
  8
2
 62
7
  6
CONTINUOUS
 10
-390.756399370
 20
-60.650920103
 11
-390.756399370
 21
-31.356160630
  0
LINE
  8
2
 62
7
  6
CONTINUOUS
 10
-385.256399370
 20
-60.650920103
 11
-385.256399370
 21
-35.616583553
  0
LINE
  8
2
 62
7
  6
CONTINUOUS
 10
-394.406399370
 20
-92.876297753
 11
-394.406399370
 21
-86.850920103
  0
LINE
  8
2
 62
7
  6
CONTINUOUS
 10
-385.256399370
 20
-85.685256656
 11
-353.938420983
 21
-93.770451580
  0
LINE
  8
2
 62
7
  6
CONTINUOUS
 10
-399.744017763
 20
-60.650920103
 11
-399.744017763
 21
-89.650920103
  0
ARC
  8
2
 62
7
  6
CONTINUOUS
 10
-393.406399370
 20
-92.876297753
 40
1.000000000
 50
180.000000000
 51
255.524327014
  0
LINE
  8
2
 62
7
  6
CONTINUOUS
 10
-396.744017763
 20
-89.650920103
 11
-396.744017763
 21
-60.650920103
  0
LINE
  8
2
 62
7
  6
CONTINUOUS
 10
-396.744017763
 20
-85.850920103
 11
-395.406399370
 21
-85.850920103
  0
ARC
  8
2
 62
7
  6
CONTINUOUS
 10
-398.244017763
 20
-89.650920103
 40
1.500000000
 50
180.000000000
 51
270.000000000
  0
ARC
  8
2
 62
7
  6
CONTINUOUS
 10
-398.244017763
 20
-89.650920103
 40
1.500000000
 50
270.000000000
 51
0.000000000
  0
ARC
  8
2
 62
7
  6
CONTINUOUS
 10
-365.256399370
 20
-60.650920103
 40
35.000000000
 50
288.866900248
 51
360.000000000
  0
ARC
  8
2
 62
7
  6
CONTINUOUS
 10
-353.739443963
 20
-103.116903410
 40
1.000000000
 50
255.524327014
 51
285.173866156
  0
ARC
  8
2
 62
7
  6
CONTINUOUS
 10
-395.406399370
 20
-86.850920103
 40
1.000000000
 50
0.000000000
 51
90.000000000
  0
LINE
  8
2
 62
7
  6
CONTINUOUS
 10
-393.656368289
 20
-93.844551614
 11
-353.989412882
 21
-104.085157271
  0
ARC
  8
2
 62
7
  6
CONTINUOUS
 10
-365.256399370
 20
-60.650920103
 40
43.500000000
 50
229.933359284
 51
229.933359284
  0
CIRCLE
  8
2
 62
7
  6
CONTINUOUS
 10
-365.256399370
 20
-60.650920103
 40
53.500000000
  0
CIRCLE
  8
2
 62
7
  6
CONTINUOUS
 10
-365.256399370
 20
-60.650920103
 40
49.000000000
  0
LINE
  8
2
 62
7
  6
CONTINUOUS
 10
-423.756399370
 20
-165.150920103
 11
-368.756399370
 21
-165.150920103
  0
LINE
  8
2
 62
7
  6
CONTINUOUS
 10
-266.356399370
 20
-169.142269390
 11
-266.356399370
 21
-187.650920103
  0
ARC
  8
7
 62
7
  6
CONTINUOUS
 10
-334.756399370
 20
-168.142269390
 40
1.000000000
 50
180.000000000
 51
270.000000000
  0
LINE
  8
2
 62
7
  6
CONTINUOUS
 10
-265.756399370
 20
146.348744791
 11
-265.756399370
 21
123.848744791
  0
ARC
  8
7
 62
7
  6
CONTINUOUS
 10
-334.756399370
 20
126.840429185
 40
1.000000000
 50
90.000000000
 51
180.000000000
  0
LINE
  8
2
 62
7
  6
CONTINUOUS
 10
-134.473929905
 20
-109.850920103
 11
-134.473929905
 21
-108.650920103
  0
LINE
  8
2
 62
7
  6
CONTINUOUS
 10
-132.473929905
 20
-109.850920103
 11
-132.473929905
 21
-108.650920103
  0
LINE
  8
2
 62
7
  6
CONTINUOUS
 10
-134.473929905
 20
-109.850920103
 11
-132.473929905
 21
-109.850920103
  0
LINE
  8
2
 62
7
  6
CONTINUOUS
 10
-132.473929905
 20
-108.650920103
 11
-132.473929905
 21
-109.850920103
  0
LINE
  8
2
 62
7
  6
CONTINUOUS
 10
-134.473929905
 20
-108.650920103
 11
-134.473929905
 21
-109.850920103
  0
LINE
  8
2
 62
7
  6
CONTINUOUS
 10
-148.473929905
 20
-108.650920103
 11
-134.473929905
 21
-108.650920103
  0
LINE
  8
2
 62
7
  6
CONTINUOUS
 10
-153.473929905
 20
-107.950920103
 11
-148.473929905
 21
-108.650920103
  0
LINE
  8
2
 62
7
  6
CONTINUOUS
 10
-134.473929905
 20
-12.650920103
 11
-134.473929905
 21
-108.650920103
  0
LINE
  8
2
 62
7
  6
CONTINUOUS
 10
-132.473929905
 20
-109.850920103
 11
-134.473929905
 21
-109.850920103
  0
LINE
  8
2
 62
7
  6
CONTINUOUS
 10
-132.473929905
 20
-109.650920103
 11
-132.473929905
 21
-60.650920103
  0
LINE
  8
2
 62
7
  6
CONTINUOUS
 10
-121.273929905
 20
-109.650920103
 11
-132.473929905
 21
-109.650920103
  0
ARC
  8
10
 62
1
  6
HIDDEN
 10
301.226070095
 20
122.849079897
 40
1.000000000
 50
0.000000000
 51
90.000000000
  0
LINE
  8
2
 62
7
  6
CONTINUOUS
 10
-132.473929905
 20
-11.450920103
 11
-132.473929905
 21
-12.650920103
  0
LINE
  8
2
 62
7
  6
CONTINUOUS
 10
-134.473929905
 20
-11.450920103
 11
-132.473929905
 21
-11.450920103
  0
LINE
  8
2
 62
7
  6
CONTINUOUS
 10
-134.473929905
 20
-12.650920103
 11
-134.473929905
 21
-11.450920103
  0
LINE
  8
2
 62
7
  6
CONTINUOUS
 10
-148.473929905
 20
-12.650920103
 11
-134.473929905
 21
-12.650920103
  0
LINE
  8
2
 62
7
  6
CONTINUOUS
 10
-153.473929905
 20
-13.350920103
 11
-148.473929905
 21
-12.650920103
  0
LINE
  8
2
 62
7
  6
CONTINUOUS
 10
-134.473929905
 20
-11.450920103
 11
-134.473929905
 21
-12.650920103
  0
LINE
  8
2
 62
7
  6
CONTINUOUS
 10
-132.473929905
 20
-11.450920103
 11
-134.473929905
 21
-11.450920103
  0
LINE
  8
2
 62
7
  6
CONTINUOUS
 10
-132.473929905
 20
-12.650920103
 11
-132.473929905
 21
-11.450920103
  0
LINE
  8
2
 62
7
  6
CONTINUOUS
 10
-132.473929905
 20
-11.650920103
 11
-132.473929905
 21
-60.650920103
  0
LINE
  8
2
 62
7
  6
CONTINUOUS
 10
-121.273929905
 20
-11.650920103
 11
-132.473929905
 21
-11.650920103
  0
LINE
  8
2
 62
7
  6
CONTINUOUS
 10
-87.873929905
 20
467.567258169
 11
-87.873929905
 21
355.567258169
  0
LINE
  8
2
 62
7
  6
CONTINUOUS
 10
-88.473929905
 20
448.567258169
 11
-88.473929905
 21
355.567258169
  0
TEXT
  8
1
 62
7
  6
CONTINUOUS
 72
5
 10
-513.713202189
 20
567.113601758
 40
22.000000000
  1
[BF-511SR]
 41
0.926639926
 11
-343.829202189
 21
567.113601758
  0
LINE
  8
2
 62
7
  6
CONTINUOUS
 10
-153.473929905
 20
432.567258169
 11
-147.473929905
 21
433.067258169
  0
LINE
  8
2
 62
7
  6
CONTINUOUS
 10
-132.473929905
 20
336.067258169
 11
-134.473929905
 21
336.067258169
  0
ARC
  8
1
 62
1
  6
HIDDEN2
 10
107.726070095
 20
-180.400920103
 40
3.250000000
 50
180.000000000
 51
0.000000000
  0
LINE
  8
1
 62
1
  6
HIDDEN2
 10
138.705344129
 20
-173.150920062
 11
142.746796060
 21
-173.150920062
  0
LINE
  8
1
 62
1
  6
HIDDEN2
 10
142.746796060
 20
-173.150920062
 11
144.767522026
 21
-176.650920103
  0
LINE
  8
1
 62
1
  6
HIDDEN2
 10
144.767522026
 20
-176.650920103
 11
142.746796060
 21
-180.150920143
  0
LINE
  8
1
 62
1
  6
HIDDEN2
 10
142.746796060
 20
-180.150920143
 11
138.705344129
 21
-180.150920143
  0
LINE
  8
1
 62
1
  6
HIDDEN2
 10
138.705344129
 20
-180.150920143
 11
136.684618164
 21
-176.650920103
  0
CIRCLE
  8
1
 62
1
  6
HIDDEN2
 10
140.726070095
 20
135.349079897
 40
5.500000000
  0
LINE
  8
1
 62
1
  6
HIDDEN2
 10
104.476070095
 20
-180.400920103
 11
104.476070095
 21
-174.900920103
  0
ARC
  8
1
 62
1
  6
HIDDEN2
 10
107.726070095
 20
-174.900920103
 40
3.250000000
 50
359.999999999
 51
180.000000000
  0
LINE
  8
1
 62
1
  6
HIDDEN2
 10
110.976070095
 20
-174.900920103
 11
110.976070095
 21
-180.400920103
  0
CIRCLE
  8
1
 62
1
  6
HIDDEN2
 10
140.726070095
 20
135.349079897
 40
2.250000000
  0
LINE
  8
1
 62
1
  6
HIDDEN2
 10
136.684618164
 20
135.349079897
 11
138.705344129
 21
131.849079856
  0
LINE
  8
1
 62
1
  6
HIDDEN2
 10
138.705344129
 20
138.849079937
 11
136.684618164
 21
135.349079897
  0
LINE
  8
1
 62
1
  6
HIDDEN2
 10
142.746796060
 20
138.849079937
 11
138.705344129
 21
138.849079937
  0
LINE
  8
1
 62
1
  6
HIDDEN2
 10
144.767522026
 20
135.349079897
 11
142.746796060
 21
138.849079937
  0
LINE
  8
1
 62
1
  6
HIDDEN2
 10
142.746796060
 20
131.849079856
 11
144.767522026
 21
135.349079897
  0
LINE
  8
1
 62
1
  6
HIDDEN2
 10
138.705344129
 20
131.849079856
 11
142.746796060
 21
131.849079856
  0
ARC
  8
1
 62
1
  6
HIDDEN2
 10
107.726070095
 20
139.099079897
 40
3.250000000
 50
0.000000000
 51
180.000000000
  0
LINE
  8
1
 62
1
  6
HIDDEN2
 10
110.976070095
 20
133.599079897
 11
110.976070095
 21
139.099079897
  0
ARC
  8
1
 62
1
  6
HIDDEN2
 10
107.726070095
 20
133.599079897
 40
3.250000000
 50
180.000000000
 51
0.000000001
  0
LINE
  8
1
 62
1
  6
HIDDEN2
 10
104.476070095
 20
139.099079897
 11
104.476070095
 21
133.599079897
  0
ARC
  8
10
 62
1
  6
HIDDEN
 10
301.226070095
 20
-164.150920103
 40
1.000000000
 50
270.000000000
 51
0.000000000
  0
ARC
  8
10
 62
1
  6
HIDDEN
 10
-85.773929905
 20
-164.150920103
 40
1.000000000
 50
180.000000000
 51
270.000000000
  0
ARC
  8
10
 62
1
  6
HIDDEN
 10
-85.773929905
 20
122.849079897
 40
1.000000000
 50
90.000000000
 51
180.000000000
  0
LINE
  8
10
 62
1
  6
HIDDEN
 10
301.226070095
 20
123.849079897
 11
-85.773929905
 21
123.849079897
  0
LINE
  8
10
 62
1
  6
HIDDEN
 10
-86.773929905
 20
122.849079897
 11
-86.773929905
 21
-164.150920103
  0
LINE
  8
10
 62
1
  6
HIDDEN
 10
-85.773929905
 20
-165.150920103
 11
301.226070095
 21
-165.150920103
  0
LINE
  8
10
 62
1
  6
HIDDEN
 10
302.226070095
 20
-164.150920103
 11
302.226070095
 21
122.849079897
  0
LINE
  8
5
 62
2
  6
DASHDOT2
 10
-102.273929905
 20
922.396842572
 11
-102.273929905
 21
934.109459328
  0
LINE
  8
5
 62
7
  6
CONTINUOUS
 10
87.726070095
 20
623.023251303
 11
-86.773929905
 21
623.023251303
  0
LINE
  8
2
 62
2
  6
DASHDOT2
 10
107.726070095
 20
605.196297447
 11
107.726070095
 21
985.270716671
  0
LINE
  8
1
 62
7
  6
CONTINUOUS
 10
-91.273929905
 20
617.023251303
 11
87.726070095
 21
617.023251303
  0
LINE
  8
1
 62
7
  6
CONTINUOUS
 10
336.726070095
 20
647.023251303
 11
336.726070095
 21
945.023251303
  0
LINE
  8
1
 62
7
  6
CONTINUOUS
 10
306.726070095
 20
975.023251303
 11
127.726070095
 21
975.023251303
  0
LINE
  8
1
 62
7
  6
CONTINUOUS
 10
-121.273929905
 20
945.023251303
 11
-121.273929905
 21
885.023251303
  0
ARC
  8
1
 62
7
  6
CONTINUOUS
 10
-91.273929905
 20
945.023251303
 40
30.000000000
 50
90.000000000
 51
180.000000000
  0
ARC
  8
1
 62
7
  6
CONTINUOUS
 10
306.726070095
 20
945.023251303
 40
30.000000000
 50
0.000000000
 51
90.000000000
  0
ARC
  8
1
 62
7
  6
CONTINUOUS
 10
-91.273929905
 20
647.023251303
 40
30.000000000
 50
180.000000000
 51
270.000000000
  0
ARC
  8
1
 62
7
  6
CONTINUOUS
 10
306.726070095
 20
647.023251303
 40
30.000000000
 50
270.000000000
 51
0.000000000
  0
LINE
  8
2
 62
2
  6
DASHDOT2
 10
-165.636040076
 20
836.023251303
 11
-114.787912567
 21
836.023251303
  0
LINE
  8
1
 62
7
  6
CONTINUOUS
 10
110.976070095
 20
950.979691052
 11
110.976070095
 21
955.773251303
  0
LINE
  8
1
 62
1
  6
HIDDEN2
 10
104.476070095
 20
950.979691052
 11
104.476070095
 21
950.273251303
  0
LINE
  8
1
 62
7
  6
CONTINUOUS
 10
87.726070095
 20
975.023251303
 11
-91.273929905
 21
975.023251303
  0
LINE
  8
5
 62
7
  6
CONTINUOUS
 10
101.726070095
 20
969.023251303
 11
113.726070095
 21
969.023251303
  0
LINE
  8
5
 62
7
  6
CONTINUOUS
 10
127.726070095
 20
969.023251303
 11
302.226070095
 21
969.023251303
  0
LINE
  8
1
 62
7
  6
CONTINUOUS
 10
113.726070095
 20
975.023251303
 11
101.726070095
 21
975.023251303
  0
LINE
  8
1
 62
1
  6
HIDDEN2
 10
104.476070095
 20
641.066811553
 11
104.476070095
 21
641.773251303
  0
LINE
  8
5
 62
2
  6
DASHDOT2
 10
317.726070095
 20
912.396842572
 11
317.726070095
 21
924.109459328
  0
LINE
  8
2
 62
2
  6
DASHDOT2
 10
-165.636040076
 20
796.023251303
 11
354.823256237
 21
796.023251303
  0
LINE
  8
1
 62
7
  6
CONTINUOUS
 10
110.976070095
 20
641.066811553
 11
110.976070095
 21
636.273251303
  0
LINE
  8
1
 62
7
  6
CONTINUOUS
 10
87.726070095
 20
975.023251303
 11
87.726070095
 21
988.523251303
  0
LINE
  8
1
 62
7
  6
CONTINUOUS
 10
113.726070095
 20
975.023251303
 11
113.726070095
 21
988.523251303
  0
LINE
  8
1
 62
7
  6
CONTINUOUS
 10
101.726070095
 20
975.023251303
 11
101.726070095
 21
956.023251303
  0
LINE
  8
1
 62
7
  6
CONTINUOUS
 10
113.726070095
 20
987.323251303
 11
127.726070095
 21
987.323251303
  0
LINE
  8
1
 62
7
  6
CONTINUOUS
 10
113.726070095
 20
988.523251303
 11
127.726070095
 21
988.523251303
  0
CIRCLE
  8
5
 62
1
  6
HIDDEN2
 10
-100.273929905
 20
836.023251303
 40
2.250000000
  0
LINE
  8
5
 62
7
  6
CONTINUOUS
 10
-86.773929905
 20
969.023251303
 11
87.726070095
 21
969.023251303
  0
LINE
  8
1
 62
7
  6
CONTINUOUS
 10
113.726070095
 20
956.023251303
 11
113.726070095
 21
975.023251303
  0
LINE
  8
1
 62
7
  6
CONTINUOUS
 10
101.726070095
 20
988.523251303
 11
101.726070095
 21
975.023251303
  0
ARC
  8
1
 62
7
  6
CONTINUOUS
 10
107.726070095
 20
956.023251303
 40
6.000000000
 50
180.000000000
 51
0.000000000
  0
LINE
  8
1
 62
7
  6
CONTINUOUS
 10
87.726070095
 20
987.323251303
 11
101.726070095
 21
987.323251303
  0
LINE
  8
1
 62
7
  6
CONTINUOUS
 10
87.726070095
 20
940.523251303
 11
127.726070095
 21
940.523251303
  0
LINE
  8
1
 62
7
  6
CONTINUOUS
 10
101.726070095
 20
617.023251303
 11
113.726070095
 21
617.023251303
  0
LINE
  8
1
 62
7
  6
CONTINUOUS
 10
87.726070095
 20
975.023251303
 11
87.726070095
 21
940.523251303
  0
LINE
  8
1
 62
7
  6
CONTINUOUS
 10
127.726070095
 20
603.523251303
 11
127.726070095
 21
617.023251303
  0
LINE
  8
1
 62
7
  6
CONTINUOUS
 10
87.726070095
 20
603.523251303
 11
101.726070095
 21
603.523251303
  0
LINE
  8
1
 62
7
  6
CONTINUOUS
 10
127.726070095
 20
651.523251303
 11
127.726070095
 21
617.023251303
  0
LINE
  8
1
 62
7
  6
CONTINUOUS
 10
127.726070095
 20
940.523251303
 11
127.726070095
 21
975.023251303
  0
LINE
  8
1
 62
7
  6
CONTINUOUS
 10
87.726070095
 20
617.023251303
 11
87.726070095
 21
651.523251303
  0
LINE
  8
1
 62
7
  6
CONTINUOUS
 10
87.726070095
 20
651.523251303
 11
127.726070095
 21
651.523251303
  0
LINE
  8
1
 62
7
  6
CONTINUOUS
 10
87.726070095
 20
988.523251303
 11
101.726070095
 21
988.523251303
  0
LINE
  8
1
 62
7
  6
CONTINUOUS
 10
127.726070095
 20
988.523251303
 11
127.726070095
 21
975.023251303
  0
LINE
  8
1
 62
7
  6
CONTINUOUS
 10
87.726070095
 20
604.723251303
 11
101.726070095
 21
604.723251303
  0
ARC
  8
1
 62
7
  6
CONTINUOUS
 10
107.726070095
 20
636.023251303
 40
6.000000000
 50
0.000000000
 51
180.000000000
  0
LINE
  8
1
 62
7
  6
CONTINUOUS
 10
101.726070095
 20
603.523251303
 11
101.726070095
 21
617.023251303
  0
LINE
  8
1
 62
7
  6
CONTINUOUS
 10
113.726070095
 20
636.023251303
 11
113.726070095
 21
617.023251303
  0
ARC
  8
5
 62
7
  6
CONTINUOUS
 10
-86.773929905
 20
940.523251303
 40
28.500000000
 50
90.000000000
 51
180.000000000
  0
ARC
  8
5
 62
7
  6
CONTINUOUS
 10
-86.773929905
 20
651.523251303
 40
28.500000000
 50
180.000000000
 51
270.000000000
  0
LINE
  8
1
 62
7
  6
CONTINUOUS
 10
113.726070095
 20
603.523251303
 11
127.726070095
 21
603.523251303
  0
LINE
  8
1
 62
7
  6
CONTINUOUS
 10
113.726070095
 20
604.723251303
 11
127.726070095
 21
604.723251303
  0
LINE
  8
1
 62
7
  6
CONTINUOUS
 10
101.726070095
 20
617.023251303
 11
101.726070095
 21
636.023251303
  0
LINE
  8
1
 62
7
  6
CONTINUOUS
 10
113.726070095
 20
617.023251303
 11
113.726070095
 21
603.523251303
  0
LINE
  8
1
 62
7
  6
CONTINUOUS
 10
87.726070095
 20
617.023251303
 11
87.726070095
 21
603.523251303
  0
LINE
  8
1
 62
7
  6
CONTINUOUS
 10
314.976070095
 20
671.773251303
 11
320.476070095
 21
671.773251303
  0
LINE
  8
1
 62
7
  6
CONTINUOUS
 10
320.476070095
 20
676.273251303
 11
314.976070095
 21
676.273251303
  0
CIRCLE
  8
5
 62
7
  6
CONTINUOUS
 10
317.726070095
 20
796.023251303
 40
2.500000000
  0
CIRCLE
  8
5
 62
1
  6
HIDDEN2
 10
-7.273929905
 20
954.023251303
 40
2.500000000
  0
CIRCLE
  8
1
 62
7
  6
CONTINUOUS
 10
140.726070095
 20
952.023251303
 40
5.500000000
  0
CIRCLE
  8
1
 62
7
  6
CONTINUOUS
 10
140.726070095
 20
952.023251303
 40
2.250000000
  0
LINE
  8
1
 62
7
  6
CONTINUOUS
 10
136.684618164
 20
952.023251303
 11
138.705344129
 21
948.523251262
  0
LINE
  8
5
 62
2
  6
DASHDOT2
 10
107.726070095
 20
633.004768897
 11
107.726070095
 21
645.054478922
  0
LINE
  8
5
 62
2
  6
DASHDOT2
 10
-102.273929905
 20
668.396842572
 11
-102.273929905
 21
680.109459328
  0
LINE
  8
5
 62
2
  6
DASHDOT2
 10
113.352478826
 20
639.023251303
 11
101.639862069
 21
639.023251303
  0
LINE
  8
5
 62
2
  6
DASHDOT2
 10
-109.292412310
 20
674.023251303
 11
-94.242702286
 21
674.023251303
  0
ARC
  8
1
 62
7
  6
CONTINUOUS
 10
-99.523929905
 20
674.023251303
 40
2.250000000
 50
269.999999999
 51
90.000000000
  0
LINE
  8
1
 62
7
  6
CONTINUOUS
 10
-99.523929905
 20
671.773251303
 11
-105.023929905
 21
671.773251303
  0
ARC
  8
1
 62
7
  6
CONTINUOUS
 10
-105.023929905
 20
674.023251303
 40
2.250000000
 50
90.000000000
 51
270.000000000
  0
ARC
  8
1
 62
7
  6
CONTINUOUS
 10
314.976070095
 20
674.023251303
 40
2.250000000
 50
90.000000000
 51
270.000000001
  0
LINE
  8
5
 62
2
  6
DASHDOT2
 10
324.744552500
 20
674.023251303
 11
309.694842476
 21
674.023251303
  0
LINE
  8
5
 62
2
  6
DASHDOT2
 10
317.726070095
 20
668.396842572
 11
317.726070095
 21
680.109459328
  0
LINE
  8
1
 62
7
  6
CONTINUOUS
 10
320.476070095
 20
915.773251303
 11
314.976070095
 21
915.773251303
  0
ARC
  8
1
 62
7
  6
CONTINUOUS
 10
320.476070095
 20
918.023251303
 40
2.250000000
 50
270.000000000
 51
90.000000000
  0
LINE
  8
1
 62
7
  6
CONTINUOUS
 10
314.976070095
 20
920.273251303
 11
320.476070095
 21
920.273251303
  0
ARC
  8
1
 62
7
  6
CONTINUOUS
 10
314.976070095
 20
918.023251303
 40
2.250000000
 50
89.999999999
 51
270.000000000
  0
LINE
  8
5
 62
2
  6
DASHDOT2
 10
324.744552500
 20
918.023251303
 11
309.694842476
 21
918.023251303
  0
LINE
  8
1
 62
7
  6
CONTINUOUS
 10
-105.023929905
 20
925.773251303
 11
-99.523929905
 21
925.773251303
  0
LINE
  8
1
 62
7
  6
CONTINUOUS
 10
-105.023929905
 20
676.273251303
 11
-99.523929905
 21
676.273251303
  0
ARC
  8
1
 62
7
  6
CONTINUOUS
 10
-105.023929905
 20
928.023251303
 40
2.250000000
 50
90.000000000
 51
270.000000000
  0
LINE
  8
5
 62
7
  6
CONTINUOUS
 10
-115.273929905
 20
651.523251303
 11
-115.273929905
 21
787.023251303
  0
LINE
  8
1
 62
7
  6
CONTINUOUS
 10
-99.523929905
 20
930.273251303
 11
-105.023929905
 21
930.273251303
  0
ARC
  8
1
 62
7
  6
CONTINUOUS
 10
-99.523929905
 20
928.023251303
 40
2.250000000
 50
270.000000000
 51
90.000000001
  0
LINE
  8
5
 62
2
  6
DASHDOT2
 10
-109.292412310
 20
928.023251303
 11
-94.242702286
 21
928.023251303
  0
LINE
  8
5
 62
7
  6
CONTINUOUS
 10
302.226070095
 20
623.023251303
 11
127.726070095
 21
623.023251303
  0
ARC
  8
5
 62
7
  6
CONTINUOUS
 10
302.226070095
 20
651.523251303
 40
28.500000000
 50
270.000000000
 51
0.000000000
  0
LINE
  8
5
 62
7
  6
CONTINUOUS
 10
330.726070095
 20
940.523251303
 11
330.726070095
 21
651.523251303
  0
ARC
  8
5
 62
7
  6
CONTINUOUS
 10
302.226070095
 20
940.523251303
 40
28.500000000
 50
0.000000000
 51
90.000000000
  0
LINE
  8
5
 62
2
  6
DASHDOT2
 10
113.352478826
 20
953.023251303
 11
101.639862069
 21
953.023251303
  0
LINE
  8
5
 62
2
  6
DASHDOT2
 10
107.726070095
 20
959.041733708
 11
107.726070095
 21
946.992023684
  0
ARC
  8
1
 62
7
  6
CONTINUOUS
 10
320.476070095
 20
674.023251303
 40
2.250000000
 50
270.000000000
 51
90.000000000
  0
LINE
  8
5
 62
2
  6
DASHDOT2
 10
-109.293578626
 20
836.023251303
 11
-92.937569870
 21
836.023251303
  0
LINE
  8
1
 62
7
  6
CONTINUOUS
 10
127.726070095
 20
617.023251303
 11
306.726070095
 21
617.023251303
  0
LINE
  8
5
 62
7
  6
CONTINUOUS
 10
-115.273929905
 20
885.023251303
 11
-115.273929905
 21
940.523251303
  0
LINE
  8
1
 62
7
  6
CONTINUOUS
 10
-121.273929905
 20
787.023251303
 11
-121.273929905
 21
647.023251303
  0
LINE
  8
2
 62
7
  6
CONTINUOUS
 10
-132.473929905
 20
787.023251303
 11
-134.473929905
 21
787.023251303
  0
LINE
  8
2
 62
7
  6
CONTINUOUS
 10
-153.473929905
 20
883.523251303
 11
-147.473929905
 21
884.023251303
  0
LINE
  8
2
 62
7
  6
CONTINUOUS
 10
-112.473929905
 20
787.023251303
 11
-132.473929905
 21
787.023251303
  0
LINE
  8
2
 62
7
  6
CONTINUOUS
 10
-132.473929905
 20
885.023251303
 11
-112.473929905
 21
885.023251303
  0
LINE
  8
2
 62
7
  6
CONTINUOUS
 10
-153.473929905
 20
788.523251303
 11
-153.473929905
 21
883.523251303
  0
LINE
  8
2
 62
7
  6
CONTINUOUS
 10
-147.473929905
 20
788.023251303
 11
-153.473929905
 21
788.523251303
  0
LINE
  8
2
 62
7
  6
CONTINUOUS
 10
-134.473929905
 20
885.023251303
 11
-132.473929905
 21
885.023251303
  0
LINE
  8
2
 62
7
  6
CONTINUOUS
 10
-134.473929905
 20
787.023251303
 11
-134.473929905
 21
885.023251303
  0
ARC
  8
10
 62
7
  6
CONTINUOUS
 10
301.226070095
 20
652.523251303
 40
1.000000000
 50
270.000000000
 51
0.000000000
  0
LINE
  8
2
 62
7
  6
CONTINUOUS
 10
-147.473929905
 20
788.023251303
 11
-147.473929905
 21
884.023251303
  0
LINE
  8
2
 62
7
  6
CONTINUOUS
 10
-147.473929905
 20
884.023251303
 11
-134.473929905
 21
884.023251303
  0
LINE
  8
2
 62
7
  6
CONTINUOUS
 10
-134.473929905
 20
788.023251303
 11
-147.473929905
 21
788.023251303
  0
LINE
  8
2
 62
7
  6
CONTINUOUS
 10
-112.473929905
 20
885.023251303
 11
-106.473929905
 21
889.523251303
  0
LINE
  8
2
 62
7
  6
CONTINUOUS
 10
-112.473929905
 20
787.023251303
 11
-112.473929905
 21
885.023251303
  0
LINE
  8
2
 62
7
  6
CONTINUOUS
 10
-106.473929905
 20
782.523251303
 11
-112.473929905
 21
787.023251303
  0
LINE
  8
2
 62
7
  6
CONTINUOUS
 10
-106.473929905
 20
782.523251303
 11
-106.473929905
 21
889.523251303
  0
LINE
  8
2
 62
7
  6
CONTINUOUS
 10
-86.773929905
 20
782.523251303
 11
-106.473929905
 21
782.523251303
  0
LINE
  8
2
 62
7
  6
CONTINUOUS
 10
-132.473929905
 20
787.023251303
 11
-132.473929905
 21
885.023251303
  0
LINE
  8
2
 62
7
  6
CONTINUOUS
 10
-106.473929905
 20
889.523251303
 11
-86.773929905
 21
889.523251303
  0
ARC
  8
1
 62
7
  6
CONTINUOUS
 10
107.726070095
 20
955.773251303
 40
3.250000000
 50
0.000000000
 51
180.000000000
  0
LINE
  8
1
 62
7
  6
CONTINUOUS
 10
138.705344129
 20
948.523251262
 11
142.746796060
 21
948.523251262
  0
LINE
  8
1
 62
7
  6
CONTINUOUS
 10
142.746796060
 20
948.523251262
 11
144.767522026
 21
952.023251303
  0
LINE
  8
1
 62
7
  6
CONTINUOUS
 10
144.767522026
 20
952.023251303
 11
142.746796060
 21
955.523251343
  0
LINE
  8
1
 62
7
  6
CONTINUOUS
 10
142.746796060
 20
955.523251343
 11
138.705344129
 21
955.523251343
  0
LINE
  8
1
 62
7
  6
CONTINUOUS
 10
138.705344129
 20
955.523251343
 11
136.684618164
 21
952.023251303
  0
CIRCLE
  8
1
 62
7
  6
CONTINUOUS
 10
140.726070095
 20
640.023251303
 40
5.500000000
  0
LINE
  8
1
 62
7
  6
CONTINUOUS
 10
104.476070095
 20
955.773251303
 11
104.476070095
 21
950.979691052
  0
ARC
  8
1
 62
1
  6
HIDDEN2
 10
107.726070095
 20
950.273251303
 40
3.250000000
 50
180.000000000
 51
0.000000001
  0
LINE
  8
1
 62
1
  6
HIDDEN2
 10
110.976070095
 20
950.273251303
 11
110.976070095
 21
950.979691052
  0
CIRCLE
  8
1
 62
7
  6
CONTINUOUS
 10
140.726070095
 20
640.023251303
 40
2.250000000
  0
LINE
  8
1
 62
7
  6
CONTINUOUS
 10
136.684618164
 20
640.023251303
 11
138.705344129
 21
643.523251343
  0
LINE
  8
1
 62
7
  6
CONTINUOUS
 10
138.705344129
 20
636.523251263
 11
136.684618164
 21
640.023251303
  0
LINE
  8
1
 62
7
  6
CONTINUOUS
 10
142.746796060
 20
636.523251263
 11
138.705344129
 21
636.523251263
  0
LINE
  8
1
 62
7
  6
CONTINUOUS
 10
144.767522026
 20
640.023251303
 11
142.746796060
 21
636.523251263
  0
LINE
  8
1
 62
7
  6
CONTINUOUS
 10
142.746796060
 20
643.523251343
 11
144.767522026
 21
640.023251303
  0
LINE
  8
1
 62
7
  6
CONTINUOUS
 10
138.705344129
 20
643.523251343
 11
142.746796060
 21
643.523251343
  0
ARC
  8
1
 62
7
  6
CONTINUOUS
 10
107.726070095
 20
636.273251303
 40
3.250000000
 50
180.000000000
 51
0.000000000
  0
LINE
  8
1
 62
1
  6
HIDDEN2
 10
110.976070095
 20
641.773251303
 11
110.976070095
 21
641.066811553
  0
ARC
  8
1
 62
1
  6
HIDDEN2
 10
107.726070095
 20
641.773251303
 40
3.250000000
 50
359.999999999
 51
180.000000000
  0
LINE
  8
1
 62
7
  6
CONTINUOUS
 10
104.476070095
 20
636.273251303
 11
104.476070095
 21
641.066811553
  0
ARC
  8
10
 62
7
  6
CONTINUOUS
 10
301.226070095
 20
939.523251303
 40
1.000000000
 50
0.000000000
 51
90.000000000
  0
ARC
  8
10
 62
7
  6
CONTINUOUS
 10
-85.773929905
 20
939.523251303
 40
1.000000000
 50
90.000000000
 51
180.000000000
  0
ARC
  8
10
 62
1
  6
HIDDEN
 10
-85.773929905
 20
652.523251303
 40
1.000000000
 50
180.000000000
 51
270.000000000
  0
LINE
  8
10
 62
7
  6
CONTINUOUS
 10
301.226070095
 20
651.523251303
 11
-85.773929905
 21
651.523251303
  0
LINE
  8
10
 62
7
  6
CONTINUOUS
 10
-86.773929905
 20
652.523251303
 11
-86.773929905
 21
939.523251303
  0
LINE
  8
10
 62
7
  6
CONTINUOUS
 10
-85.773929905
 20
940.523251303
 11
301.226070095
 21
940.523251303
  0
LINE
  8
10
 62
7
  6
CONTINUOUS
 10
302.226070095
 20
939.523251303
 11
302.226070095
 21
652.523251303
  0
ENDSEC
  0
EOF
