  0
SECTION
  2
HEADER
  9
$ACADVER
  1
AC1009
  9
$INSBASE
 10
0.000000000
 20
0.000000000
  9
$EXTMIN
 10
-699.086453873
 20
-607.072215314
  9
$EXTMAX
 10
3132.616947643
 20
3806.446666229
  9
$LIMMIN
 10
-699.086453873
 20
-607.072215314
  9
$LIMMAX
 10
3132.616947643
 20
3806.446666229
  9
$SNAPBASE
 10
0.000000000
 20
0.000000000
  9
$SNAPANG
 50
0.000000000
  9
$SNAPSTYLE
 70
0
  9
$GRIDMODE
 70
0
  9
$GRIDUNIT
 10
0.000000000
 20
0.000000000
  9
$DIMEXO
 40
0.000000000
  9
$DIMDLI
 40
8.000000000
  9
$DIMDLE
 40
0.000000000
  9
$DIMEXE
 40
1.000000000
  9
$DIMTIH
 70
1
  9
$DIMTOH
 70
1
  9
$DIMTAD
 70
2
  9
$DIMZIN
 70
0
  9
$FILLETRAD
 40
1.000000000
  9
$CHAMFERA
 40
1.000000000
  9
$CHAMFERB
 40
1.000000000
  9
$TEXTSTYLE
  7
STANDARD
  9
$TDCREATE
 40
2454036.701493056
  9
$TDUPDATE
 40
2454036.701493056
  9
$ANGBASE
 50
0.000000000
  9
$ANGDIR
 70
0
  0
ENDSEC
  0
SECTION
  2
TABLES
  0
TABLE
  2
LTYPE
 70
7
  0
LTYPE
  2
CENTER
 70
64
  3
___ _ ___ _ __
 72
65
 73
4
 40
13.000000000
 49
8.500000000
 49
-1.500000000
 49
1.500000000
 49
-1.500000000
  0
LTYPE
  2
CONTINUOUS
 70
64
  3
______________
 72
65
 73
0
 40
0.000000000
  0
LTYPE
  2
DASHDOT
 70
64
  3
__ . __ . __ .
 72
65
 73
4
 40
13.000000000
 49
6.500000000
 49
-3.250000000
 49
0.000000000
 49
-3.250000000
  0
LTYPE
  2
DASHDOT2
 70
64
  3
_ . _ . _ . _ 
 72
65
 73
4
 40
10.000000000
 49
5.000000000
 49
-2.500000000
 49
0.000000000
 49
-2.500000000
  0
LTYPE
  2
DIVIDE
 70
64
  3
___ . . ___ . 
 72
65
 73
6
 40
12.999999523
 49
5.199999809
 49
-2.599999905
 49
0.000000000
 49
-2.599999905
 49
0.000000000
 49
-2.599999905
  0
LTYPE
  2
HIDDEN
 70
64
  3
__ __ __ __ __
 72
65
 73
2
 40
3.000000000
 49
2.000000000
 49
-1.000000000
  0
LTYPE
  2
HIDDEN2
 70
64
  3
_ _ _ _ _ _ _ 
 72
65
 73
2
 40
2.000000000
 49
1.399999976
 49
-0.600000024
  0
ENDTAB
  0
TABLE
  2
LAYER
 70
9
  0
LAYER
  2
1
 70
0
 62
7
  6
CONTINUOUS
999
1
  0
LAYER
  2
2
 70
0
 62
7
  6
CONTINUOUS
999
2
  0
LAYER
  2
3
 70
0
 62
3
  6
CONTINUOUS
999
3
  0
LAYER
  2
4
 70
0
 62
7
  6
CONTINUOUS
999
4
  0
LAYER
  2
5
 70
0
 62
4
  6
CONTINUOUS
999
5
  0
LAYER
  2
6
 70
0
 62
5
  6
CONTINUOUS
999
6
  0
LAYER
  2
7
 70
0
 62
6
  6
CONTINUOUS
999
7
  0
LAYER
  2
8
 70
0
 62
1
  6
CONTINUOUS
999
8
  0
LAYER
  2
9
 70
0
 62
1
  6
CONTINUOUS
999
9
  0
LAYER
  2
_CONSTR
 70
0
 62
5
  6
CONTINUOUS
  0
ENDTAB
  0
TABLE
  2
STYLE
 70
1
  0
STYLE
  2
STANDARD
 70
64
 40
0.000000000
 42
3.200000000
 41
0.600000000
 50
0.000000000
 71
0
  3
TXT
  4
BIGFONT
  0
STYLE
  2
VISION_STANDARD
 70
64
 40
0.000000000
 42
3.200000000
 41
0.600000000
 50
0.000000000
 71
0
  3
TXT
  4
BIGFONT
  0
ENDTAB
  0
TABLE
  2
VPORT
 70
2
  0
VPORT
  2
*ACTIVE
 70
0
 10
0.000000000
 20
0.000000000
 11
1.000000000
 21
1.000000000
 12
1216.765246885
 22
1599.687225458
 13
0.000000000
 23
0.000000000
 14
1.000000000
 24
1.000000000
 15
0.000000000
 25
0.000000000
 16
0.000000000
 26
0.000000000
 36
1.000000000
 17
0.000000000
 27
0.000000000
 37
0.000000000
 40
4413.518881542
 41
0.868174240
 42
50.000000000
 43
0.000000000
 44
0.000000000
 50
0.000000000
 51
0.000000000
 71
0
 72
100
 73
1
 74
1
 75
0
 76
0
 77
0
 78
0
  0
ENDTAB
  0
TABLE
  2
VIEW
 70
0
  0
ENDTAB
  0
TABLE
  2
DIMSTYLE
 70
1
  0
DIMSTYLE
  2
STANDARD
 70
0
  3

  4

  5

  6

  7

 40
1.000000000
 41
2.500000000
 42
0.000000000
 43
8.000000000
 44
1.000000000
 45
0.000000000
 46
0.000000000
 47
0.000000000
 48
0.000000000
140
3.200000000
141
2.500000000
142
0.000000000
143
0.039400000
144
1.000000000
145
0.000000000
146
1.000000000
147
0.625000000
 71
0
 72
0
 73
1
 74
1
 75
0
 76
0
 77
2
 78
8
170
0
171
2
172
0
173
0
174
0
175
0
176
0
177
0
178
0
  0
ENDTAB
  0
ENDSEC
  0
SECTION
  2
BLOCKS
  0
ENDSEC
  0
SECTION
  2
ENTITIES
  0
LINE
  8
1
 62
7
  6
CONTINUOUS
 10
882.282777421
 20
-150.650920103
 11
868.282777421
 21
-150.650920103
  0
LINE
  8
1
 62
7
  6
CONTINUOUS
 10
883.282777421
 20
-153.650920103
 11
883.282777421
 21
-151.650920103
  0
ARC
  8
1
 62
7
  6
CONTINUOUS
 10
882.282777421
 20
-153.650920103
 40
1.000000000
 50
270.000000000
 51
0.000000000
  0
LINE
  8
1
 62
7
  6
CONTINUOUS
 10
868.282777421
 20
-161.650920103
 11
882.282777421
 21
-161.650920103
  0
LINE
  8
1
 62
7
  6
CONTINUOUS
 10
876.282777421
 20
109.349079897
 11
876.282777421
 21
102.349079897
  0
LINE
  8
1
 62
7
  6
CONTINUOUS
 10
883.282777421
 20
-142.650920103
 11
883.282777421
 21
-140.650920103
  0
ARC
  8
1
 62
7
  6
CONTINUOUS
 10
882.282777421
 20
-142.650920103
 40
1.000000000
 50
270.000000000
 51
0.000000000
  0
LINE
  8
1
 62
7
  6
CONTINUOUS
 10
1274.665246885
 20
-117.650920103
 11
1274.665246885
 21
-110.650920103
  0
LINE
  8
1
 62
7
  6
CONTINUOUS
 10
1277.165246885
 20
-117.650920103
 11
1277.165246885
 21
-110.650920103
  0
ARC
  8
1
 62
7
  6
CONTINUOUS
 10
882.282777421
 20
-131.650920103
 40
1.000000000
 50
270.000000000
 51
0.000000000
  0
LINE
  8
1
 62
7
  6
CONTINUOUS
 10
876.282777421
 20
98.349079897
 11
876.282777421
 21
91.349079897
  0
LINE
  8
1
 62
7
  6
CONTINUOUS
 10
1216.765246885
 20
-99.650920103
 11
1435.787246885
 21
-99.650920103
  0
LINE
  8
1
 62
7
  6
CONTINUOUS
 10
1274.665246885
 20
-95.650920103
 11
1274.665246885
 21
-88.650920103
  0
LINE
  8
1
 62
7
  6
CONTINUOUS
 10
1277.165246885
 20
-95.650920103
 11
1277.165246885
 21
-88.650920103
  0
LINE
  8
1
 62
7
  6
CONTINUOUS
 10
1376.040760834
 20
-95.650920103
 11
1376.040760834
 21
-88.650920103
  0
LINE
  8
1
 62
7
  6
CONTINUOUS
 10
1216.765246885
 20
-95.650920103
 11
1435.787246885
 21
-95.650920103
  0
LINE
  8
1
 62
7
  6
CONTINUOUS
 10
1216.765246885
 20
-88.650920103
 11
1435.787246885
 21
-88.650920103
  0
LINE
  8
1
 62
7
  6
CONTINUOUS
 10
1274.665246885
 20
-84.650920103
 11
1274.665246885
 21
-77.650920103
  0
LINE
  8
1
 62
7
  6
CONTINUOUS
 10
1277.165246885
 20
-84.650920103
 11
1277.165246885
 21
-77.650920103
  0
LINE
  8
1
 62
7
  6
CONTINUOUS
 10
882.282777421
 20
-139.650920103
 11
868.282777421
 21
-139.650920103
  0
LINE
  8
1
 62
7
  6
CONTINUOUS
 10
882.282777421
 20
-154.650920103
 11
868.282777421
 21
-154.650920103
  0
LINE
  8
1
 62
7
  6
CONTINUOUS
 10
1376.040760834
 20
-84.650920103
 11
1376.040760834
 21
-77.650920103
  0
LINE
  8
2
 62
7
  6
CONTINUOUS
 10
976.565246885
 20
336.067258169
 11
974.565246885
 21
336.067258169
  0
LINE
  8
2
 62
7
  6
CONTINUOUS
 10
955.565246885
 20
432.567258169
 11
961.565246885
 21
433.067258169
  0
TEXT
  8
1
 62
7
  6
CONTINUOUS
 72
5
 10
779.824216042
 20
1029.962803448
 40
22.000000000
  1
[BF-512SR]
 41
0.882089966
 11
948.009376042
 21
1029.962803448
  0
LINE
  8
2
 62
7
  6
CONTINUOUS
 10
680.282777421
 20
-166.350920103
 11
773.282777421
 21
-166.350920103
  0
LINE
  8
2
 62
7
  6
CONTINUOUS
 10
1020.565246885
 20
448.567258169
 11
1020.565246885
 21
355.567258169
  0
LINE
  8
2
 62
7
  6
CONTINUOUS
 10
1021.165246885
 20
467.567258169
 11
1021.165246885
 21
355.567258169
  0
LINE
  8
2
 62
1
  6
HIDDEN2
 10
1053.765246885
 20
-212.350920103
 11
1052.565246885
 21
-212.350920103
  0
LINE
  8
2
 62
1
  6
HIDDEN2
 10
1053.765246885
 20
-226.350920103
 11
1053.765246885
 21
-212.350920103
  0
LINE
  8
2
 62
7
  6
CONTINUOUS
 10
987.765246885
 20
-11.650920103
 11
976.565246885
 21
-11.650920103
  0
LINE
  8
2
 62
7
  6
CONTINUOUS
 10
976.565246885
 20
-11.650920103
 11
976.565246885
 21
-60.650920103
  0
LINE
  8
2
 62
7
  6
CONTINUOUS
 10
976.565246885
 20
-12.650920103
 11
976.565246885
 21
-11.450920103
  0
LINE
  8
2
 62
7
  6
CONTINUOUS
 10
976.565246885
 20
-11.450920103
 11
974.565246885
 21
-11.450920103
  0
LINE
  8
2
 62
7
  6
CONTINUOUS
 10
974.565246885
 20
-11.450920103
 11
974.565246885
 21
-12.650920103
  0
LINE
  8
2
 62
1
  6
HIDDEN2
 10
1054.465246885
 20
-231.350920103
 11
1053.765246885
 21
-226.350920103
  0
LINE
  8
2
 62
1
  6
HIDDEN2
 10
1052.565246885
 20
-212.350920103
 11
1053.765246885
 21
-212.350920103
  0
LINE
  8
2
 62
1
  6
HIDDEN2
 10
1052.565246885
 20
-210.350920103
 11
1052.565246885
 21
-212.350920103
  0
LINE
  8
2
 62
1
  6
HIDDEN2
 10
1053.765246885
 20
-210.350920103
 11
1052.565246885
 21
-210.350920103
  0
LINE
  8
2
 62
1
  6
HIDDEN2
 10
1052.765246885
 20
-210.350920103
 11
1101.765246885
 21
-210.350920103
  0
LINE
  8
2
 62
7
  6
CONTINUOUS
 10
955.565246885
 20
-13.350920103
 11
960.565246885
 21
-12.650920103
  0
LINE
  8
2
 62
7
  6
CONTINUOUS
 10
960.565246885
 20
-12.650920103
 11
974.565246885
 21
-12.650920103
  0
LINE
  8
2
 62
7
  6
CONTINUOUS
 10
974.565246885
 20
-12.650920103
 11
974.565246885
 21
-11.450920103
  0
LINE
  8
2
 62
7
  6
CONTINUOUS
 10
974.565246885
 20
-11.450920103
 11
976.565246885
 21
-11.450920103
  0
LINE
  8
2
 62
7
  6
CONTINUOUS
 10
976.565246885
 20
-11.450920103
 11
976.565246885
 21
-12.650920103
  0
LINE
  8
2
 62
1
  6
HIDDEN2
 10
1052.765246885
 20
-199.650920103
 11
1052.765246885
 21
-210.350920103
  0
LINE
  8
2
 62
7
  6
CONTINUOUS
 10
1149.065246885
 20
190.048744791
 11
1054.465246885
 21
190.048744791
  0
LINE
  8
1
 62
1
  6
HIDDEN2
 10
1220.015246885
 20
-174.900920103
 11
1220.015246885
 21
-180.400920103
  0
LINE
  8
2
 62
7
  6
CONTINUOUS
 10
1150.965246885
 20
171.048744791
 11
1149.765246885
 21
171.048744791
  0
LINE
  8
2
 62
7
  6
CONTINUOUS
 10
1150.965246885
 20
169.048744791
 11
1149.765246885
 21
169.048744791
  0
LINE
  8
2
 62
7
  6
CONTINUOUS
 10
1150.965246885
 20
171.048744791
 11
1150.965246885
 21
169.048744791
  0
LINE
  8
2
 62
7
  6
CONTINUOUS
 10
1149.765246885
 20
169.048744791
 11
1150.965246885
 21
169.048744791
  0
LINE
  8
2
 62
7
  6
CONTINUOUS
 10
1149.765246885
 20
171.048744791
 11
1150.965246885
 21
171.048744791
  0
LINE
  8
2
 62
7
  6
CONTINUOUS
 10
1149.765246885
 20
185.048744791
 11
1149.765246885
 21
171.048744791
  0
LINE
  8
2
 62
7
  6
CONTINUOUS
 10
987.765246885
 20
-109.650920103
 11
976.565246885
 21
-109.650920103
  0
LINE
  8
2
 62
7
  6
CONTINUOUS
 10
976.565246885
 20
-109.650920103
 11
976.565246885
 21
-60.650920103
  0
LINE
  8
2
 62
7
  6
CONTINUOUS
 10
1149.065246885
 20
190.048744791
 11
1149.765246885
 21
185.048744791
  0
LINE
  8
2
 62
7
  6
CONTINUOUS
 10
1053.765246885
 20
171.048744791
 11
1149.765246885
 21
171.048744791
  0
LINE
  8
2
 62
7
  6
CONTINUOUS
 10
1150.965246885
 20
169.048744791
 11
1150.965246885
 21
171.048744791
  0
LINE
  8
2
 62
7
  6
CONTINUOUS
 10
1150.765246885
 20
169.048744791
 11
1101.765246885
 21
169.048744791
  0
LINE
  8
2
 62
7
  6
CONTINUOUS
 10
1150.765246885
 20
158.349079897
 11
1150.765246885
 21
169.048744791
  0
LINE
  8
2
 62
7
  6
CONTINUOUS
 10
1052.565246885
 20
169.048744791
 11
1053.765246885
 21
169.048744791
  0
LINE
  8
2
 62
7
  6
CONTINUOUS
 10
1052.565246885
 20
171.048744791
 11
1052.565246885
 21
169.048744791
  0
LINE
  8
2
 62
7
  6
CONTINUOUS
 10
1053.765246885
 20
171.048744791
 11
1052.565246885
 21
171.048744791
  0
LINE
  8
2
 62
7
  6
CONTINUOUS
 10
976.565246885
 20
-109.850920103
 11
974.565246885
 21
-109.850920103
  0
LINE
  8
2
 62
7
  6
CONTINUOUS
 10
1053.765246885
 20
185.048744791
 11
1053.765246885
 21
171.048744791
  0
LINE
  8
2
 62
1
  6
HIDDEN2
 10
1150.765246885
 20
-199.650920103
 11
1150.765246885
 21
-210.350920103
  0
LINE
  8
2
 62
7
  6
CONTINUOUS
 10
974.565246885
 20
-12.650920103
 11
974.565246885
 21
-108.650920103
  0
LINE
  8
2
 62
7
  6
CONTINUOUS
 10
1054.465246885
 20
190.048744791
 11
1053.765246885
 21
185.048744791
  0
LINE
  8
2
 62
7
  6
CONTINUOUS
 10
955.565246885
 20
-107.950920103
 11
960.565246885
 21
-108.650920103
  0
LINE
  8
2
 62
7
  6
CONTINUOUS
 10
960.565246885
 20
-108.650920103
 11
974.565246885
 21
-108.650920103
  0
LINE
  8
2
 62
7
  6
CONTINUOUS
 10
974.565246885
 20
-108.650920103
 11
974.565246885
 21
-109.850920103
  0
LINE
  8
2
 62
7
  6
CONTINUOUS
 10
976.565246885
 20
-108.650920103
 11
976.565246885
 21
-109.850920103
  0
LINE
  8
2
 62
7
  6
CONTINUOUS
 10
974.565246885
 20
-109.850920103
 11
976.565246885
 21
-109.850920103
  0
LINE
  8
2
 62
7
  6
CONTINUOUS
 10
976.565246885
 20
-109.850920103
 11
976.565246885
 21
-108.650920103
  0
LINE
  8
2
 62
7
  6
CONTINUOUS
 10
974.565246885
 20
-109.850920103
 11
974.565246885
 21
-108.650920103
  0
LINE
  8
2
 62
7
  6
CONTINUOUS
 10
1052.565246885
 20
171.048744791
 11
1053.765246885
 21
171.048744791
  0
POLYLINE
  8
2
 62
7
  6
CONTINUOUS
 66
1
  0
VERTEX
  8
2
 10
691.848058801
 20
123.849079897
  0
VERTEX
  8
2
 10
693.209853094
 20
127.164303684
  0
VERTEX
  8
2
 10
693.937702089
 20
129.424389939
  0
VERTEX
  8
2
 10
694.604127742
 20
131.703343840
  0
VERTEX
  8
2
 10
695.208641995
 20
133.999496395
  0
VERTEX
  8
2
 10
695.697858022
 20
136.319383061
  0
VERTEX
  8
2
 10
696.145024386
 20
138.647740574
  0
VERTEX
  8
2
 10
696.549994720
 20
140.983806818
  0
VERTEX
  8
2
 10
696.922299745
 20
143.308901559
  0
VERTEX
  8
2
 10
697.273866598
 20
145.637222270
  0
VERTEX
  8
2
 10
697.604667351
 20
147.968583985
  0
VERTEX
  8
2
 10
697.979472611
 20
150.259831120
  0
VERTEX
  8
2
 10
698.354695853
 20
152.551009842
  0
VERTEX
  8
2
 10
698.730337064
 20
154.842120075
  0
VERTEX
  8
2
 10
699.206567834
 20
157.135295652
  0
VERTEX
  8
2
 10
699.698890928
 20
159.425070302
  0
VERTEX
  8
2
 10
700.207282065
 20
161.711331098
  0
VERTEX
  8
2
 10
700.873593373
 20
164.068931272
  0
VERTEX
  8
2
 10
701.567388111
 20
166.418590438
  0
VERTEX
  8
2
 10
702.288571681
 20
168.759988225
  0
VERTEX
  8
2
 10
703.323230029
 20
170.994705975
  0
VERTEX
  8
2
 10
704.392200645
 20
173.213215191
  0
VERTEX
  8
2
 10
705.495229696
 20
175.414989074
  0
VERTEX
  8
2
 10
707.222147593
 20
176.857839995
  0
VERTEX
  8
2
 10
709.035521930
 20
178.190408085
  0
VERTEX
  8
2
 10
710.928320953
 20
179.407526018
  0
VERTEX
  8
2
 10
713.363397695
 20
179.749179376
  0
VERTEX
  8
2
 10
715.821910631
 20
179.794344636
  0
VERTEX
  8
2
 10
718.267893058
 20
179.542361054
  0
VERTEX
  8
2
 10
720.591831650
 20
178.710333594
  0
VERTEX
  8
2
 10
722.848504361
 20
177.710139339
  0
VERTEX
  8
2
 10
725.025761165
 20
176.547163380
  0
VERTEX
  8
2
 10
726.889784097
 20
175.091206163
  0
VERTEX
  8
2
 10
728.644896935
 20
173.505655208
  0
VERTEX
  8
2
 10
730.282109531
 20
171.798632120
  0
VERTEX
  8
2
 10
732.118887236
 20
170.340059442
  0
VERTEX
  8
2
 10
733.946268958
 20
168.869732053
  0
VERTEX
  8
2
 10
735.764179473
 20
167.387710477
  0
VERTEX
  8
2
 10
737.756878943
 20
166.096953834
  0
VERTEX
  8
2
 10
739.800009787
 20
164.887606802
  0
VERTEX
  8
2
 10
741.890247974
 20
163.761636903
  0
VERTEX
  8
2
 10
743.729194242
 20
162.348142223
  0
VERTEX
  8
2
 10
745.552231206
 20
160.914187269
  0
VERTEX
  8
2
 10
747.359131237
 20
159.459951090
  0
VERTEX
  8
2
 10
748.902325556
 20
157.709788735
  0
VERTEX
  8
2
 10
750.372359575
 20
155.897741009
  0
VERTEX
  8
2
 10
751.766754068
 20
154.026863949
  0
VERTEX
  8
2
 10
753.051061295
 20
151.997098954
  0
VERTEX
  8
2
 10
754.279081423
 20
149.932793367
  0
VERTEX
  8
2
 10
755.449886147
 20
147.835507672
  0
VERTEX
  8
2
 10
756.585633031
 20
145.665863366
  0
VERTEX
  8
2
 10
757.690031332
 20
143.480095357
  0
VERTEX
  8
2
 10
758.762852207
 20
141.278656562
  0
VERTEX
  8
2
 10
759.809693613
 20
139.081507737
  0
VERTEX
  8
2
 10
760.850311701
 20
136.881404585
  0
VERTEX
  8
2
 10
761.884698135
 20
134.678364733
  0
VERTEX
  8
2
 10
762.615379086
 20
132.444442116
  0
VERTEX
  8
2
 10
763.310216173
 20
130.199112221
  0
VERTEX
  8
2
 10
763.969031430
 20
127.942950133
  0
VERTEX
  8
2
 10
764.114444497
 20
126.783012846
  0
VERTEX
  8
2
 10
764.205346548
 20
125.617535997
  0
VERTEX
  8
2
 10
764.241537891
 20
124.449079897
  0
SEQEND
  8
2
  0
ARC
  8
7
 62
7
  6
CONTINUOUS
 10
774.282777421
 20
126.840429185
 40
1.000000000
 50
90.000000000
 51
180.000000000
  0
LINE
  8
2
 62
7
  6
CONTINUOUS
 10
842.682777421
 20
146.348744791
 11
843.282777421
 21
146.348744791
  0
LINE
  8
2
 62
7
  6
CONTINUOUS
 10
842.682777421
 20
127.840429185
 11
842.682777421
 21
146.348744791
  0
LINE
  8
2
 62
7
  6
CONTINUOUS
 10
843.282777421
 20
146.348744791
 11
843.282777421
 21
123.848744791
  0
LINE
  8
2
 62
7
  6
CONTINUOUS
 10
703.151953073
 20
171.048744791
 11
694.782777421
 21
171.048744791
  0
LINE
  8
2
 62
7
  6
CONTINUOUS
 10
792.782777421
 20
149.048744791
 11
754.791177467
 21
149.048744791
  0
LINE
  8
2
 62
7
  6
CONTINUOUS
 10
694.782777421
 20
149.048744791
 11
690.282777421
 21
143.048744791
  0
LINE
  8
2
 62
7
  6
CONTINUOUS
 10
791.782777421
 20
171.048744791
 11
791.782777421
 21
184.048744791
  0
LINE
  8
2
 62
2
  6
CENTER
 10
743.782777421
 20
117.845962492
 11
743.782777421
 21
196.796916207
  0
LINE
  8
2
 62
7
  6
CONTINUOUS
 10
696.873956747
 20
143.048744791
 11
690.282777421
 21
143.048744791
  0
LINE
  8
2
 62
7
  6
CONTINUOUS
 10
680.282777421
 20
125.048744791
 11
680.282777421
 21
124.448744791
  0
LINE
  8
2
 62
7
  6
CONTINUOUS
 10
695.782777421
 20
184.048744791
 11
695.782777421
 21
171.048744791
  0
LINE
  8
2
 62
7
  6
CONTINUOUS
 10
697.767390857
 20
149.048744791
 11
694.782777421
 21
149.048744791
  0
LINE
  8
2
 62
7
  6
CONTINUOUS
 10
702.389722763
 20
169.048744791
 11
694.782777421
 21
169.048744791
  0
LINE
  8
2
 62
7
  6
CONTINUOUS
 10
791.782777421
 20
184.048744791
 11
695.782777421
 21
184.048744791
  0
LINE
  8
2
 62
7
  6
CONTINUOUS
 10
792.782777421
 20
171.048744791
 11
731.063776998
 21
171.048744791
  0
LINE
  8
2
 62
7
  6
CONTINUOUS
 10
694.782777421
 20
171.048744791
 11
694.782777421
 21
169.048744791
  0
LINE
  8
2
 62
7
  6
CONTINUOUS
 10
791.782777421
 20
184.048744791
 11
791.282777421
 21
190.048744791
  0
LINE
  8
2
 62
7
  6
CONTINUOUS
 10
661.282777421
 20
124.448744791
 11
661.282777421
 21
123.848725934
  0
LINE
  8
2
 62
7
  6
CONTINUOUS
 10
791.282777421
 20
190.048744791
 11
696.282777421
 21
190.048744791
  0
LINE
  8
2
 62
7
  6
CONTINUOUS
 10
696.282777421
 20
190.048744791
 11
695.782777421
 21
184.048744791
  0
LINE
  8
2
 62
7
  6
CONTINUOUS
 10
792.782777421
 20
169.048744791
 11
792.782777421
 21
171.048744791
  0
LINE
  8
2
 62
7
  6
CONTINUOUS
 10
694.782777421
 20
169.048744791
 11
694.782777421
 21
149.048744791
  0
LINE
  8
2
 62
7
  6
CONTINUOUS
 10
690.282777421
 20
143.048744791
 11
690.282777421
 21
125.048744791
  0
LINE
  8
2
 62
7
  6
CONTINUOUS
 10
797.282777421
 20
143.048744791
 11
792.782777421
 21
149.048744791
  0
LINE
  8
2
 62
7
  6
CONTINUOUS
 10
797.282777421
 20
127.840429185
 11
797.282777421
 21
143.048744791
  0
LINE
  8
2
 62
7
  6
CONTINUOUS
 10
797.282777421
 20
143.048744791
 11
757.891587143
 21
143.048744791
  0
LINE
  8
2
 62
7
  6
CONTINUOUS
 10
792.782777421
 20
169.048744791
 11
733.203232101
 21
169.048744791
  0
LINE
  8
2
 62
7
  6
CONTINUOUS
 10
792.782777421
 20
149.048744791
 11
792.782777421
 21
169.048744791
  0
LINE
  8
2
 62
7
  6
CONTINUOUS
 10
661.282777421
 20
124.448744791
 11
773.282749807
 21
124.448744791
  0
LINE
  8
2
 62
7
  6
CONTINUOUS
 10
680.282777421
 20
125.048744791
 11
773.282777421
 21
125.048744791
  0
ARC
  8
7
 62
7
  6
CONTINUOUS
 10
774.282777421
 20
-168.142269390
 40
1.000000000
 50
180.000000000
 51
270.000000000
  0
LINE
  8
2
 62
7
  6
CONTINUOUS
 10
842.682777421
 20
-169.142269390
 11
842.682777421
 21
-187.650920103
  0
LINE
  8
2
 62
7
  6
CONTINUOUS
 10
685.282777421
 20
-165.150920103
 11
740.282777421
 21
-165.150920103
  0
LINE
  8
2
 62
2
  6
CENTER
 10
743.782777421
 20
-159.148137803
 11
743.782777421
 21
-238.099091519
  0
LINE
  8
2
 62
7
  6
CONTINUOUS
 10
680.282777421
 20
-166.350920103
 11
680.282777421
 21
-165.750920103
  0
CIRCLE
  8
2
 62
7
  6
CONTINUOUS
 10
743.782777421
 20
-60.650920103
 40
49.000000000
  0
CIRCLE
  8
2
 62
7
  6
CONTINUOUS
 10
743.782777421
 20
-60.650920103
 40
53.500000000
  0
ARC
  8
2
 62
7
  6
CONTINUOUS
 10
743.782777421
 20
-60.650920103
 40
43.500000000
 50
229.933359284
 51
229.933359284
  0
LINE
  8
2
 62
7
  6
CONTINUOUS
 10
715.382808502
 20
-93.844551614
 11
755.049763908
 21
-104.085157271
  0
ARC
  8
2
 62
7
  6
CONTINUOUS
 10
713.632777421
 20
-86.850920103
 40
1.000000000
 50
0.000000000
 51
90.000000000
  0
ARC
  8
2
 62
7
  6
CONTINUOUS
 10
755.299732828
 20
-103.116903410
 40
1.000000000
 50
255.524327014
 51
285.173866156
  0
ARC
  8
2
 62
7
  6
CONTINUOUS
 10
743.782777421
 20
-60.650920103
 40
35.000000000
 50
288.866900248
 51
360.000000000
  0
ARC
  8
2
 62
7
  6
CONTINUOUS
 10
710.795159028
 20
-89.650920103
 40
1.500000000
 50
270.000000000
 51
0.000000000
  0
ARC
  8
2
 62
7
  6
CONTINUOUS
 10
710.795159028
 20
-89.650920103
 40
1.500000000
 50
180.000000000
 51
270.000000000
  0
LINE
  8
2
 62
7
  6
CONTINUOUS
 10
712.295159028
 20
-85.850920103
 11
713.632777421
 21
-85.850920103
  0
LINE
  8
2
 62
7
  6
CONTINUOUS
 10
712.295159028
 20
-89.650920103
 11
712.295159028
 21
-60.650920103
  0
ARC
  8
2
 62
7
  6
CONTINUOUS
 10
715.632777421
 20
-92.876297753
 40
1.000000000
 50
180.000000000
 51
255.524327014
  0
LINE
  8
2
 62
7
  6
CONTINUOUS
 10
709.295159028
 20
-60.650920103
 11
709.295159028
 21
-89.650920103
  0
LINE
  8
2
 62
7
  6
CONTINUOUS
 10
723.782777421
 20
-85.685256656
 11
755.100755806
 21
-93.770451580
  0
LINE
  8
2
 62
7
  6
CONTINUOUS
 10
714.632777421
 20
-92.876297753
 11
714.632777421
 21
-86.850920103
  0
LINE
  8
2
 62
7
  6
CONTINUOUS
 10
723.782777421
 20
-60.650920103
 11
723.782777421
 21
-35.616583553
  0
LINE
  8
2
 62
7
  6
CONTINUOUS
 10
718.282777421
 20
-60.650920103
 11
718.282777421
 21
-31.356160630
  0
LINE
  8
2
 62
7
  6
CONTINUOUS
 10
718.282777421
 20
-31.356160630
 11
755.257728691
 21
-21.810535278
  0
LINE
  8
2
 62
7
  6
CONTINUOUS
 10
1052.565246885
 20
169.048744791
 11
1052.565246885
 21
171.048744791
  0
ARC
  8
2
 62
7
  6
CONTINUOUS
 10
743.782777421
 20
-60.650920103
 40
40.500000000
 50
0.000000000
 51
73.540822256
  0
LINE
  8
2
 62
7
  6
CONTINUOUS
 10
1053.765246885
 20
169.048744791
 11
1052.565246885
 21
169.048744791
  0
LINE
  8
6
 62
7
  6
CONTINUOUS
 10
1021.765246885
 20
355.567258169
 11
1021.765246885
 21
468.067258169
  0
LINE
  8
2
 62
7
  6
CONTINUOUS
 10
1021.765246885
 20
443.567258169
 11
1021.765246885
 21
454.067258169
  0
ARC
  8
2
 62
7
  6
CONTINUOUS
 10
743.782777421
 20
-60.650920103
 40
43.500000000
 50
130.066640716
 51
130.066640716
  0
LINE
  8
2
 62
7
  6
CONTINUOUS
 10
715.382808502
 20
-27.457288592
 11
755.049763908
 21
-17.216682935
  0
ARC
  8
2
 62
7
  6
CONTINUOUS
 10
713.632777421
 20
-34.450920103
 40
1.000000000
 50
270.000000000
 51
0.000000000
  0
ARC
  8
2
 62
7
  6
CONTINUOUS
 10
755.299732828
 20
-18.184936796
 40
1.000000000
 50
74.826133844
 51
104.475672986
  0
ARC
  8
2
 62
7
  6
CONTINUOUS
 10
743.782777421
 20
-60.650920103
 40
35.000000000
 50
0.000000000
 51
71.133099752
  0
ARC
  8
2
 62
7
  6
CONTINUOUS
 10
710.795159028
 20
-31.650920103
 40
1.500000000
 50
0.000000000
 51
90.000000000
  0
LINE
  8
2
 62
7
  6
CONTINUOUS
 10
709.295159028
 20
-60.650920103
 11
709.295159028
 21
-31.650920103
  0
LINE
  8
2
 62
7
  6
CONTINUOUS
 10
712.295159028
 20
-31.650920103
 11
712.295159028
 21
-60.650920103
  0
LINE
  8
2
 62
7
  6
CONTINUOUS
 10
712.295159028
 20
-35.450920103
 11
713.632777421
 21
-35.450920103
  0
LINE
  8
2
 62
7
  6
CONTINUOUS
 10
1130.765246885
 20
416.554876563
 11
1101.765246885
 21
416.554876563
  0
ARC
  8
2
 62
7
  6
CONTINUOUS
 10
1101.765246885
 20
385.067258169
 40
35.000000000
 50
270.000000000
 51
341.133099752
  0
ARC
  8
2
 62
7
  6
CONTINUOUS
 10
1144.231230192
 20
373.550302763
 40
1.000000000
 50
344.826133844
 51
14.475672986
  0
ARC
  8
2
 62
7
  6
CONTINUOUS
 10
1101.765246885
 20
385.067258169
 40
40.500000000
 50
270.000000000
 51
343.540822256
  0
ARC
  8
2
 62
7
  6
CONTINUOUS
 10
1101.765246885
 20
385.067258169
 40
43.500000000
 50
139.933359284
 51
139.933359284
  0
LINE
  8
2
 62
7
  6
CONTINUOUS
 10
1134.958878397
 20
413.467227088
 11
1145.199484053
 21
373.800271682
  0
ARC
  8
2
 62
7
  6
CONTINUOUS
 10
1101.765246885
 20
385.067258169
 40
43.500000000
 50
40.066640716
 51
40.066640716
  0
LINE
  8
2
 62
7
  6
CONTINUOUS
 10
1131.060006359
 20
410.567258169
 11
1140.605631710
 21
373.592306899
  0
LINE
  8
2
 62
2
  6
DASHDOT2
 10
1101.765246885
 20
441.858616646
 11
1101.765246885
 21
333.942573518
  0
LINE
  8
2
 62
2
  6
DASHDOT2
 10
1046.697332088
 20
385.067258169
 11
1162.621375226
 21
385.067258169
  0
LINE
  8
2
 62
7
  6
CONTINUOUS
 10
1101.765246885
 20
410.567258169
 11
1131.060006359
 21
410.567258169
  0
LINE
  8
2
 62
7
  6
CONTINUOUS
 10
1101.765246885
 20
405.067258169
 11
1126.799583435
 21
405.067258169
  0
ARC
  8
2
 62
7
  6
CONTINUOUS
 10
1101.765246885
 20
385.067258169
 40
45.000000000
 50
195.173866156
 51
270.000000000
  0
LINE
  8
2
 62
7
  6
CONTINUOUS
 10
1069.539869235
 20
414.217258169
 11
1075.565246885
 21
414.217258169
  0
LINE
  8
2
 62
7
  6
CONTINUOUS
 10
1076.730910332
 20
405.067258169
 11
1068.645715409
 21
373.749279783
  0
LINE
  8
2
 62
7
  6
CONTINUOUS
 10
1101.765246885
 20
419.554876563
 11
1072.765246885
 21
419.554876563
  0
ARC
  8
2
 62
7
  6
CONTINUOUS
 10
1069.539869235
 20
413.217258169
 40
1.000000000
 50
90.000000000
 51
165.524327014
  0
ARC
  8
2
 62
7
  6
CONTINUOUS
 10
1127.965246885
 20
415.217258169
 40
1.000000000
 50
180.000000000
 51
270.000000000
  0
LINE
  8
2
 62
7
  6
CONTINUOUS
 10
1133.990624535
 20
414.217258169
 11
1127.965246885
 21
414.217258169
  0
CIRCLE
  8
2
 62
7
  6
CONTINUOUS
 10
1101.765246885
 20
385.067258169
 40
49.000000000
  0
LINE
  8
2
 62
7
  6
CONTINUOUS
 10
1072.765246885
 20
416.554876563
 11
1101.765246885
 21
416.554876563
  0
LINE
  8
2
 62
7
  6
CONTINUOUS
 10
1076.565246885
 20
416.554876563
 11
1076.565246885
 21
415.217258169
  0
ARC
  8
2
 62
7
  6
CONTINUOUS
 10
1072.765246885
 20
418.054876563
 40
1.500000000
 50
90.000000000
 51
180.000000000
  0
ARC
  8
2
 62
7
  6
CONTINUOUS
 10
1101.765246885
 20
385.067258169
 40
40.500000000
 50
196.459177744
 51
270.000000000
  0
LINE
  8
2
 62
7
  6
CONTINUOUS
 10
1101.765246885
 20
405.067258169
 11
1076.730910332
 21
405.067258169
  0
ARC
  8
2
 62
7
  6
CONTINUOUS
 10
1072.765246885
 20
418.054876563
 40
1.500000000
 50
180.000000000
 51
270.000000000
  0
CIRCLE
  8
2
 62
7
  6
CONTINUOUS
 10
1101.765246885
 20
385.067258169
 40
47.500000000
  0
ARC
  8
2
 62
7
  6
CONTINUOUS
 10
1101.765246885
 20
385.067258169
 40
35.000000000
 50
198.866900248
 51
270.000000000
  0
LINE
  8
2
 62
7
  6
CONTINUOUS
 10
1101.765246885
 20
419.554876563
 11
1130.765246885
 21
419.554876563
  0
ARC
  8
2
 62
7
  6
CONTINUOUS
 10
1059.299263579
 20
373.550302763
 40
1.000000000
 50
165.524327014
 51
195.173866156
  0
ARC
  8
2
 62
7
  6
CONTINUOUS
 10
1075.565246885
 20
415.217258169
 40
1.000000000
 50
270.000000000
 51
0.000000000
  0
LINE
  8
2
 62
7
  6
CONTINUOUS
 10
1068.571615374
 20
413.467227088
 11
1058.331009718
 21
373.800271682
  0
ARC
  8
2
 62
7
  6
CONTINUOUS
 10
1130.765246885
 20
418.054876563
 40
1.500000000
 50
0.000000000
 51
90.000000000
  0
ARC
  8
2
 62
7
  6
CONTINUOUS
 10
1101.765246885
 20
385.067258169
 40
45.000000000
 50
270.000000000
 51
344.826133844
  0
CIRCLE
  8
2
 62
7
  6
CONTINUOUS
 10
1101.765246885
 20
385.067258169
 40
53.500000000
  0
LINE
  8
2
 62
7
  6
CONTINUOUS
 10
1143.765246885
 20
467.567258169
 11
1059.765246885
 21
467.567258169
  0
ARC
  8
2
 62
7
  6
CONTINUOUS
 10
1143.765246885
 20
430.067258169
 40
37.500000000
 50
0.000000000
 51
90.000000000
  0
ARC
  8
2
 62
7
  6
CONTINUOUS
 10
1059.765246885
 20
430.067258169
 40
37.500000000
 50
90.000000000
 51
180.000000000
  0
ARC
  8
2
 62
7
  6
CONTINUOUS
 10
1101.765246885
 20
385.067258169
 40
63.500000000
 50
301.745483702
 51
238.254516298
  0
LINE
  8
2
 62
7
  6
CONTINUOUS
 10
1101.765246885
 20
410.567258169
 11
1072.470487409
 21
410.567258169
  0
LINE
  8
6
 62
7
  6
CONTINUOUS
 10
1181.765246885
 20
468.067258169
 11
1101.765246885
 21
468.067258169
  0
LINE
  8
6
 62
7
  6
CONTINUOUS
 10
1181.765246885
 20
356.167258169
 11
1181.765246885
 21
468.067258169
  0
LINE
  8
2
 62
7
  6
CONTINUOUS
 10
1126.965246885
 20
416.554876563
 11
1126.965246885
 21
415.217258169
  0
LINE
  8
6
 62
7
  6
CONTINUOUS
 10
1021.765246885
 20
468.067258169
 11
1101.765246885
 21
468.067258169
  0
ARC
  8
2
 62
7
  6
CONTINUOUS
 10
1130.765246885
 20
418.054876563
 40
1.500000000
 50
270.000000000
 51
0.000000000
  0
LINE
  8
2
 62
7
  6
CONTINUOUS
 10
1126.799583435
 20
405.067258169
 11
1134.884778362
 21
373.749279784
  0
ARC
  8
2
 62
7
  6
CONTINUOUS
 10
1133.990624535
 20
413.217258169
 40
1.000000000
 50
14.475672986
 51
90.000000000
  0
LINE
  8
2
 62
7
  6
CONTINUOUS
 10
1072.470487409
 20
410.567258169
 11
1062.924862060
 21
373.592306899
  0
LINE
  8
2
 62
7
  6
CONTINUOUS
 10
996.565246885
 20
336.067258169
 11
976.565246885
 21
336.067258169
  0
LINE
  8
2
 62
7
  6
CONTINUOUS
 10
976.565246885
 20
434.067258169
 11
996.565246885
 21
434.067258169
  0
LINE
  8
2
 62
7
  6
CONTINUOUS
 10
955.565246885
 20
337.567258169
 11
955.565246885
 21
432.567258169
  0
LINE
  8
1
 62
1
  6
HIDDEN2
 10
1009.515246885
 20
103.599079897
 11
1004.015246885
 21
103.599079897
  0
LINE
  8
2
 62
7
  6
CONTINUOUS
 10
961.565246885
 20
337.067258169
 11
955.565246885
 21
337.567258169
  0
LINE
  8
2
 62
7
  6
CONTINUOUS
 10
974.565246885
 20
434.067258169
 11
976.565246885
 21
434.067258169
  0
LINE
  8
2
 62
7
  6
CONTINUOUS
 10
974.565246885
 20
336.067258169
 11
974.565246885
 21
434.067258169
  0
LINE
  8
2
 62
7
  6
CONTINUOUS
 10
961.565246885
 20
337.067258169
 11
961.565246885
 21
433.067258169
  0
LINE
  8
2
 62
7
  6
CONTINUOUS
 10
961.565246885
 20
433.067258169
 11
974.565246885
 21
433.067258169
  0
LINE
  8
2
 62
7
  6
CONTINUOUS
 10
974.565246885
 20
337.067258169
 11
961.565246885
 21
337.067258169
  0
LINE
  8
2
 62
7
  6
CONTINUOUS
 10
996.565246885
 20
434.067258169
 11
1002.565246885
 21
438.567258169
  0
LINE
  8
2
 62
7
  6
CONTINUOUS
 10
996.565246885
 20
336.067258169
 11
996.565246885
 21
434.067258169
  0
LINE
  8
2
 62
7
  6
CONTINUOUS
 10
1002.565246885
 20
331.567258169
 11
996.565246885
 21
336.067258169
  0
ARC
  8
1
 62
1
  6
HIDDEN2
 10
1009.515246885
 20
101.349079897
 40
2.250000000
 50
270.000000000
 51
90.000000001
  0
LINE
  8
5
 62
2
  6
DASHDOT2
 10
999.746764480
 20
101.349079897
 11
1014.796474505
 21
101.349079897
  0
LINE
  8
5
 62
2
  6
DASHDOT2
 10
1222.391655616
 20
136.349079897
 11
1210.679038860
 21
136.349079897
  0
LINE
  8
5
 62
2
  6
DASHDOT2
 10
1006.765246885
 20
106.975488628
 11
1006.765246885
 21
95.262871872
  0
LINE
  8
5
 62
2
  6
DASHDOT2
 10
1216.765246885
 20
142.367562303
 11
1216.765246885
 21
130.317852278
  0
LINE
  8
1
 62
1
  6
HIDDEN2
 10
1245.723794954
 20
-176.650920103
 11
1247.744520919
 21
-173.150920062
  0
CIRCLE
  8
1
 62
1
  6
HIDDEN2
 10
1249.765246885
 20
-176.650920103
 40
2.250000000
  0
CIRCLE
  8
1
 62
1
  6
HIDDEN2
 10
1249.765246885
 20
-176.650920103
 40
5.500000000
  0
ARC
  8
1
 62
1
  6
HIDDEN2
 10
1216.765246885
 20
-174.900920103
 40
3.250000000
 50
0.000000000
 51
180.000000000
  0
LINE
  8
1
 62
1
  6
HIDDEN2
 10
1213.515246885
 20
-180.400920103
 11
1213.515246885
 21
-174.900920103
  0
ARC
  8
1
 62
1
  6
HIDDEN2
 10
1424.015246885
 20
101.349079897
 40
2.250000000
 50
90.000000000
 51
270.000000000
  0
CIRCLE
  8
5
 62
1
  6
HIDDEN2
 10
1101.765246885
 20
-178.650920103
 40
2.500000000
  0
CIRCLE
  8
1
 62
1
  6
HIDDEN2
 10
1249.765246885
 20
135.349079897
 40
5.500000000
  0
CIRCLE
  8
5
 62
1
  6
HIDDEN2
 10
1426.765246885
 20
-20.650920103
 40
2.500000000
  0
LINE
  8
1
 62
1
  6
HIDDEN2
 10
1247.744520919
 20
-180.150920143
 11
1245.723794954
 21
-176.650920103
  0
LINE
  8
1
 62
1
  6
HIDDEN2
 10
1251.785972850
 20
-180.150920143
 11
1247.744520919
 21
-180.150920143
  0
LINE
  8
1
 62
1
  6
HIDDEN2
 10
1253.806698816
 20
-176.650920103
 11
1251.785972850
 21
-180.150920143
  0
LINE
  8
1
 62
1
  6
HIDDEN2
 10
1251.785972850
 20
-173.150920062
 11
1253.806698816
 21
-176.650920103
  0
LINE
  8
1
 62
1
  6
HIDDEN2
 10
1247.744520919
 20
-173.150920062
 11
1251.785972850
 21
-173.150920062
  0
ARC
  8
1
 62
1
  6
HIDDEN2
 10
1216.765246885
 20
-180.400920103
 40
3.250000000
 50
180.000000000
 51
0.000000000
  0
ARC
  8
9
 62
1
  6
HIDDEN
 10
1410.265246885
 20
122.849079897
 40
1.000000000
 50
0.000000000
 51
90.000000000
  0
ARC
  8
1
 62
1
  6
HIDDEN2
 10
1429.515246885
 20
101.349079897
 40
2.250000000
 50
270.000000000
 51
90.000000001
  0
LINE
  8
5
 62
2
  6
DASHDOT2
 10
1216.765246885
 20
-183.669402508
 11
1216.765246885
 21
-171.619692484
  0
LINE
  8
5
 62
2
  6
DASHDOT2
 10
1222.391655616
 20
-177.650920103
 11
1210.679038859
 21
-177.650920103
  0
LINE
  8
5
 62
2
  6
DASHDOT2
 10
999.746764480
 20
-152.650920103
 11
1014.796474505
 21
-152.650920103
  0
ARC
  8
1
 62
1
  6
HIDDEN2
 10
1009.515246885
 20
-152.650920103
 40
2.250000000
 50
270.000000000
 51
90.000000001
  0
LINE
  8
1
 62
1
  6
HIDDEN2
 10
1009.515246885
 20
-154.900920103
 11
1004.015246885
 21
-154.900920103
  0
ARC
  8
1
 62
1
  6
HIDDEN2
 10
1004.015246885
 20
-152.650920103
 40
2.250000000
 50
90.000000000
 51
270.000000000
  0
LINE
  8
1
 62
1
  6
HIDDEN2
 10
1004.015246885
 20
99.099079897
 11
1009.515246885
 21
99.099079897
  0
LINE
  8
1
 62
1
  6
HIDDEN2
 10
1004.015246885
 20
-150.400920103
 11
1009.515246885
 21
-150.400920103
  0
LINE
  8
5
 62
2
  6
DASHDOT2
 10
1433.783729291
 20
-142.650920103
 11
1418.734019266
 21
-142.650920103
  0
ARC
  8
1
 62
1
  6
HIDDEN2
 10
1424.015246885
 20
-142.650920103
 40
2.250000000
 50
90.000000000
 51
270.000000000
  0
ARC
  8
1
 62
1
  6
HIDDEN2
 10
1004.015246885
 20
101.349079897
 40
2.250000000
 50
90.000000000
 51
270.000000000
  0
LINE
  8
1
 62
1
  6
HIDDEN2
 10
1424.015246885
 20
-144.900920103
 11
1429.515246885
 21
-144.900920103
  0
LINE
  8
7
 62
2
  6
DASHDOT2
 10
1216.765246885
 20
159.374169337
 11
1216.765246885
 21
54.731129956
  0
ARC
  8
1
 62
1
  6
HIDDEN2
 10
1429.515246885
 20
-142.650920103
 40
2.250000000
 50
270.000000000
 51
90.000000001
  0
LINE
  8
1
 62
1
  6
HIDDEN2
 10
1429.515246885
 20
-140.400920103
 11
1424.015246885
 21
-140.400920103
  0
LINE
  8
1
 62
1
  6
HIDDEN2
 10
1429.515246885
 20
99.099079897
 11
1424.015246885
 21
99.099079897
  0
LINE
  8
5
 62
2
  6
DASHDOT2
 10
1426.765246885
 20
106.975488628
 11
1426.765246885
 21
95.262871872
  0
LINE
  8
5
 62
2
  6
DASHDOT2
 10
1433.783729291
 20
101.349079897
 11
1418.734019266
 21
101.349079897
  0
LINE
  8
1
 62
2
  6
DASHDOT2
 10
1216.765246885
 20
274.728907360
 11
1216.765246885
 21
424.395525262
  0
LINE
  8
1
 62
7
  6
CONTINUOUS
 10
1236.765246886
 20
355.567258169
 11
1236.765246886
 21
417.567258169
  0
LINE
  8
1
 62
7
  6
CONTINUOUS
 10
1236.765246886
 20
417.567258169
 11
1196.765246886
 21
417.567258169
  0
LINE
  8
1
 62
7
  6
CONTINUOUS
 10
1196.765246886
 20
417.567258169
 11
1196.765246886
 21
355.567258169
  0
LINE
  8
1
 62
7
  6
CONTINUOUS
 10
1236.765246886
 20
409.567258169
 11
1196.765246886
 21
409.567258169
  0
LINE
  8
1
 62
7
  6
CONTINUOUS
 10
1222.765246885
 20
417.567258169
 11
1222.765246885
 21
409.567258169
  0
LINE
  8
1
 62
7
  6
CONTINUOUS
 10
1210.765246885
 20
417.567258169
 11
1210.765246885
 21
409.567258169
  0
LINE
  8
1
 62
7
  6
CONTINUOUS
 10
1222.765246885
 20
416.367258169
 11
1210.765246885
 21
416.367258169
  0
LINE
  8
1
 62
7
  6
CONTINUOUS
 10
1196.765246885
 20
158.349079897
 11
1196.765246885
 21
171.849079897
  0
LINE
  8
1
 62
7
  6
CONTINUOUS
 10
1222.765246885
 20
158.349079897
 11
1222.765246885
 21
171.849079897
  0
LINE
  8
1
 62
1
  6
HIDDEN2
 10
1424.015246885
 20
103.599079897
 11
1429.515246885
 21
103.599079897
  0
LINE
  8
1
 62
7
  6
CONTINUOUS
 10
1222.765246885
 20
170.649079897
 11
1236.765246885
 21
170.649079897
  0
LINE
  8
1
 62
7
  6
CONTINUOUS
 10
1222.765246885
 20
171.849079897
 11
1236.765246885
 21
171.849079897
  0
LINE
  8
1
 62
1
  6
HIDDEN2
 10
1210.765246885
 20
158.349079897
 11
1210.765246885
 21
139.349079897
  0
LINE
  8
1
 62
2
  6
DASHDOT2
 10
1216.765246885
 20
174.892032544
 11
1216.765246885
 21
118.614548404
  0
LINE
  8
1
 62
1
  6
HIDDEN2
 10
1222.765246885
 20
139.349079897
 11
1222.765246885
 21
158.349079897
  0
LINE
  8
1
 62
7
  6
CONTINUOUS
 10
1210.765246885
 20
171.849079897
 11
1210.765246885
 21
158.349079897
  0
ARC
  8
1
 62
1
  6
HIDDEN2
 10
1216.765246885
 20
139.349079897
 40
6.000000000
 50
180.000000000
 51
0.000000000
  0
LINE
  8
1
 62
7
  6
CONTINUOUS
 10
1196.765246885
 20
170.649079897
 11
1210.765246885
 21
170.649079897
  0
LINE
  8
1
 62
7
  6
CONTINUOUS
 10
1236.765246885
 20
-213.150920103
 11
1236.765246885
 21
-199.650920103
  0
LINE
  8
1
 62
7
  6
CONTINUOUS
 10
1196.765246885
 20
-213.150920103
 11
1210.765246885
 21
-213.150920103
  0
LINE
  8
1
 62
1
  6
HIDDEN2
 10
1196.765246885
 20
123.849079897
 11
1236.765246885
 21
123.849079897
  0
LINE
  8
1
 62
1
  6
HIDDEN2
 10
1196.765246885
 20
158.349079897
 11
1196.765246885
 21
123.849079897
  0
LINE
  8
1
 62
1
  6
HIDDEN2
 10
1236.765246885
 20
-165.150920103
 11
1236.765246885
 21
-199.650920103
  0
LINE
  8
1
 62
1
  6
HIDDEN2
 10
1236.765246885
 20
123.849079897
 11
1236.765246885
 21
158.349079897
  0
LINE
  8
1
 62
7
  6
CONTINUOUS
 10
1196.765246885
 20
171.849079897
 11
1210.765246885
 21
171.849079897
  0
LINE
  8
1
 62
7
  6
CONTINUOUS
 10
1236.765246885
 20
171.849079897
 11
1236.765246885
 21
158.349079897
  0
LINE
  8
1
 62
1
  6
HIDDEN2
 10
1196.765246885
 20
-199.650920103
 11
1196.765246885
 21
-165.150920103
  0
LINE
  8
1
 62
7
  6
CONTINUOUS
 10
1196.765246885
 20
158.349079897
 11
1415.765246885
 21
158.349079897
  0
LINE
  8
1
 62
1
  6
HIDDEN2
 10
1196.765246885
 20
-165.150920103
 11
1236.765246885
 21
-165.150920103
  0
LINE
  8
1
 62
7
  6
CONTINUOUS
 10
1196.765246885
 20
-211.950920103
 11
1210.765246885
 21
-211.950920103
  0
ARC
  8
1
 62
1
  6
HIDDEN2
 10
1216.765246885
 20
-180.650920103
 40
6.000000000
 50
0.000000000
 51
180.000000000
  0
LINE
  8
1
 62
7
  6
CONTINUOUS
 10
1210.765246885
 20
-213.150920103
 11
1210.765246885
 21
-199.650920103
  0
LINE
  8
1
 62
1
  6
HIDDEN2
 10
1222.765246885
 20
-180.650920103
 11
1222.765246885
 21
-199.650920103
  0
LINE
  8
1
 62
2
  6
DASHDOT2
 10
1216.765246885
 20
-216.193872749
 11
1216.765246885
 21
-159.916388610
  0
CIRCLE
  8
5
 62
1
  6
HIDDEN2
 10
1008.765246885
 20
-60.650920103
 40
2.250000000
  0
LINE
  8
1
 62
7
  6
CONTINUOUS
 10
1222.765246885
 20
-213.150920103
 11
1236.765246885
 21
-213.150920103
  0
LINE
  8
1
 62
7
  6
CONTINUOUS
 10
1222.765246885
 20
-211.950920103
 11
1236.765246885
 21
-211.950920103
  0
LINE
  8
1
 62
1
  6
HIDDEN2
 10
1210.765246885
 20
-199.650920103
 11
1210.765246885
 21
-180.650920103
  0
LINE
  8
1
 62
7
  6
CONTINUOUS
 10
1222.765246885
 20
-199.650920103
 11
1222.765246885
 21
-213.150920103
  0
LINE
  8
1
 62
7
  6
CONTINUOUS
 10
1196.765246885
 20
-199.650920103
 11
1196.765246885
 21
-213.150920103
  0
LINE
  8
2
 62
7
  6
CONTINUOUS
 10
1002.565246885
 20
331.567258169
 11
1002.565246885
 21
438.567258169
  0
LINE
  8
2
 62
7
  6
CONTINUOUS
 10
1018.666682804
 20
331.567258169
 11
1002.565246885
 21
331.567258169
  0
LINE
  8
1
 62
7
  6
CONTINUOUS
 10
714.982777421
 20
170.648828957
 11
719.982777421
 21
170.648828957
  0
ARC
  8
1
 62
7
  6
CONTINUOUS
 10
714.982777421
 20
168.848828957
 40
3.000000000
 50
90.000000000
 51
180.000000000
  0
LINE
  8
1
 62
7
  6
CONTINUOUS
 10
635.282777422
 20
123.848676053
 11
773.282749807
 21
123.848940806
  0
LINE
  8
1
 62
7
  6
CONTINUOUS
 10
711.982777421
 20
168.848828957
 11
711.982777421
 21
126.848828957
  0
LINE
  8
2
 62
7
  6
CONTINUOUS
 10
976.565246885
 20
336.067258169
 11
976.565246885
 21
434.067258169
  0
LINE
  8
1
 62
7
  6
CONTINUOUS
 10
719.982777421
 20
170.648828957
 11
719.982777421
 21
171.848828957
  0
LINE
  8
1
 62
7
  6
CONTINUOUS
 10
719.982777421
 20
171.848828957
 11
714.982777421
 21
171.848828957
  0
LINE
  8
1
 62
7
  6
CONTINUOUS
 10
711.982777421
 20
133.057589707
 11
713.182777421
 21
133.057589707
  0
LINE
  8
1
 62
7
  6
CONTINUOUS
 10
713.182777421
 20
129.345879441
 11
717.479576943
 21
125.049079919
  0
LINE
  8
2
 62
7
  6
CONTINUOUS
 10
1002.565246885
 20
438.567258169
 11
1020.565246885
 21
438.567258169
  0
ARC
  8
2
 62
7
  6
CONTINUOUS
 10
743.782777421
 20
-60.650920103
 40
45.000000000
 50
285.173866156
 51
360.000000000
  0
ARC
  8
2
 62
7
  6
CONTINUOUS
 10
743.782777421
 20
-60.650920103
 40
45.000000000
 50
0.000000000
 51
74.826133844
  0
LINE
  8
7
 62
7
  6
CONTINUOUS
 10
714.982777421
 20
125.048827413
 11
764.241536733
 21
125.048926560
  0
ARC
  8
1
 62
7
  6
CONTINUOUS
 10
714.982777421
 20
126.848828957
 40
3.000000000
 50
180.000000000
 51
270.000110608
  0
LINE
  8
1
 62
7
  6
CONTINUOUS
 10
713.182777421
 20
126.849079919
 11
713.182777421
 21
168.848828957
  0
ARC
  8
1
 62
7
  6
CONTINUOUS
 10
714.982777421
 20
168.848828957
 40
1.800000000
 50
90.000000000
 51
180.000000000
  0
ARC
  8
1
 62
7
  6
CONTINUOUS
 10
714.982777421
 20
126.849079919
 40
1.800000000
 50
180.000000000
 51
270.000000000
  0
LINE
  8
1
 62
2
  6
DASHDOT2
 10
708.635780218
 20
139.348828957
 11
718.355936168
 21
139.348828957
  0
LINE
  8
2
 62
7
  6
CONTINUOUS
 10
1020.565246885
 20
448.567258169
 11
1021.165246885
 21
448.567258169
  0
LINE
  8
2
 62
7
  6
CONTINUOUS
 10
714.632777421
 20
-28.425542453
 11
714.632777421
 21
-34.450920103
  0
LINE
  8
2
 62
7
  6
CONTINUOUS
 10
999.265246885
 20
285.567258169
 11
1021.765246885
 21
285.567258169
  0
LINE
  8
2
 62
7
  6
CONTINUOUS
 10
1021.165246885
 20
467.567258169
 11
1021.765246885
 21
467.567258169
  0
LINE
  8
2
 62
7
  6
CONTINUOUS
 10
723.782777421
 20
-60.650920103
 11
723.782777421
 21
-85.685256656
  0
LINE
  8
2
 62
7
  6
CONTINUOUS
 10
718.282777421
 20
-60.650920103
 11
718.282777421
 21
-89.945679580
  0
LINE
  8
2
 62
7
  6
CONTINUOUS
 10
718.282777421
 20
-89.945679580
 11
755.257728691
 21
-99.491304928
  0
ARC
  8
2
 62
7
  6
CONTINUOUS
 10
743.782777421
 20
-60.650920103
 40
40.500000000
 50
286.459177744
 51
360.000000000
  0
ARC
  8
2
 62
7
  6
CONTINUOUS
 10
743.782777421
 20
-60.650920103
 40
63.500000000
 50
32.424952812
 51
327.575047188
  0
CIRCLE
  8
2
 62
7
  6
CONTINUOUS
 10
743.782777421
 20
-60.650920103
 40
47.500000000
  0
LINE
  8
8
 62
7
  6
CONTINUOUS
 10
686.382777421
 20
82.074466505
 11
673.732777421
 21
74.770985600
  0
ARC
  8
8
 62
7
  6
CONTINUOUS
 10
680.848802825
 20
63.445668053
 40
13.375374204
 50
122.142337532
 51
182.142337532
  0
LINE
  8
8
 62
7
  6
CONTINUOUS
 10
667.482777421
 20
62.945668053
 11
667.482777421
 21
19.349079897
  0
LINE
  8
2
 62
7
  6
CONTINUOUS
 10
1210.065246885
 20
493.567258169
 11
1270.065246885
 21
493.567258169
  0
LINE
  8
2
 62
7
  6
CONTINUOUS
 10
1210.065246885
 20
443.067258169
 11
1210.065246885
 21
493.567258169
  0
LINE
  8
3
 62
7
  6
CONTINUOUS
 10
661.382777421
 20
-46.850920103
 11
640.282777421
 21
-46.850920103
  0
LINE
  8
3
 62
7
  6
CONTINUOUS
 10
1101.065246885
 20
468.067258169
 11
1101.065246885
 21
488.567258169
  0
LINE
  8
3
 62
7
  6
CONTINUOUS
 10
1106.065246885
 20
493.567258169
 11
1142.265246885
 21
493.567258169
  0
ARC
  8
3
 62
7
  6
CONTINUOUS
 10
1106.065246885
 20
488.567258169
 40
5.000000000
 50
90.000000000
 51
180.000000000
  0
ARC
  8
2
 62
7
  6
CONTINUOUS
 10
715.632777421
 20
-28.425542453
 40
1.000000000
 50
104.475672986
 51
180.000000000
  0
ARC
  8
3
 62
7
  6
CONTINUOUS
 10
1178.465246885
 20
488.567258169
 40
5.000000000
 50
0.000000000
 51
90.000000000
  0
ARC
  8
3
 62
7
  6
CONTINUOUS
 10
1184.965246885
 20
465.967258169
 40
1.500000000
 50
180.000000000
 51
270.000000000
  0
LINE
  8
3
 62
7
  6
CONTINUOUS
 10
1198.265246885
 20
461.967258169
 11
1181.765246885
 21
461.967258169
  0
LINE
  8
3
 62
7
  6
CONTINUOUS
 10
1184.965246885
 20
464.467258169
 11
1181.765246885
 21
464.467258169
  0
LINE
  8
3
 62
7
  6
CONTINUOUS
 10
1178.465246885
 20
493.567258169
 11
1142.265246885
 21
493.567258169
  0
LINE
  8
3
 62
7
  6
CONTINUOUS
 10
1183.465246885
 20
465.967258169
 11
1183.465246885
 21
488.567258169
  0
LINE
  8
3
 62
7
  6
CONTINUOUS
 10
1198.265246885
 20
464.467258169
 11
1184.965246885
 21
464.467258169
  0
LINE
  8
3
 62
7
  6
CONTINUOUS
 10
1198.265246885
 20
461.967258169
 11
1198.265246885
 21
464.467258169
  0
LINE
  8
7
 62
7
  6
CONTINUOUS
 10
842.291503956
 20
-169.142269390
 11
774.282777421
 21
-169.142269390
  0
LINE
  8
2
 62
7
  6
CONTINUOUS
 10
680.082777421
 20
-165.150920103
 11
635.282777421
 21
-165.150920103
  0
LINE
  8
2
 62
7
  6
CONTINUOUS
 10
842.682777421
 20
-187.650920103
 11
843.282777421
 21
-187.650920103
  0
ARC
  8
7
 62
7
  6
CONTINUOUS
 10
842.282777421
 20
-170.142231313
 40
1.000000000
 50
0.000000000
 51
89.500000000
  0
LINE
  8
2
 62
1
  6
HIDDEN2
 10
690.282777421
 20
-184.350920103
 11
690.282777421
 21
-166.350920103
  0
LINE
  8
2
 62
1
  6
HIDDEN2
 10
661.282777421
 20
-165.750920103
 11
661.282777421
 21
-165.150920103
  0
ARC
  8
5
 62
7
  6
CONTINUOUS
 10
681.082777421
 20
-160.550920103
 40
0.400000000
 50
90.000000000
 51
180.000000000
  0
ARC
  8
5
 62
7
  6
CONTINUOUS
 10
681.082777421
 20
-160.550920103
 40
1.000000000
 50
90.000000000
 51
180.000000000
  0
LINE
  8
5
 62
7
  6
CONTINUOUS
 10
686.082777421
 20
-159.550920103
 11
686.082777421
 21
-160.150920103
  0
LINE
  8
7
 62
7
  6
CONTINUOUS
 10
842.291503956
 20
127.840429185
 11
774.282777421
 21
127.840429185
  0
ARC
  8
7
 62
7
  6
CONTINUOUS
 10
774.282777421
 20
126.840429185
 40
1.000000000
 50
90.000000000
 51
180.000000000
  0
LINE
  8
1
 62
7
  6
CONTINUOUS
 10
883.282777421
 20
-131.650920103
 11
883.282777421
 21
-129.650920103
  0
ARC
  8
1
 62
7
  6
CONTINUOUS
 10
882.282777421
 20
-151.650920103
 40
1.000000000
 50
0.000000000
 51
90.000000000
  0
LINE
  8
2
 62
2
  6
DASHDOT2
 10
606.508594917
 20
-20.650920103
 11
895.606611946
 21
-20.650920103
  0
ARC
  8
1
 62
7
  6
CONTINUOUS
 10
882.282777421
 20
-140.650920103
 40
1.000000000
 50
0.000000000
 51
90.000000000
  0
ARC
  8
1
 62
7
  6
CONTINUOUS
 10
882.282777421
 20
-120.650920103
 40
1.000000000
 50
270.000000000
 51
0.000000000
  0
LINE
  8
1
 62
7
  6
CONTINUOUS
 10
883.282777421
 20
-120.650920103
 11
883.282777421
 21
-118.650920103
  0
LINE
  8
1
 62
7
  6
CONTINUOUS
 10
882.282777421
 20
-117.650920103
 11
868.282777421
 21
-117.650920103
  0
LINE
  8
1
 62
7
  6
CONTINUOUS
 10
882.282777421
 20
-121.650920103
 11
868.282777421
 21
-121.650920103
  0
ARC
  8
1
 62
7
  6
CONTINUOUS
 10
882.282777421
 20
-107.650920103
 40
1.000000000
 50
0.000000000
 51
90.000000000
  0
ARC
  8
1
 62
7
  6
CONTINUOUS
 10
882.282777421
 20
-109.650920103
 40
1.000000000
 50
270.000000000
 51
0.000000000
  0
LINE
  8
1
 62
7
  6
CONTINUOUS
 10
883.282777421
 20
-109.650920103
 11
883.282777421
 21
-107.650920103
  0
LINE
  8
1
 62
7
  6
CONTINUOUS
 10
882.282777421
 20
-106.650920103
 11
868.282777421
 21
-106.650920103
  0
LINE
  8
1
 62
7
  6
CONTINUOUS
 10
882.282777421
 20
-110.650920103
 11
868.282777421
 21
-110.650920103
  0
ARC
  8
1
 62
7
  6
CONTINUOUS
 10
882.282777421
 20
-96.650920103
 40
1.000000000
 50
0.000000000
 51
90.000000000
  0
ARC
  8
1
 62
7
  6
CONTINUOUS
 10
882.282777421
 20
-98.650920103
 40
1.000000000
 50
270.000000000
 51
0.000000000
  0
LINE
  8
2
 62
1
  6
HIDDEN2
 10
1149.765246885
 20
-212.350920103
 11
1150.965246885
 21
-212.350920103
  0
LINE
  8
1
 62
7
  6
CONTINUOUS
 10
883.282777421
 20
-98.650920103
 11
883.282777421
 21
-96.650920103
  0
LINE
  8
1
 62
7
  6
CONTINUOUS
 10
882.282777421
 20
-95.650920103
 11
868.282777421
 21
-95.650920103
  0
LINE
  8
1
 62
7
  6
CONTINUOUS
 10
882.282777421
 20
-99.650920103
 11
868.282777421
 21
-99.650920103
  0
ARC
  8
1
 62
7
  6
CONTINUOUS
 10
882.282777421
 20
-85.650920103
 40
1.000000000
 50
0.000000000
 51
90.000000000
  0
ARC
  8
1
 62
7
  6
CONTINUOUS
 10
882.282777421
 20
-87.650920103
 40
1.000000000
 50
270.000000000
 51
0.000000000
  0
LINE
  8
1
 62
7
  6
CONTINUOUS
 10
883.282777421
 20
-87.650920103
 11
883.282777421
 21
-85.650920103
  0
LINE
  8
1
 62
7
  6
CONTINUOUS
 10
882.282777421
 20
-84.650920103
 11
868.282777421
 21
-84.650920103
  0
LINE
  8
1
 62
7
  6
CONTINUOUS
 10
882.282777421
 20
-88.650920103
 11
868.282777421
 21
-88.650920103
  0
ARC
  8
1
 62
7
  6
CONTINUOUS
 10
882.282777421
 20
-74.650920103
 40
1.000000000
 50
0.000000000
 51
90.000000000
  0
ARC
  8
1
 62
7
  6
CONTINUOUS
 10
882.282777421
 20
-76.650920103
 40
1.000000000
 50
270.000000000
 51
0.000000000
  0
LINE
  8
1
 62
7
  6
CONTINUOUS
 10
883.282777421
 20
-76.650920103
 11
883.282777421
 21
-74.650920103
  0
LINE
  8
1
 62
7
  6
CONTINUOUS
 10
882.282777421
 20
-73.650920103
 11
868.282777421
 21
-73.650920103
  0
LINE
  8
1
 62
7
  6
CONTINUOUS
 10
882.282777421
 20
-77.650920103
 11
868.282777421
 21
-77.650920103
  0
ARC
  8
1
 62
7
  6
CONTINUOUS
 10
882.282777421
 20
-63.650920103
 40
1.000000000
 50
0.000000000
 51
90.000000000
  0
LINE
  8
2
 62
1
  6
HIDDEN2
 10
1149.765246885
 20
-210.350920103
 11
1150.965246885
 21
-210.350920103
  0
ARC
  8
1
 62
7
  6
CONTINUOUS
 10
882.282777421
 20
-65.650920103
 40
1.000000000
 50
270.000000000
 51
0.000000000
  0
LINE
  8
1
 62
7
  6
CONTINUOUS
 10
883.282777421
 20
-65.650920103
 11
883.282777421
 21
-63.650920103
  0
LINE
  8
1
 62
7
  6
CONTINUOUS
 10
882.282777421
 20
-62.650920103
 11
868.282777421
 21
-62.650920103
  0
LINE
  8
1
 62
7
  6
CONTINUOUS
 10
882.282777421
 20
-66.650920103
 11
868.282777421
 21
-66.650920103
  0
ARC
  8
1
 62
7
  6
CONTINUOUS
 10
882.282777421
 20
-52.650920103
 40
1.000000000
 50
0.000000000
 51
90.000000000
  0
ARC
  8
1
 62
7
  6
CONTINUOUS
 10
882.282777421
 20
-54.650920103
 40
1.000000000
 50
270.000000000
 51
0.000000000
  0
LINE
  8
1
 62
7
  6
CONTINUOUS
 10
883.282777421
 20
-54.650920103
 11
883.282777421
 21
-52.650920103
  0
LINE
  8
1
 62
7
  6
CONTINUOUS
 10
882.282777421
 20
-51.650920103
 11
868.282777421
 21
-51.650920103
  0
LINE
  8
1
 62
7
  6
CONTINUOUS
 10
882.282777421
 20
-55.650920103
 11
868.282777421
 21
-55.650920103
  0
ARC
  8
1
 62
7
  6
CONTINUOUS
 10
882.282777421
 20
-41.650920103
 40
1.000000000
 50
0.000000000
 51
90.000000000
  0
LINE
  8
2
 62
1
  6
HIDDEN2
 10
1150.965246885
 20
-212.350920103
 11
1150.965246885
 21
-210.350920103
  0
ARC
  8
1
 62
7
  6
CONTINUOUS
 10
882.282777421
 20
-43.650920103
 40
1.000000000
 50
270.000000000
 51
0.000000000
  0
LINE
  8
1
 62
7
  6
CONTINUOUS
 10
883.282777421
 20
-43.650920103
 11
883.282777421
 21
-41.650920103
  0
LINE
  8
1
 62
7
  6
CONTINUOUS
 10
882.282777421
 20
-18.650920103
 11
868.282777421
 21
-18.650920103
  0
LINE
  8
1
 62
7
  6
CONTINUOUS
 10
883.282777421
 20
-19.650920103
 11
883.282777421
 21
-20.650920103
  0
ARC
  8
1
 62
7
  6
CONTINUOUS
 10
882.282777421
 20
-19.650920103
 40
1.000000000
 50
0.000000000
 51
90.000000000
  0
LINE
  8
1
 62
7
  6
CONTINUOUS
 10
882.282777421
 20
-7.650920103
 11
868.282777421
 21
-7.650920103
  0
LINE
  8
1
 62
7
  6
CONTINUOUS
 10
882.282777421
 20
-11.650920103
 11
868.282777421
 21
-11.650920103
  0
LINE
  8
1
 62
7
  6
CONTINUOUS
 10
883.282777421
 20
-8.650920103
 11
883.282777421
 21
-10.650920103
  0
ARC
  8
1
 62
7
  6
CONTINUOUS
 10
882.282777421
 20
-8.650920103
 40
1.000000000
 50
0.000000000
 51
90.000000000
  0
ARC
  8
1
 62
7
  6
CONTINUOUS
 10
882.282777421
 20
-10.650920103
 40
1.000000000
 50
270.000000000
 51
0.000000000
  0
LINE
  8
1
 62
7
  6
CONTINUOUS
 10
882.282777421
 20
3.349079897
 11
868.282777421
 21
3.349079897
  0
LINE
  8
1
 62
7
  6
CONTINUOUS
 10
882.282777421
 20
-0.650920103
 11
868.282777421
 21
-0.650920103
  0
LINE
  8
2
 62
7
  6
CONTINUOUS
 10
723.782777421
 20
-35.616583553
 11
755.100755806
 21
-27.531388626
  0
LINE
  8
1
 62
7
  6
CONTINUOUS
 10
883.282777421
 20
2.349079897
 11
883.282777421
 21
0.349079897
  0
ARC
  8
1
 62
7
  6
CONTINUOUS
 10
882.282777421
 20
2.349079897
 40
1.000000000
 50
0.000000000
 51
90.000000000
  0
ARC
  8
1
 62
7
  6
CONTINUOUS
 10
882.282777421
 20
0.349079897
 40
1.000000000
 50
270.000000000
 51
360.000000000
  0
LINE
  8
1
 62
7
  6
CONTINUOUS
 10
882.282777421
 20
14.349079897
 11
868.282777421
 21
14.349079897
  0
ARC
  8
2
 62
7
  6
CONTINUOUS
 10
710.795159028
 20
-31.650920103
 40
1.500000000
 50
90.000000000
 51
180.000000000
  0
LINE
  8
1
 62
7
  6
CONTINUOUS
 10
882.282777421
 20
10.349079897
 11
868.282777421
 21
10.349079897
  0
LINE
  8
1
 62
7
  6
CONTINUOUS
 10
883.282777421
 20
13.349079897
 11
883.282777421
 21
11.349079897
  0
ARC
  8
1
 62
7
  6
CONTINUOUS
 10
882.282777421
 20
13.349079897
 40
1.000000000
 50
0.000000000
 51
90.000000000
  0
ARC
  8
1
 62
7
  6
CONTINUOUS
 10
882.282777421
 20
11.349079897
 40
1.000000000
 50
270.000000000
 51
0.000000000
  0
LINE
  8
2
 62
1
  6
HIDDEN2
 10
1150.965246885
 20
-210.350920103
 11
1149.765246885
 21
-210.350920103
  0
LINE
  8
1
 62
7
  6
CONTINUOUS
 10
882.282777421
 20
25.349079897
 11
868.282777421
 21
25.349079897
  0
LINE
  8
1
 62
7
  6
CONTINUOUS
 10
882.282777421
 20
21.349079897
 11
868.282777421
 21
21.349079897
  0
LINE
  8
1
 62
7
  6
CONTINUOUS
 10
883.282777421
 20
24.349079897
 11
883.282777421
 21
22.349079897
  0
LINE
  8
1
 62
7
  6
CONTINUOUS
 10
843.282777421
 20
-20.650920103
 11
843.282777421
 21
-199.650920103
  0
LINE
  8
5
 62
7
  6
CONTINUOUS
 10
680.082777421
 20
-165.150920103
 11
680.082777421
 21
-165.750920103
  0
LINE
  8
7
 62
7
  6
CONTINUOUS
 10
773.282777421
 20
124.738103956
 11
773.282777421
 21
126.840429185
  0
ARC
  8
7
 62
7
  6
CONTINUOUS
 10
1413.663054930
 20
354.567258169
 40
1.000000000
 50
0.500000000
 51
90.000000000
  0
ARC
  8
1
 62
7
  6
CONTINUOUS
 10
882.282777421
 20
24.349079897
 40
1.000000000
 50
0.000000000
 51
90.000000000
  0
LINE
  8
5
 62
7
  6
CONTINUOUS
 10
686.082777421
 20
-159.550920103
 11
681.082777421
 21
-159.550920103
  0
LINE
  8
2
 62
7
  6
CONTINUOUS
 10
955.565246885
 20
-107.950920103
 11
955.565246885
 21
-13.350920103
  0
LINE
  8
2
 62
7
  6
CONTINUOUS
 10
1270.065246885
 20
443.067258169
 11
1270.065246885
 21
493.567258169
  0
ARC
  8
7
 62
7
  6
CONTINUOUS
 10
1416.256558096
 20
286.567258169
 40
1.000000000
 50
180.500000000
 51
270.000000000
  0
LINE
  8
7
 62
7
  6
CONTINUOUS
 10
1414.663016853
 20
354.575984704
 11
1415.256596173
 21
286.558531634
  0
LINE
  8
7
 62
7
  6
CONTINUOUS
 10
1412.154270944
 20
355.567258169
 11
1413.663054930
 21
355.567258169
  0
LINE
  8
2
 62
7
  6
CONTINUOUS
 10
1270.065246885
 20
493.567258169
 11
1411.265246885
 21
493.567258169
  0
LINE
  8
2
 62
7
  6
CONTINUOUS
 10
1411.265246885
 20
493.567258169
 11
1411.265246885
 21
355.567258169
  0
LINE
  8
3
 62
7
  6
CONTINUOUS
 10
664.982777421
 20
50.349079897
 11
664.982777421
 21
37.049079897
  0
LINE
  8
5
 62
2
  6
DASHDOT2
 10
1101.765246885
 20
199.017175793
 11
1101.765246885
 21
153.135661042
  0
LINE
  8
5
 62
7
  6
CONTINUOUS
 10
773.282777421
 20
-165.750920103
 11
680.082777421
 21
-165.750920103
  0
LINE
  8
3
 62
7
  6
CONTINUOUS
 10
663.482777421
 20
35.549079897
 11
640.282777421
 21
35.549079897
  0
LINE
  8
3
 62
7
  6
CONTINUOUS
 10
635.282777421
 20
-41.850920103
 11
635.282777421
 21
-5.650920103
  0
LINE
  8
3
 62
7
  6
CONTINUOUS
 10
635.282777421
 20
30.549079897
 11
635.282777421
 21
-5.650920103
  0
LINE
  8
2
 62
7
  6
CONTINUOUS
 10
1066.765246885
 20
331.067258169
 11
1101.765246885
 21
331.067258169
  0
ARC
  8
2
 62
7
  6
CONTINUOUS
 10
1066.765246885
 20
352.067258169
 40
21.000000000
 50
180.000000000
 51
270.000000000
  0
LINE
  8
2
 62
7
  6
CONTINUOUS
 10
1045.765246885
 20
355.567258169
 11
1045.765246885
 21
352.067258169
  0
ARC
  8
1
 62
7
  6
CONTINUOUS
 10
882.282777421
 20
22.349079897
 40
1.000000000
 50
270.000000000
 51
0.000000000
  0
LINE
  8
3
 62
7
  6
CONTINUOUS
 10
664.982777421
 20
37.049079897
 11
664.982777421
 21
19.349079897
  0
LINE
  8
3
 62
7
  6
CONTINUOUS
 10
667.482777421
 20
50.349079897
 11
667.482777421
 21
19.349079897
  0
LINE
  8
2
 62
1
  6
HIDDEN2
 10
1150.965246885
 20
-212.350920103
 11
1149.765246885
 21
-212.350920103
  0
LINE
  8
2
 62
1
  6
HIDDEN2
 10
1149.065246885
 20
-231.350920103
 11
1054.465246885
 21
-231.350920103
  0
LINE
  8
1
 62
7
  6
CONTINUOUS
 10
882.282777421
 20
36.349079897
 11
868.282777421
 21
36.349079897
  0
LINE
  8
1
 62
7
  6
CONTINUOUS
 10
882.282777421
 20
32.349079897
 11
868.282777421
 21
32.349079897
  0
LINE
  8
1
 62
7
  6
CONTINUOUS
 10
883.282777421
 20
35.349079897
 11
883.282777421
 21
33.349079897
  0
ARC
  8
1
 62
7
  6
CONTINUOUS
 10
882.282777421
 20
35.349079897
 40
1.000000000
 50
0.000000000
 51
90.000000000
  0
ARC
  8
1
 62
7
  6
CONTINUOUS
 10
882.282777421
 20
33.349079897
 40
1.000000000
 50
270.000000000
 51
0.000000000
  0
LINE
  8
1
 62
7
  6
CONTINUOUS
 10
882.282777421
 20
47.349079897
 11
868.282777421
 21
47.349079897
  0
LINE
  8
1
 62
7
  6
CONTINUOUS
 10
882.282777421
 20
43.349079897
 11
868.282777421
 21
43.349079897
  0
LINE
  8
1
 62
7
  6
CONTINUOUS
 10
883.282777421
 20
46.349079897
 11
883.282777421
 21
44.349079897
  0
ARC
  8
1
 62
7
  6
CONTINUOUS
 10
882.282777421
 20
46.349079897
 40
1.000000000
 50
0.000000000
 51
90.000000000
  0
ARC
  8
1
 62
7
  6
CONTINUOUS
 10
882.282777421
 20
44.349079897
 40
1.000000000
 50
270.000000000
 51
0.000000000
  0
LINE
  8
1
 62
7
  6
CONTINUOUS
 10
882.282777421
 20
58.349079897
 11
868.282777421
 21
58.349079897
  0
LINE
  8
1
 62
7
  6
CONTINUOUS
 10
882.282777421
 20
54.349079897
 11
868.282777421
 21
54.349079897
  0
LINE
  8
1
 62
7
  6
CONTINUOUS
 10
883.282777421
 20
57.349079897
 11
883.282777421
 21
55.349079897
  0
ARC
  8
1
 62
7
  6
CONTINUOUS
 10
882.282777421
 20
57.349079897
 40
1.000000000
 50
0.000000000
 51
90.000000000
  0
ARC
  8
1
 62
7
  6
CONTINUOUS
 10
882.282777421
 20
55.349079897
 40
1.000000000
 50
270.000000000
 51
0.000000000
  0
LINE
  8
1
 62
7
  6
CONTINUOUS
 10
882.282777421
 20
69.349079897
 11
868.282777421
 21
69.349079897
  0
LINE
  8
1
 62
7
  6
CONTINUOUS
 10
882.282777421
 20
65.349079897
 11
868.282777421
 21
65.349079897
  0
LINE
  8
1
 62
7
  6
CONTINUOUS
 10
883.282777421
 20
68.349079897
 11
883.282777421
 21
66.349079897
  0
ARC
  8
1
 62
7
  6
CONTINUOUS
 10
882.282777421
 20
68.349079897
 40
1.000000000
 50
0.000000000
 51
90.000000000
  0
ARC
  8
1
 62
7
  6
CONTINUOUS
 10
882.282777421
 20
66.349079897
 40
1.000000000
 50
270.000000000
 51
0.000000000
  0
LINE
  8
1
 62
7
  6
CONTINUOUS
 10
882.282777421
 20
80.349079897
 11
868.282777421
 21
80.349079897
  0
LINE
  8
1
 62
7
  6
CONTINUOUS
 10
882.282777421
 20
76.349079897
 11
868.282777421
 21
76.349079897
  0
LINE
  8
1
 62
7
  6
CONTINUOUS
 10
883.282777421
 20
79.349079897
 11
883.282777421
 21
77.349079897
  0
ARC
  8
1
 62
7
  6
CONTINUOUS
 10
882.282777421
 20
79.349079897
 40
1.000000000
 50
0.000000000
 51
90.000000000
  0
LINE
  8
5
 62
2
  6
DASHDOT2
 10
1101.765246885
 20
-239.278975185
 11
1101.765246885
 21
-189.910654221
  0
LINE
  8
2
 62
1
  6
HIDDEN2
 10
1150.965246885
 20
-210.350920103
 11
1150.965246885
 21
-212.350920103
  0
ARC
  8
1
 62
7
  6
CONTINUOUS
 10
882.282777421
 20
99.349079897
 40
1.000000000
 50
270.000000000
 51
0.000000000
  0
LINE
  8
1
 62
7
  6
CONTINUOUS
 10
876.282777421
 20
120.349079897
 11
876.282777421
 21
113.349079897
  0
ARC
  8
1
 62
7
  6
CONTINUOUS
 10
882.282777421
 20
-162.650920103
 40
1.000000000
 50
0.000000000
 51
90.000000000
  0
ARC
  8
1
 62
7
  6
CONTINUOUS
 10
882.282777421
 20
-118.650920103
 40
1.000000000
 50
0.000000000
 51
90.000000000
  0
LINE
  8
2
 62
1
  6
HIDDEN2
 10
1053.765246885
 20
-212.350920103
 11
1149.765246885
 21
-212.350920103
  0
LINE
  8
1
 62
7
  6
CONTINUOUS
 10
882.282777421
 20
-132.650920103
 11
868.282777421
 21
-132.650920103
  0
LINE
  8
1
 62
7
  6
CONTINUOUS
 10
882.282777421
 20
-128.650920103
 11
868.282777421
 21
-128.650920103
  0
LINE
  8
2
 62
1
  6
HIDDEN2
 10
1149.065246885
 20
-231.350920103
 11
1149.765246885
 21
-226.350920103
  0
LINE
  8
1
 62
7
  6
CONTINUOUS
 10
882.282777421
 20
-40.650920103
 11
868.282777421
 21
-40.650920103
  0
ARC
  8
1
 62
7
  6
CONTINUOUS
 10
882.282777421
 20
110.349079897
 40
1.000000000
 50
270.000000000
 51
0.000000000
  0
LINE
  8
2
 62
1
  6
HIDDEN2
 10
1149.765246885
 20
-226.350920103
 11
1149.765246885
 21
-212.350920103
  0
LINE
  8
1
 62
7
  6
CONTINUOUS
 10
882.282777421
 20
-44.650920103
 11
868.282777421
 21
-44.650920103
  0
LINE
  8
1
 62
7
  6
CONTINUOUS
 10
868.282777421
 20
120.349079897
 11
882.282777421
 21
120.349079897
  0
ARC
  8
1
 62
7
  6
CONTINUOUS
 10
882.282777421
 20
-30.650920103
 40
1.000000000
 50
0.000000000
 51
90.000000000
  0
ARC
  8
1
 62
7
  6
CONTINUOUS
 10
882.282777421
 20
112.349079897
 40
1.000000000
 50
0.000000000
 51
90.000000000
  0
ARC
  8
1
 62
7
  6
CONTINUOUS
 10
882.282777421
 20
-32.650920103
 40
1.000000000
 50
270.000000000
 51
0.000000000
  0
LINE
  8
2
 62
7
  6
CONTINUOUS
 10
843.282777421
 20
-199.650920103
 11
859.646487303
 21
-198.219280995
  0
LINE
  8
1
 62
7
  6
CONTINUOUS
 10
883.282777421
 20
112.349079897
 11
883.282777421
 21
110.349079897
  0
LINE
  8
1
 62
7
  6
CONTINUOUS
 10
882.282777421
 20
109.349079897
 11
868.282777421
 21
109.349079897
  0
LINE
  8
1
 62
7
  6
CONTINUOUS
 10
883.282777421
 20
-32.650920103
 11
883.282777421
 21
-30.650920103
  0
LINE
  8
1
 62
7
  6
CONTINUOUS
 10
882.282777421
 20
-29.650920103
 11
868.282777421
 21
-29.650920103
  0
ARC
  8
1
 62
7
  6
CONTINUOUS
 10
858.282777421
 20
146.998551569
 40
10.000000000
 50
0.000000000
 51
85.000000000
  0
LINE
  8
1
 62
7
  6
CONTINUOUS
 10
868.282777421
 20
146.998551569
 11
868.282777421
 21
-20.650920103
  0
LINE
  8
2
 62
7
  6
CONTINUOUS
 10
843.282777421
 20
158.349079897
 11
859.646487303
 21
156.917440789
  0
LINE
  8
1
 62
7
  6
CONTINUOUS
 10
843.282777421
 20
-20.650920103
 11
843.282777421
 21
158.349079897
  0
LINE
  8
1
 62
7
  6
CONTINUOUS
 10
882.282777421
 20
113.349079897
 11
868.282777421
 21
113.349079897
  0
LINE
  8
1
 62
7
  6
CONTINUOUS
 10
882.282777421
 20
-33.650920103
 11
868.282777421
 21
-33.650920103
  0
ARC
  8
1
 62
7
  6
CONTINUOUS
 10
882.282777421
 20
-21.650920103
 40
1.000000000
 50
270.000000000
 51
0.000000000
  0
LINE
  8
1
 62
7
  6
CONTINUOUS
 10
883.282777421
 20
-21.650920103
 11
883.282777421
 21
-20.650920103
  0
LINE
  8
1
 62
7
  6
CONTINUOUS
 10
882.282777421
 20
-22.650920103
 11
868.282777421
 21
-22.650920103
  0
ARC
  8
1
 62
7
  6
CONTINUOUS
 10
882.282777421
 20
101.349079897
 40
1.000000000
 50
0.000000000
 51
90.000000000
  0
LINE
  8
1
 62
7
  6
CONTINUOUS
 10
883.282777421
 20
101.349079897
 11
883.282777421
 21
99.349079897
  0
LINE
  8
1
 62
7
  6
CONTINUOUS
 10
882.282777421
 20
98.349079897
 11
868.282777421
 21
98.349079897
  0
LINE
  8
1
 62
7
  6
CONTINUOUS
 10
882.282777421
 20
102.349079897
 11
868.282777421
 21
102.349079897
  0
ARC
  8
1
 62
7
  6
CONTINUOUS
 10
882.282777421
 20
88.349079897
 40
1.000000000
 50
270.000000000
 51
0.000000000
  0
ARC
  8
1
 62
7
  6
CONTINUOUS
 10
882.282777421
 20
90.349079897
 40
1.000000000
 50
0.000000000
 51
90.000000000
  0
LINE
  8
1
 62
7
  6
CONTINUOUS
 10
883.282777421
 20
90.349079897
 11
883.282777421
 21
88.349079897
  0
LINE
  8
1
 62
7
  6
CONTINUOUS
 10
882.282777421
 20
87.349079897
 11
868.282777421
 21
87.349079897
  0
LINE
  8
1
 62
7
  6
CONTINUOUS
 10
882.282777421
 20
91.349079897
 11
868.282777421
 21
91.349079897
  0
LINE
  8
2
 62
7
  6
CONTINUOUS
 10
1101.765246885
 20
331.067258169
 11
1136.765246885
 21
331.067258169
  0
ARC
  8
1
 62
7
  6
CONTINUOUS
 10
882.282777421
 20
77.349079897
 40
1.000000000
 50
270.000000000
 51
0.000000000
  0
LINE
  8
2
 62
1
  6
HIDDEN2
 10
797.282777421
 20
-169.142269390
 11
797.282777421
 21
-184.350920103
  0
LINE
  8
2
 62
1
  6
HIDDEN2
 10
797.282777421
 20
-184.350920103
 11
690.282777421
 21
-184.350920103
  0
ARC
  8
1
 62
7
  6
CONTINUOUS
 10
882.282777421
 20
121.349079897
 40
1.000000000
 50
270.000000000
 51
0.000000000
  0
ARC
  8
2
 62
7
  6
CONTINUOUS
 10
781.382777421
 20
-15.650920103
 40
16.000000000
 50
0.000000000
 51
90.000000000
  0
LINE
  8
2
 62
7
  6
CONTINUOUS
 10
686.382777421
 20
123.849079897
 11
686.382777421
 21
19.349079897
  0
LINE
  8
1
 62
7
  6
CONTINUOUS
 10
1216.765246885
 20
285.567258169
 11
1445.765246885
 21
285.567258169
  0
LINE
  8
2
 62
7
  6
CONTINUOUS
 10
1445.765246885
 20
285.567258169
 11
1444.376665538
 21
269.695700742
  0
LINE
  8
2
 62
2
  6
DASHDOT2
 10
1216.765246885
 20
234.177397811
 11
1216.765246885
 21
303.307048842
  0
ARC
  8
3
 62
7
  6
CONTINUOUS
 10
663.482777421
 20
37.049079897
 40
1.500000000
 50
270.000000000
 51
0.000000000
  0
ARC
  8
1
 62
7
  6
CONTINUOUS
 10
833.282777421
 20
121.349079897
 40
50.000000000
 50
0.000000000
 51
29.181264943
  0
ARC
  8
1
 62
7
  6
CONTINUOUS
 10
833.282777421
 20
-162.650920103
 40
50.000000000
 50
330.818735057
 51
0.000000000
  0
LINE
  8
2
 62
7
  6
CONTINUOUS
 10
1181.765246885
 20
443.067258169
 11
1270.065246885
 21
443.067258169
  0
LINE
  8
5
 62
2
  6
CENTER
 10
856.291411241
 20
-60.650920103
 11
670.671956103
 21
-60.650920103
  0
ARC
  8
1
 62
7
  6
CONTINUOUS
 10
1434.414718557
 20
270.567258169
 40
10.000000000
 50
270.000000000
 51
355.000000000
  0
ARC
  8
1
 62
7
  6
CONTINUOUS
 10
999.115775214
 20
270.567258169
 40
10.000000000
 50
185.000000000
 51
270.000000000
  0
LINE
  8
2
 62
1
  6
HIDDEN2
 10
797.282777421
 20
-184.350920103
 11
792.782777421
 21
-190.350920103
  0
LINE
  8
2
 62
7
  6
CONTINUOUS
 10
686.382777421
 20
-165.150920103
 11
686.382777421
 21
-140.650920103
  0
LINE
  8
2
 62
1
  6
HIDDEN2
 10
792.782777421
 20
-190.350920103
 11
694.782777421
 21
-190.350920103
  0
ARC
  8
3
 62
7
  6
CONTINUOUS
 10
640.282777421
 20
30.549079897
 40
5.000000000
 50
90.000000000
 51
180.000000000
  0
LINE
  8
2
 62
1
  6
HIDDEN2
 10
694.782777421
 20
-190.350920103
 11
690.282777421
 21
-184.350920103
  0
LINE
  8
5
 62
7
  6
CONTINUOUS
 10
773.282777421
 20
123.849079897
 11
740.282777421
 21
123.849079897
  0
LINE
  8
2
 62
1
  6
HIDDEN2
 10
791.782777421
 20
-212.350920103
 11
791.782777421
 21
-225.350920103
  0
LINE
  8
2
 62
7
  6
CONTINUOUS
 10
691.482777421
 20
-165.150920103
 11
685.282777421
 21
-165.150920103
  0
LINE
  8
1
 62
7
  6
CONTINUOUS
 10
882.282777421
 20
-143.650920103
 11
868.282777421
 21
-143.650920103
  0
LINE
  8
7
 62
7
  6
CONTINUOUS
 10
1386.765246885
 20
355.567258169
 11
1412.154270944
 21
355.567258169
  0
ARC
  8
1
 62
7
  6
CONTINUOUS
 10
882.282777421
 20
-129.650920103
 40
1.000000000
 50
0.000000000
 51
90.000000000
  0
LINE
  8
7
 62
7
  6
CONTINUOUS
 10
1386.765246885
 20
355.567258169
 11
1157.765246885
 21
355.567258169
  0
LINE
  8
2
 62
7
  6
CONTINUOUS
 10
797.382777421
 20
-15.650920103
 11
797.382777421
 21
-105.650920103
  0
ARC
  8
2
 62
7
  6
CONTINUOUS
 10
781.382777421
 20
-105.650920103
 40
16.000000000
 50
270.000000000
 51
0.000000000
  0
LINE
  8
2
 62
7
  6
CONTINUOUS
 10
773.282777421
 20
-121.650920103
 11
781.382777421
 21
-121.650920103
  0
LINE
  8
5
 62
7
  6
CONTINUOUS
 10
773.282777421
 20
124.449079897
 11
764.241537891
 21
124.449079897
  0
LINE
  8
2
 62
1
  6
HIDDEN2
 10
695.782777421
 20
-225.350920103
 11
695.782777421
 21
-212.350920103
  0
LINE
  8
2
 62
1
  6
HIDDEN2
 10
791.782777421
 20
-225.350920103
 11
695.782777421
 21
-225.350920103
  0
LINE
  8
2
 62
1
  6
HIDDEN2
 10
792.782777421
 20
-212.350920103
 11
694.782777421
 21
-212.350920103
  0
LINE
  8
2
 62
1
  6
HIDDEN2
 10
694.782777421
 20
-212.350920103
 11
694.782777421
 21
-210.350920103
  0
LINE
  8
2
 62
1
  6
HIDDEN2
 10
791.782777421
 20
-225.350920103
 11
791.282777421
 21
-231.350920103
  0
LINE
  8
2
 62
1
  6
HIDDEN2
 10
791.282777421
 20
-231.350920103
 11
696.282777421
 21
-231.350920103
  0
LINE
  8
8
 62
7
  6
CONTINUOUS
 10
1204.861835041
 20
461.967258169
 11
1181.765246885
 21
461.967258169
  0
LINE
  8
3
 62
7
  6
CONTINUOUS
 10
667.482777421
 20
50.349079897
 11
664.982777421
 21
50.349079897
  0
LINE
  8
2
 62
7
  6
CONTINUOUS
 10
987.765246885
 20
285.567258169
 11
989.153828233
 21
269.695700742
  0
LINE
  8
2
 62
7
  6
CONTINUOUS
 10
635.282777421
 20
-165.150920103
 11
635.282777421
 21
-20.650920103
  0
LINE
  8
1
 62
7
  6
CONTINUOUS
 10
999.115775214
 20
260.567258169
 11
1434.414718557
 21
260.567258169
  0
ARC
  8
8
 62
7
  6
CONTINUOUS
 10
1205.361835041
 20
448.601232766
 40
13.375374204
 50
69.411906409
 51
92.142337532
  0
LINE
  8
2
 62
1
  6
HIDDEN2
 10
696.282777421
 20
-231.350920103
 11
695.782777421
 21
-225.350920103
  0
LINE
  8
2
 62
7
  6
CONTINUOUS
 10
635.282777421
 20
123.849079897
 11
635.282777421
 21
-20.650920103
  0
LINE
  8
5
 62
2
  6
CENTER
 10
1101.765246885
 20
273.158624349
 11
1101.765246885
 21
453.568510665
  0
LINE
  8
2
 62
1
  6
HIDDEN2
 10
792.782777421
 20
-210.350920103
 11
792.782777421
 21
-212.350920103
  0
LINE
  8
7
 62
7
  6
CONTINUOUS
 10
773.282777421
 20
124.738103956
 11
773.282777421
 21
0.349079897
  0
LINE
  8
6
 62
2
  6
DASHDOT
 10
1057.618468831
 20
385.067258169
 11
943.403136714
 21
385.067258169
  0
LINE
  8
1
 62
7
  6
CONTINUOUS
 10
1216.765246885
 20
-84.650920103
 11
1435.787246885
 21
-84.650920103
  0
LINE
  8
1
 62
7
  6
CONTINUOUS
 10
1216.765246885
 20
-77.650920103
 11
1435.787246885
 21
-77.650920103
  0
LINE
  8
1
 62
7
  6
CONTINUOUS
 10
1274.665246885
 20
-73.650920103
 11
1274.665246885
 21
-66.650920103
  0
LINE
  8
1
 62
7
  6
CONTINUOUS
 10
1277.165246885
 20
-73.650920103
 11
1277.165246885
 21
-66.650920103
  0
LINE
  8
1
 62
7
  6
CONTINUOUS
 10
1376.040760834
 20
-73.650920103
 11
1376.040760834
 21
-66.650920103
  0
LINE
  8
1
 62
7
  6
CONTINUOUS
 10
1216.765246885
 20
-73.650920103
 11
1435.787246885
 21
-73.650920103
  0
LINE
  8
1
 62
7
  6
CONTINUOUS
 10
1216.765246885
 20
-66.650920103
 11
1435.787246885
 21
-66.650920103
  0
LINE
  8
1
 62
7
  6
CONTINUOUS
 10
1274.665246885
 20
-62.650920103
 11
1274.665246885
 21
-55.650920103
  0
LINE
  8
1
 62
7
  6
CONTINUOUS
 10
1277.165246885
 20
-62.650920103
 11
1277.165246885
 21
-55.650920103
  0
LINE
  8
1
 62
7
  6
CONTINUOUS
 10
1376.040760834
 20
-62.650920103
 11
1376.040760834
 21
-55.650920103
  0
ARC
  8
2
 62
7
  6
CONTINUOUS
 10
698.782777421
 20
-18.650920103
 40
37.500000000
 50
90.000000000
 51
180.000000000
  0
ARC
  8
1
 62
7
  6
CONTINUOUS
 10
1216.765246885
 20
1842.110342135
 40
1596.543083965
 50
262.115029194
 51
270.000000000
  0
LINE
  8
1
 62
7
  6
CONTINUOUS
 10
1216.765246885
 20
-62.650920103
 11
1435.787246885
 21
-62.650920103
  0
LINE
  8
1
 62
7
  6
CONTINUOUS
 10
1216.765246885
 20
-55.650920103
 11
1435.787246885
 21
-55.650920103
  0
LINE
  8
1
 62
7
  6
CONTINUOUS
 10
1274.665246885
 20
-51.650920103
 11
1274.665246885
 21
-44.650920103
  0
LINE
  8
2
 62
1
  6
HIDDEN2
 10
792.782777421
 20
-190.350920103
 11
792.782777421
 21
-210.350920103
  0
LINE
  8
2
 62
1
  6
HIDDEN2
 10
661.282777421
 20
-165.750920103
 11
773.282777421
 21
-165.750920103
  0
LINE
  8
1
 62
7
  6
CONTINUOUS
 10
1277.165246885
 20
-51.650920103
 11
1277.165246885
 21
-44.650920103
  0
LINE
  8
1
 62
7
  6
CONTINUOUS
 10
1376.040760834
 20
-51.650920103
 11
1376.040760834
 21
-44.650920103
  0
LINE
  8
1
 62
7
  6
CONTINUOUS
 10
1216.765246885
 20
-51.650920103
 11
1435.787246885
 21
-51.650920103
  0
LINE
  8
1
 62
7
  6
CONTINUOUS
 10
1216.765246885
 20
-44.650920103
 11
1435.787246885
 21
-44.650920103
  0
ARC
  8
1
 62
7
  6
CONTINUOUS
 10
1216.765246885
 20
1842.110342135
 40
1596.543083965
 50
270.000000000
 51
277.884970806
  0
LINE
  8
1
 62
7
  6
CONTINUOUS
 10
1216.765246885
 20
285.567258169
 11
987.765246885
 21
285.567258169
  0
LINE
  8
2
 62
1
  6
HIDDEN2
 10
694.782777421
 20
-210.350920103
 11
694.782777421
 21
-190.350920103
  0
LINE
  8
7
 62
7
  6
CONTINUOUS
 10
1045.765246885
 20
355.567258169
 11
1018.876127631
 21
355.567258169
  0
LINE
  8
2
 62
7
  6
CONTINUOUS
 10
1157.765246885
 20
352.067258169
 11
1157.765246885
 21
355.567258169
  0
ARC
  8
2
 62
7
  6
CONTINUOUS
 10
1136.765246885
 20
352.067258169
 40
21.000000000
 50
270.000000000
 51
0.000000000
  0
LINE
  8
2
 62
2
  6
DASHDOT2
 10
1216.765246885
 20
519.650651845
 11
1216.765246885
 21
259.428766515
  0
LINE
  8
2
 62
2
  6
DASHDOT2
 10
943.403136714
 20
-20.650920103
 11
1463.862433028
 21
-20.650920103
  0
LINE
  8
1
 62
7
  6
CONTINUOUS
 10
1057.489732937
 20
109.349079897
 11
1057.489732937
 21
102.349079897
  0
LINE
  8
1
 62
7
  6
CONTINUOUS
 10
1216.765246885
 20
109.349079897
 11
997.743246885
 21
109.349079897
  0
LINE
  8
1
 62
7
  6
CONTINUOUS
 10
1216.765246885
 20
102.349079897
 11
997.743246885
 21
102.349079897
  0
LINE
  8
1
 62
7
  6
CONTINUOUS
 10
1057.489732937
 20
98.349079897
 11
1057.489732937
 21
91.349079897
  0
LINE
  8
1
 62
7
  6
CONTINUOUS
 10
1216.765246885
 20
98.349079897
 11
997.743246885
 21
98.349079897
  0
LINE
  8
1
 62
7
  6
CONTINUOUS
 10
1216.765246885
 20
91.349079897
 11
997.743246885
 21
91.349079897
  0
ARC
  8
1
 62
7
  6
CONTINUOUS
 10
1415.765246885
 20
128.349079897
 40
30.000000000
 50
0.000000000
 51
90.000000000
  0
ARC
  8
1
 62
7
  6
CONTINUOUS
 10
1017.765246885
 20
128.349079897
 40
30.000000000
 50
90.000000000
 51
180.000000000
  0
ARC
  8
1
 62
7
  6
CONTINUOUS
 10
1415.765246885
 20
-169.650920103
 40
30.000000000
 50
270.000000000
 51
0.000000000
  0
ARC
  8
1
 62
7
  6
CONTINUOUS
 10
1017.765246885
 20
-169.650920103
 40
30.000000000
 50
180.000000000
 51
270.000000000
  0
LINE
  8
1
 62
7
  6
CONTINUOUS
 10
987.765246885
 20
-169.650920103
 11
987.765246885
 21
128.349079897
  0
LINE
  8
1
 62
7
  6
CONTINUOUS
 10
1415.765246885
 20
-199.650920103
 11
1017.765246885
 21
-199.650920103
  0
LINE
  8
1
 62
7
  6
CONTINUOUS
 10
1445.765246885
 20
128.349079897
 11
1445.765246885
 21
-169.650920103
  0
LINE
  8
1
 62
7
  6
CONTINUOUS
 10
1216.765246885
 20
-33.650920103
 11
1435.787246885
 21
-33.650920103
  0
LINE
  8
1
 62
7
  6
CONTINUOUS
 10
1017.765246885
 20
158.349079897
 11
1196.765246885
 21
158.349079897
  0
LINE
  8
1
 62
7
  6
CONTINUOUS
 10
1216.765246885
 20
-40.650920103
 11
1435.787246885
 21
-40.650920103
  0
LINE
  8
1
 62
7
  6
CONTINUOUS
 10
1376.040760834
 20
-40.650920103
 11
1376.040760834
 21
-33.650920103
  0
LINE
  8
1
 62
7
  6
CONTINUOUS
 10
1277.165246885
 20
-40.650920103
 11
1277.165246885
 21
-33.650920103
  0
LINE
  8
2
 62
2
  6
DASHDOT2
 10
1216.765246885
 20
170.176033753
 11
1216.765246885
 21
-209.898385471
  0
LINE
  8
1
 62
7
  6
CONTINUOUS
 10
1274.665246885
 20
-40.650920103
 11
1274.665246885
 21
-33.650920103
  0
LINE
  8
1
 62
7
  6
CONTINUOUS
 10
1274.665246885
 20
-29.650920103
 11
1274.665246885
 21
-22.650920103
  0
LINE
  8
1
 62
7
  6
CONTINUOUS
 10
1277.165246885
 20
-29.650920103
 11
1277.165246885
 21
-22.650920103
  0
LINE
  8
1
 62
7
  6
CONTINUOUS
 10
1376.040760834
 20
-29.650920103
 11
1376.040760834
 21
-22.650920103
  0
LINE
  8
1
 62
7
  6
CONTINUOUS
 10
1216.765246885
 20
-18.650920103
 11
1435.787246885
 21
-18.650920103
  0
LINE
  8
1
 62
7
  6
CONTINUOUS
 10
1057.489732937
 20
87.349079897
 11
1057.489732937
 21
80.349079897
  0
LINE
  8
1
 62
7
  6
CONTINUOUS
 10
1216.765246885
 20
87.349079897
 11
997.743246885
 21
87.349079897
  0
LINE
  8
1
 62
7
  6
CONTINUOUS
 10
1216.765246885
 20
80.349079897
 11
997.743246885
 21
80.349079897
  0
ARC
  8
3
 62
7
  6
CONTINUOUS
 10
640.282777421
 20
-41.850920103
 40
5.000000000
 50
180.000000000
 51
270.000000000
  0
LINE
  8
1
 62
7
  6
CONTINUOUS
 10
1057.489732937
 20
76.349079897
 11
1057.489732937
 21
69.349079897
  0
LINE
  8
1
 62
7
  6
CONTINUOUS
 10
1216.765246885
 20
76.349079897
 11
997.743246885
 21
76.349079897
  0
LINE
  8
1
 62
7
  6
CONTINUOUS
 10
1216.765246885
 20
69.349079897
 11
997.743246885
 21
69.349079897
  0
LINE
  8
1
 62
7
  6
CONTINUOUS
 10
1057.489732937
 20
65.349079897
 11
1057.489732937
 21
58.349079897
  0
LINE
  8
1
 62
7
  6
CONTINUOUS
 10
1216.765246885
 20
65.349079897
 11
997.743246885
 21
65.349079897
  0
LINE
  8
1
 62
7
  6
CONTINUOUS
 10
1216.765246885
 20
58.349079897
 11
997.743246885
 21
58.349079897
  0
LINE
  8
1
 62
7
  6
CONTINUOUS
 10
1057.489732937
 20
54.349079897
 11
1057.489732937
 21
47.349079897
  0
LINE
  8
1
 62
7
  6
CONTINUOUS
 10
1216.765246885
 20
54.349079897
 11
997.743246885
 21
54.349079897
  0
LINE
  8
1
 62
7
  6
CONTINUOUS
 10
1216.765246885
 20
47.349079897
 11
997.743246885
 21
47.349079897
  0
LINE
  8
1
 62
7
  6
CONTINUOUS
 10
1057.489732937
 20
43.349079897
 11
1057.489732937
 21
36.349079897
  0
LINE
  8
1
 62
7
  6
CONTINUOUS
 10
1216.765246885
 20
43.349079897
 11
997.743246885
 21
43.349079897
  0
LINE
  8
1
 62
7
  6
CONTINUOUS
 10
1216.765246885
 20
36.349079897
 11
997.743246885
 21
36.349079897
  0
LINE
  8
1
 62
7
  6
CONTINUOUS
 10
1057.489732937
 20
32.349079897
 11
1057.489732937
 21
25.349079897
  0
LINE
  8
1
 62
7
  6
CONTINUOUS
 10
1216.765246885
 20
32.349079897
 11
997.743246885
 21
32.349079897
  0
LINE
  8
1
 62
7
  6
CONTINUOUS
 10
1216.765246885
 20
25.349079897
 11
997.743246885
 21
25.349079897
  0
LINE
  8
1
 62
7
  6
CONTINUOUS
 10
1057.489732937
 20
21.349079897
 11
1057.489732937
 21
14.349079897
  0
LINE
  8
1
 62
7
  6
CONTINUOUS
 10
1216.765246885
 20
21.349079897
 11
997.743246885
 21
21.349079897
  0
LINE
  8
1
 62
7
  6
CONTINUOUS
 10
1216.765246885
 20
14.349079897
 11
997.743246885
 21
14.349079897
  0
LINE
  8
1
 62
7
  6
CONTINUOUS
 10
1057.489732937
 20
10.349079897
 11
1057.489732937
 21
3.349079897
  0
LINE
  8
1
 62
7
  6
CONTINUOUS
 10
1216.765246885
 20
10.349079897
 11
997.743246885
 21
10.349079897
  0
LINE
  8
1
 62
7
  6
CONTINUOUS
 10
1216.765246885
 20
3.349079897
 11
997.743246885
 21
3.349079897
  0
LINE
  8
1
 62
7
  6
CONTINUOUS
 10
1216.765246885
 20
-7.650920103
 11
997.743246885
 21
-7.650920103
  0
LINE
  8
1
 62
7
  6
CONTINUOUS
 10
1216.765246885
 20
-0.650920103
 11
997.743246885
 21
-0.650920103
  0
LINE
  8
1
 62
7
  6
CONTINUOUS
 10
1057.489732937
 20
-0.650920103
 11
1057.489732937
 21
-7.650920103
  0
LINE
  8
1
 62
7
  6
CONTINUOUS
 10
1057.489732937
 20
-11.650920103
 11
1057.489732937
 21
-18.650920103
  0
LINE
  8
1
 62
7
  6
CONTINUOUS
 10
1216.765246885
 20
-11.650920103
 11
997.743246885
 21
-11.650920103
  0
LINE
  8
1
 62
7
  6
CONTINUOUS
 10
997.743246885
 20
-22.650920103
 11
1216.765246885
 21
-22.650920103
  0
LINE
  8
1
 62
7
  6
CONTINUOUS
 10
1216.765246885
 20
-18.650920103
 11
997.743246885
 21
-18.650920103
  0
LINE
  8
1
 62
7
  6
CONTINUOUS
 10
1057.489732937
 20
-150.650920103
 11
1057.489732937
 21
-143.650920103
  0
LINE
  8
1
 62
7
  6
CONTINUOUS
 10
1216.765246885
 20
-150.650920103
 11
997.743246885
 21
-150.650920103
  0
LINE
  8
1
 62
7
  6
CONTINUOUS
 10
1216.765246885
 20
-143.650920103
 11
997.743246885
 21
-143.650920103
  0
LINE
  8
1
 62
7
  6
CONTINUOUS
 10
1057.489732937
 20
-139.650920103
 11
1057.489732937
 21
-132.650920103
  0
LINE
  8
1
 62
7
  6
CONTINUOUS
 10
1216.765246885
 20
-139.650920103
 11
997.743246885
 21
-139.650920103
  0
LINE
  8
1
 62
7
  6
CONTINUOUS
 10
1216.765246885
 20
-132.650920103
 11
997.743246885
 21
-132.650920103
  0
LINE
  8
1
 62
7
  6
CONTINUOUS
 10
1057.489732937
 20
-128.650920103
 11
1057.489732937
 21
-121.650920103
  0
LINE
  8
1
 62
7
  6
CONTINUOUS
 10
1216.765246885
 20
-128.650920103
 11
997.743246885
 21
-128.650920103
  0
LINE
  8
1
 62
7
  6
CONTINUOUS
 10
1216.765246885
 20
-121.650920103
 11
997.743246885
 21
-121.650920103
  0
LINE
  8
1
 62
7
  6
CONTINUOUS
 10
1057.489732937
 20
-117.650920103
 11
1057.489732937
 21
-110.650920103
  0
LINE
  8
1
 62
7
  6
CONTINUOUS
 10
1216.765246885
 20
-117.650920103
 11
997.743246885
 21
-117.650920103
  0
LINE
  8
1
 62
7
  6
CONTINUOUS
 10
1216.765246885
 20
-110.650920103
 11
997.743246885
 21
-110.650920103
  0
LINE
  8
1
 62
7
  6
CONTINUOUS
 10
1057.489732937
 20
-106.650920103
 11
1057.489732937
 21
-99.650920103
  0
LINE
  8
1
 62
7
  6
CONTINUOUS
 10
1216.765246885
 20
-106.650920103
 11
997.743246885
 21
-106.650920103
  0
LINE
  8
1
 62
7
  6
CONTINUOUS
 10
1216.765246885
 20
-99.650920103
 11
997.743246885
 21
-99.650920103
  0
LINE
  8
1
 62
7
  6
CONTINUOUS
 10
1057.489732937
 20
-95.650920103
 11
1057.489732937
 21
-88.650920103
  0
LINE
  8
1
 62
7
  6
CONTINUOUS
 10
1216.765246885
 20
-95.650920103
 11
997.743246885
 21
-95.650920103
  0
LINE
  8
1
 62
7
  6
CONTINUOUS
 10
1216.765246885
 20
-88.650920103
 11
997.743246885
 21
-88.650920103
  0
LINE
  8
1
 62
7
  6
CONTINUOUS
 10
1057.489732937
 20
-84.650920103
 11
1057.489732937
 21
-77.650920103
  0
LINE
  8
1
 62
7
  6
CONTINUOUS
 10
1216.765246885
 20
-84.650920103
 11
997.743246885
 21
-84.650920103
  0
LINE
  8
1
 62
7
  6
CONTINUOUS
 10
1216.765246885
 20
-77.650920103
 11
997.743246885
 21
-77.650920103
  0
LINE
  8
1
 62
7
  6
CONTINUOUS
 10
1057.489732937
 20
-73.650920103
 11
1057.489732937
 21
-66.650920103
  0
LINE
  8
1
 62
7
  6
CONTINUOUS
 10
1216.765246885
 20
-73.650920103
 11
997.743246885
 21
-73.650920103
  0
LINE
  8
1
 62
7
  6
CONTINUOUS
 10
1216.765246885
 20
-66.650920103
 11
997.743246885
 21
-66.650920103
  0
LINE
  8
1
 62
7
  6
CONTINUOUS
 10
1057.489732937
 20
-62.650920103
 11
1057.489732937
 21
-55.650920103
  0
LINE
  8
1
 62
7
  6
CONTINUOUS
 10
1216.765246885
 20
-62.650920103
 11
997.743246885
 21
-62.650920103
  0
LINE
  8
1
 62
7
  6
CONTINUOUS
 10
1216.765246885
 20
-55.650920103
 11
997.743246885
 21
-55.650920103
  0
LINE
  8
1
 62
7
  6
CONTINUOUS
 10
1057.489732937
 20
-51.650920103
 11
1057.489732937
 21
-44.650920103
  0
LINE
  8
1
 62
7
  6
CONTINUOUS
 10
1216.765246885
 20
-51.650920103
 11
997.743246885
 21
-51.650920103
  0
LINE
  8
1
 62
7
  6
CONTINUOUS
 10
1216.765246885
 20
-44.650920103
 11
997.743246885
 21
-44.650920103
  0
LINE
  8
1
 62
7
  6
CONTINUOUS
 10
1216.765246885
 20
-33.650920103
 11
997.743246885
 21
-33.650920103
  0
LINE
  8
1
 62
7
  6
CONTINUOUS
 10
1216.765246885
 20
-40.650920103
 11
997.743246885
 21
-40.650920103
  0
LINE
  8
1
 62
7
  6
CONTINUOUS
 10
1057.489732937
 20
-40.650920103
 11
1057.489732937
 21
-33.650920103
  0
LINE
  8
1
 62
7
  6
CONTINUOUS
 10
1057.489732937
 20
-29.650920103
 11
1057.489732937
 21
-22.650920103
  0
LINE
  8
1
 62
7
  6
CONTINUOUS
 10
1216.765246885
 20
-29.650920103
 11
997.743246885
 21
-29.650920103
  0
LINE
  8
1
 62
7
  6
CONTINUOUS
 10
997.743246885
 20
-18.650920103
 11
1216.765246885
 21
-18.650920103
  0
LINE
  8
1
 62
7
  6
CONTINUOUS
 10
1216.765246885
 20
-22.650920103
 11
997.743246885
 21
-22.650920103
  0
LINE
  8
1
 62
7
  6
CONTINUOUS
 10
1274.665246885
 20
-150.650920103
 11
1274.665246885
 21
-143.650920103
  0
LINE
  8
1
 62
7
  6
CONTINUOUS
 10
1376.040760834
 20
-150.650920103
 11
1376.040760834
 21
-143.650920103
  0
LINE
  8
1
 62
7
  6
CONTINUOUS
 10
1216.765246885
 20
-150.650920103
 11
1435.787246885
 21
-150.650920103
  0
LINE
  8
1
 62
7
  6
CONTINUOUS
 10
1216.765246885
 20
-143.650920103
 11
1435.787246885
 21
-143.650920103
  0
LINE
  8
1
 62
7
  6
CONTINUOUS
 10
1274.665246885
 20
-139.650920103
 11
1274.665246885
 21
-132.650920103
  0
LINE
  8
1
 62
7
  6
CONTINUOUS
 10
1376.040760834
 20
-139.650920103
 11
1376.040760834
 21
-132.650920103
  0
LINE
  8
1
 62
7
  6
CONTINUOUS
 10
1216.765246885
 20
-139.650920103
 11
1435.787246885
 21
-139.650920103
  0
LINE
  8
1
 62
7
  6
CONTINUOUS
 10
1216.765246885
 20
-132.650920103
 11
1435.787246885
 21
-132.650920103
  0
LINE
  8
1
 62
7
  6
CONTINUOUS
 10
1274.665246885
 20
-128.650920103
 11
1274.665246885
 21
-121.650920103
  0
LINE
  8
1
 62
7
  6
CONTINUOUS
 10
1277.165246885
 20
-128.650920103
 11
1277.165246885
 21
-121.650920103
  0
LINE
  8
1
 62
7
  6
CONTINUOUS
 10
1376.040760834
 20
-128.650920103
 11
1376.040760834
 21
-121.650920103
  0
LINE
  8
1
 62
7
  6
CONTINUOUS
 10
1216.765246885
 20
-128.650920103
 11
1435.787246885
 21
-128.650920103
  0
LINE
  8
1
 62
7
  6
CONTINUOUS
 10
1216.765246885
 20
-121.650920103
 11
1435.787246885
 21
-121.650920103
  0
LINE
  8
1
 62
7
  6
CONTINUOUS
 10
1435.787246885
 20
-22.650920103
 11
1216.765246885
 21
-22.650920103
  0
LINE
  8
1
 62
7
  6
CONTINUOUS
 10
1216.765246885
 20
-29.650920103
 11
1435.787246885
 21
-29.650920103
  0
LINE
  8
1
 62
7
  6
CONTINUOUS
 10
1435.787246885
 20
-18.650920103
 11
1216.765246885
 21
-18.650920103
  0
LINE
  8
1
 62
7
  6
CONTINUOUS
 10
1216.765246885
 20
-11.650920103
 11
1435.787246885
 21
-11.650920103
  0
LINE
  8
6
 62
2
  6
CENTER
 10
856.291411241
 20
-60.650920103
 11
652.965369150
 21
-60.650920103
  0
LINE
  8
1
 62
7
  6
CONTINUOUS
 10
1376.040760834
 20
-11.650920103
 11
1376.040760834
 21
-18.650920103
  0
LINE
  8
1
 62
7
  6
CONTINUOUS
 10
1277.165246885
 20
-11.650920103
 11
1277.165246885
 21
-18.650920103
  0
LINE
  8
1
 62
7
  6
CONTINUOUS
 10
1274.665246885
 20
-11.650920103
 11
1274.665246885
 21
-18.650920103
  0
LINE
  8
5
 62
7
  6
CONTINUOUS
 10
686.082777421
 20
-160.150920103
 11
681.082777421
 21
-160.150920103
  0
LINE
  8
7
 62
7
  6
CONTINUOUS
 10
1018.876127631
 20
355.567258169
 11
1018.273897598
 21
286.558531634
  0
LINE
  8
2
 62
1
  6
HIDDEN2
 10
792.782777421
 20
-210.350920103
 11
694.782777421
 21
-210.350920103
  0
ARC
  8
7
 62
7
  6
CONTINUOUS
 10
1017.273935675
 20
286.567258169
 40
1.000000000
 50
270.000000000
 51
359.500000000
  0
LINE
  8
5
 62
7
  6
CONTINUOUS
 10
680.082777421
 20
-160.550920103
 11
680.082777421
 21
-165.150920103
  0
LINE
  8
5
 62
7
  6
CONTINUOUS
 10
680.682777421
 20
-160.550920103
 11
680.682777421
 21
-165.150920103
  0
LINE
  8
2
 62
7
  6
CONTINUOUS
 10
843.282777421
 20
-187.650920103
 11
843.282777421
 21
-165.150920103
  0
LINE
  8
2
 62
7
  6
CONTINUOUS
 10
773.282777421
 20
0.349079897
 11
781.382777421
 21
0.349079897
  0
ARC
  8
7
 62
7
  6
CONTINUOUS
 10
842.282777421
 20
128.840391108
 40
1.000000000
 50
270.500000000
 51
0.000000000
  0
LINE
  8
7
 62
7
  6
CONTINUOUS
 10
773.282777421
 20
-168.142269390
 11
773.282777421
 21
-121.650920103
  0
LINE
  8
5
 62
7
  6
CONTINUOUS
 10
773.282777421
 20
-165.150920103
 11
680.682777421
 21
-165.150920103
  0
ARC
  8
2
 62
7
  6
CONTINUOUS
 10
698.782777421
 20
-102.650920103
 40
37.500000000
 50
180.000000000
 51
270.000000000
  0
LINE
  8
2
 62
2
  6
DASHDOT2
 10
943.403136714
 20
-60.650920103
 11
994.251264224
 21
-60.650920103
  0
LINE
  8
2
 62
7
  6
CONTINUOUS
 10
1052.765246885
 20
169.048744791
 11
1101.765246885
 21
169.048744791
  0
LINE
  8
2
 62
7
  6
CONTINUOUS
 10
1052.765246885
 20
158.349079897
 11
1052.765246885
 21
169.048744791
  0
LINE
  8
2
 62
1
  6
HIDDEN2
 10
1052.565246885
 20
-212.350920103
 11
1052.565246885
 21
-210.350920103
  0
LINE
  8
2
 62
1
  6
HIDDEN2
 10
1150.765246885
 20
-210.350920103
 11
1101.765246885
 21
-210.350920103
  0
LINE
  8
2
 62
1
  6
HIDDEN2
 10
1052.565246885
 20
-210.350920103
 11
1053.765246885
 21
-210.350920103
  0
ARC
  8
1
 62
7
  6
CONTINUOUS
 10
857.729060963
 20
135.001157431
 40
22.000000000
 50
29.181264943
 51
85.000000000
  0
ARC
  8
1
 62
7
  6
CONTINUOUS
 10
857.729060963
 20
-176.302997637
 40
22.000000000
 50
275.000000000
 51
330.818735057
  0
LINE
  8
1
 62
7
  6
CONTINUOUS
 10
876.282777421
 20
-139.650920103
 11
876.282777421
 21
-132.650920103
  0
LINE
  8
1
 62
7
  6
CONTINUOUS
 10
876.282777421
 20
-150.650920103
 11
876.282777421
 21
-143.650920103
  0
LINE
  8
1
 62
7
  6
CONTINUOUS
 10
876.282777421
 20
-161.650920103
 11
876.282777421
 21
-154.650920103
  0
LINE
  8
1
 62
7
  6
CONTINUOUS
 10
1274.665246885
 20
-0.650920103
 11
1274.665246885
 21
-7.650920103
  0
LINE
  8
1
 62
7
  6
CONTINUOUS
 10
1277.165246885
 20
-0.650920103
 11
1277.165246885
 21
-7.650920103
  0
LINE
  8
1
 62
7
  6
CONTINUOUS
 10
1376.040760834
 20
-0.650920103
 11
1376.040760834
 21
-7.650920103
  0
LINE
  8
1
 62
7
  6
CONTINUOUS
 10
1216.765246885
 20
-0.650920103
 11
1435.787246885
 21
-0.650920103
  0
LINE
  8
1
 62
7
  6
CONTINUOUS
 10
1216.765246885
 20
-7.650920103
 11
1435.787246885
 21
-7.650920103
  0
LINE
  8
1
 62
7
  6
CONTINUOUS
 10
1216.765246885
 20
3.349079897
 11
1435.787246885
 21
3.349079897
  0
LINE
  8
1
 62
7
  6
CONTINUOUS
 10
1216.765246885
 20
10.349079897
 11
1435.787246885
 21
10.349079897
  0
LINE
  8
1
 62
7
  6
CONTINUOUS
 10
1376.040760834
 20
10.349079897
 11
1376.040760834
 21
3.349079897
  0
LINE
  8
1
 62
7
  6
CONTINUOUS
 10
1277.165246885
 20
10.349079897
 11
1277.165246885
 21
3.349079897
  0
LINE
  8
1
 62
7
  6
CONTINUOUS
 10
1274.665246885
 20
10.349079897
 11
1274.665246885
 21
3.349079897
  0
LINE
  8
1
 62
7
  6
CONTINUOUS
 10
1216.765246885
 20
14.349079897
 11
1435.787246885
 21
14.349079897
  0
LINE
  8
1
 62
7
  6
CONTINUOUS
 10
1216.765246885
 20
21.349079897
 11
1435.787246885
 21
21.349079897
  0
LINE
  8
1
 62
7
  6
CONTINUOUS
 10
1376.040760834
 20
21.349079897
 11
1376.040760834
 21
14.349079897
  0
LINE
  8
1
 62
7
  6
CONTINUOUS
 10
1277.165246885
 20
21.349079897
 11
1277.165246885
 21
14.349079897
  0
LINE
  8
1
 62
7
  6
CONTINUOUS
 10
1274.665246885
 20
21.349079897
 11
1274.665246885
 21
14.349079897
  0
LINE
  8
1
 62
7
  6
CONTINUOUS
 10
1216.765246885
 20
25.349079897
 11
1435.787246885
 21
25.349079897
  0
LINE
  8
1
 62
7
  6
CONTINUOUS
 10
1216.765246885
 20
32.349079897
 11
1435.787246885
 21
32.349079897
  0
LINE
  8
1
 62
7
  6
CONTINUOUS
 10
1376.040760834
 20
32.349079897
 11
1376.040760834
 21
25.349079897
  0
LINE
  8
1
 62
7
  6
CONTINUOUS
 10
1277.165246885
 20
32.349079897
 11
1277.165246885
 21
25.349079897
  0
LINE
  8
1
 62
7
  6
CONTINUOUS
 10
1274.665246885
 20
32.349079897
 11
1274.665246885
 21
25.349079897
  0
LINE
  8
1
 62
7
  6
CONTINUOUS
 10
1216.765246885
 20
36.349079897
 11
1435.787246885
 21
36.349079897
  0
LINE
  8
1
 62
7
  6
CONTINUOUS
 10
1216.765246885
 20
43.349079897
 11
1435.787246885
 21
43.349079897
  0
LINE
  8
1
 62
7
  6
CONTINUOUS
 10
1376.040760834
 20
43.349079897
 11
1376.040760834
 21
36.349079897
  0
LINE
  8
1
 62
7
  6
CONTINUOUS
 10
1277.165246885
 20
43.349079897
 11
1277.165246885
 21
36.349079897
  0
LINE
  8
1
 62
7
  6
CONTINUOUS
 10
1274.665246885
 20
43.349079897
 11
1274.665246885
 21
36.349079897
  0
LINE
  8
1
 62
7
  6
CONTINUOUS
 10
1216.765246885
 20
47.349079897
 11
1435.787246885
 21
47.349079897
  0
LINE
  8
1
 62
7
  6
CONTINUOUS
 10
1216.765246885
 20
54.349079897
 11
1435.787246885
 21
54.349079897
  0
LINE
  8
1
 62
7
  6
CONTINUOUS
 10
1376.040760834
 20
54.349079897
 11
1376.040760834
 21
47.349079897
  0
LINE
  8
1
 62
7
  6
CONTINUOUS
 10
1277.165246885
 20
54.349079897
 11
1277.165246885
 21
47.349079897
  0
LINE
  8
1
 62
7
  6
CONTINUOUS
 10
1274.665246885
 20
54.349079897
 11
1274.665246885
 21
47.349079897
  0
LINE
  8
1
 62
7
  6
CONTINUOUS
 10
1216.765246885
 20
58.349079897
 11
1435.787246885
 21
58.349079897
  0
LINE
  8
1
 62
7
  6
CONTINUOUS
 10
1216.765246885
 20
65.349079897
 11
1435.787246885
 21
65.349079897
  0
LINE
  8
1
 62
7
  6
CONTINUOUS
 10
1376.040760834
 20
65.349079897
 11
1376.040760834
 21
58.349079897
  0
LINE
  8
1
 62
7
  6
CONTINUOUS
 10
1277.165246885
 20
65.349079897
 11
1277.165246885
 21
58.349079897
  0
LINE
  8
1
 62
7
  6
CONTINUOUS
 10
1274.665246885
 20
65.349079897
 11
1274.665246885
 21
58.349079897
  0
LINE
  8
1
 62
7
  6
CONTINUOUS
 10
1216.765246885
 20
69.349079897
 11
1435.787246885
 21
69.349079897
  0
LINE
  8
1
 62
7
  6
CONTINUOUS
 10
1216.765246885
 20
76.349079897
 11
1435.787246885
 21
76.349079897
  0
LINE
  8
1
 62
7
  6
CONTINUOUS
 10
1376.040760834
 20
76.349079897
 11
1376.040760834
 21
69.349079897
  0
LINE
  8
1
 62
7
  6
CONTINUOUS
 10
1277.165246885
 20
76.349079897
 11
1277.165246885
 21
69.349079897
  0
LINE
  8
1
 62
7
  6
CONTINUOUS
 10
1274.665246885
 20
76.349079897
 11
1274.665246885
 21
69.349079897
  0
LINE
  8
1
 62
7
  6
CONTINUOUS
 10
1216.765246885
 20
80.349079897
 11
1435.787246885
 21
80.349079897
  0
LINE
  8
1
 62
7
  6
CONTINUOUS
 10
1216.765246885
 20
87.349079897
 11
1435.787246885
 21
87.349079897
  0
LINE
  8
1
 62
7
  6
CONTINUOUS
 10
1376.040760834
 20
87.349079897
 11
1376.040760834
 21
80.349079897
  0
LINE
  8
1
 62
7
  6
CONTINUOUS
 10
1277.165246885
 20
87.349079897
 11
1277.165246885
 21
80.349079897
  0
LINE
  8
1
 62
7
  6
CONTINUOUS
 10
1274.665246885
 20
87.349079897
 11
1274.665246885
 21
80.349079897
  0
LINE
  8
1
 62
7
  6
CONTINUOUS
 10
1216.765246885
 20
91.349079897
 11
1435.787246885
 21
91.349079897
  0
LINE
  8
1
 62
7
  6
CONTINUOUS
 10
1216.765246885
 20
98.349079897
 11
1435.787246885
 21
98.349079897
  0
LINE
  8
1
 62
7
  6
CONTINUOUS
 10
1376.040760834
 20
98.349079897
 11
1376.040760834
 21
91.349079897
  0
LINE
  8
1
 62
7
  6
CONTINUOUS
 10
1274.665246885
 20
98.349079897
 11
1274.665246885
 21
91.349079897
  0
LINE
  8
1
 62
7
  6
CONTINUOUS
 10
1216.765246885
 20
102.349079897
 11
1435.787246885
 21
102.349079897
  0
LINE
  8
1
 62
7
  6
CONTINUOUS
 10
1216.765246885
 20
109.349079897
 11
1435.787246885
 21
109.349079897
  0
LINE
  8
1
 62
7
  6
CONTINUOUS
 10
1376.040760834
 20
109.349079897
 11
1376.040760834
 21
102.349079897
  0
LINE
  8
6
 62
7
  6
CONTINUOUS
 10
661.382777421
 20
19.349079897
 11
661.382777421
 21
-60.650920103
  0
LINE
  8
6
 62
7
  6
CONTINUOUS
 10
773.282777421
 20
19.349079897
 11
661.382777421
 21
19.349079897
  0
LINE
  8
6
 62
2
  6
DASHDOT
 10
740.382777421
 20
8.468101143
 11
740.382777421
 21
-130.024107652
  0
LINE
  8
6
 62
7
  6
CONTINUOUS
 10
661.382777421
 20
-140.650920103
 11
661.382777421
 21
-60.650920103
  0
LINE
  8
6
 62
7
  6
CONTINUOUS
 10
773.282777421
 20
-140.650920103
 11
661.382777421
 21
-140.650920103
  0
LINE
  8
1
 62
7
  6
CONTINUOUS
 10
1216.765246885
 20
-22.650920103
 11
1435.787246885
 21
-22.650920103
  0
LINE
  8
1
 62
7
  6
CONTINUOUS
 10
1274.665246885
 20
109.349079897
 11
1274.665246885
 21
102.349079897
  0
LINE
  8
1
 62
7
  6
CONTINUOUS
 10
1216.765246885
 20
-106.650920103
 11
1435.787246885
 21
-106.650920103
  0
LINE
  8
1
 62
7
  6
CONTINUOUS
 10
1376.040760834
 20
-106.650920103
 11
1376.040760834
 21
-99.650920103
  0
LINE
  8
1
 62
7
  6
CONTINUOUS
 10
1277.165246885
 20
-106.650920103
 11
1277.165246885
 21
-99.650920103
  0
LINE
  8
1
 62
7
  6
CONTINUOUS
 10
1274.665246885
 20
-106.650920103
 11
1274.665246885
 21
-99.650920103
  0
LINE
  8
1
 62
7
  6
CONTINUOUS
 10
868.282777421
 20
-188.300391775
 11
868.282777421
 21
-20.650920103
  0
LINE
  8
1
 62
7
  6
CONTINUOUS
 10
1216.765246885
 20
-110.650920103
 11
1435.787246885
 21
-110.650920103
  0
LINE
  8
1
 62
7
  6
CONTINUOUS
 10
1216.765246885
 20
-117.650920103
 11
1435.787246885
 21
-117.650920103
  0
LINE
  8
4
 62
2
  6
DASHDOT2
 10
1142.265246885
 20
497.970387294
 11
1142.265246885
 21
449.998283184
  0
LINE
  8
1
 62
7
  6
CONTINUOUS
 10
1376.040760834
 20
-117.650920103
 11
1376.040760834
 21
-110.650920103
  0
ARC
  8
1
 62
7
  6
CONTINUOUS
 10
858.282777421
 20
-188.300391775
 40
10.000000000
 50
275.000000000
 51
0.000000000
  0
LINE
  8
1
 62
7
  6
CONTINUOUS
 10
1196.765246885
 20
651.008313313
 11
1236.765246885
 21
651.008313313
  0
LINE
  8
1
 62
7
  6
CONTINUOUS
 10
1196.765246885
 20
616.508313313
 11
1196.765246885
 21
651.008313313
  0
LINE
  8
1
 62
7
  6
CONTINUOUS
 10
1236.765246885
 20
940.008313313
 11
1236.765246885
 21
974.508313313
  0
LINE
  8
1
 62
7
  6
CONTINUOUS
 10
1236.765246885
 20
651.008313313
 11
1236.765246885
 21
616.508313313
  0
LINE
  8
1
 62
7
  6
CONTINUOUS
 10
1196.765246885
 20
974.508313313
 11
1196.765246885
 21
940.008313313
  0
LINE
  8
5
 62
7
  6
CONTINUOUS
 10
1210.765246885
 20
622.508313313
 11
1222.765246885
 21
622.508313313
  0
LINE
  8
1
 62
7
  6
CONTINUOUS
 10
1196.765246885
 20
974.508313313
 11
1017.765246885
 21
974.508313313
  0
LINE
  8
5
 62
7
  6
CONTINUOUS
 10
1022.265246885
 20
968.508313313
 11
1196.765246885
 21
968.508313313
  0
LINE
  8
5
 62
7
  6
CONTINUOUS
 10
1052.765246885
 20
622.508313313
 11
1022.265246885
 21
622.508313313
  0
LINE
  8
1
 62
7
  6
CONTINUOUS
 10
1210.765246885
 20
616.508313313
 11
1222.765246885
 21
616.508313313
  0
LINE
  8
1
 62
7
  6
CONTINUOUS
 10
1196.765246885
 20
940.008313313
 11
1236.765246885
 21
940.008313313
  0
ARC
  8
1
 62
7
  6
CONTINUOUS
 10
1216.765246885
 20
955.508313313
 40
6.000000000
 50
180.000000000
 51
0.000000000
  0
LINE
  8
1
 62
7
  6
CONTINUOUS
 10
1222.765246885
 20
955.508313313
 11
1222.765246885
 21
974.508313313
  0
LINE
  8
1
 62
7
  6
CONTINUOUS
 10
1150.765246885
 20
616.508313313
 11
1196.765246885
 21
616.508313313
  0
LINE
  8
2
 62
7
  6
CONTINUOUS
 10
1150.765246885
 20
605.308313313
 11
1150.765246885
 21
603.308313313
  0
LINE
  8
2
 62
7
  6
CONTINUOUS
 10
1054.265246885
 20
584.308313313
 11
1053.765246885
 21
590.308313313
  0
LINE
  8
2
 62
7
  6
CONTINUOUS
 10
1150.765246885
 20
625.308313313
 11
1150.765246885
 21
605.308313313
  0
LINE
  8
2
 62
7
  6
CONTINUOUS
 10
1052.765246885
 20
605.308313313
 11
1052.765246885
 21
625.308313313
  0
LINE
  8
2
 62
7
  6
CONTINUOUS
 10
1149.265246885
 20
584.308313313
 11
1054.265246885
 21
584.308313313
  0
LINE
  8
2
 62
7
  6
CONTINUOUS
 10
1149.765246885
 20
590.308313313
 11
1149.265246885
 21
584.308313313
  0
LINE
  8
2
 62
7
  6
CONTINUOUS
 10
1052.765246885
 20
603.308313313
 11
1052.765246885
 21
605.308313313
  0
CIRCLE
  8
5
 62
1
  6
HIDDEN2
 10
1008.765246885
 20
835.508313313
 40
2.250000000
  0
LINE
  8
1
 62
7
  6
CONTINUOUS
 10
1210.765246885
 20
974.508313313
 11
1210.765246885
 21
955.508313313
  0
LINE
  8
2
 62
7
  6
CONTINUOUS
 10
1150.765246885
 20
603.308313313
 11
1052.765246885
 21
603.308313313
  0
LINE
  8
2
 62
7
  6
CONTINUOUS
 10
1149.765246885
 20
590.308313313
 11
1053.765246885
 21
590.308313313
  0
LINE
  8
2
 62
7
  6
CONTINUOUS
 10
1053.765246885
 20
590.308313313
 11
1053.765246885
 21
603.308313313
  0
LINE
  8
2
 62
7
  6
CONTINUOUS
 10
1149.765246885
 20
603.308313313
 11
1149.765246885
 21
590.308313313
  0
LINE
  8
2
 62
7
  6
CONTINUOUS
 10
1052.765246885
 20
625.308313313
 11
1048.265246885
 21
631.308313313
  0
LINE
  8
2
 62
7
  6
CONTINUOUS
 10
1150.765246885
 20
625.308313313
 11
1052.765246885
 21
625.308313313
  0
LINE
  8
2
 62
7
  6
CONTINUOUS
 10
1155.265246885
 20
631.308313313
 11
1150.765246885
 21
625.308313313
  0
LINE
  8
2
 62
7
  6
CONTINUOUS
 10
1155.265246885
 20
631.308313313
 11
1048.265246885
 21
631.308313313
  0
LINE
  8
1
 62
7
  6
CONTINUOUS
 10
1220.015246885
 20
640.551873563
 11
1220.015246885
 21
635.758313313
  0
LINE
  8
2
 62
7
  6
CONTINUOUS
 10
1155.265246885
 20
651.008313313
 11
1155.265246885
 21
631.308313313
  0
LINE
  8
2
 62
7
  6
CONTINUOUS
 10
1150.765246885
 20
605.308313313
 11
1052.765246885
 21
605.308313313
  0
LINE
  8
5
 62
2
  6
DASHDOT2
 10
1426.765246885
 20
911.881904582
 11
1426.765246885
 21
923.594521338
  0
LINE
  8
2
 62
7
  6
CONTINUOUS
 10
1048.265246885
 20
631.308313313
 11
1048.265246885
 21
651.008313313
  0
LINE
  8
1
 62
1
  6
HIDDEN2
 10
1213.515246885
 20
640.551873563
 11
1213.515246885
 21
641.258313313
  0
LINE
  8
1
 62
7
  6
CONTINUOUS
 10
1222.765246885
 20
974.508313313
 11
1210.765246885
 21
974.508313313
  0
LINE
  8
5
 62
7
  6
CONTINUOUS
 10
1236.765246885
 20
968.508313313
 11
1411.265246885
 21
968.508313313
  0
LINE
  8
5
 62
7
  6
CONTINUOUS
 10
1210.765246885
 20
968.508313313
 11
1222.765246885
 21
968.508313313
  0
LINE
  8
1
 62
1
  6
HIDDEN2
 10
1213.515246885
 20
950.464753062
 11
1213.515246885
 21
949.758313313
  0
LINE
  8
1
 62
7
  6
CONTINUOUS
 10
1220.015246885
 20
950.464753062
 11
1220.015246885
 21
955.258313313
  0
LINE
  8
2
 62
2
  6
DASHDOT2
 10
943.403136714
 20
835.508313313
 11
994.251264224
 21
835.508313313
  0
LINE
  8
2
 62
2
  6
DASHDOT2
 10
1101.765246885
 20
572.146203142
 11
1101.765246885
 21
622.994330652
  0
LINE
  8
2
 62
1
  6
HIDDEN2
 10
1052.765246885
 20
985.708313313
 11
1052.765246885
 21
987.708313313
  0
LINE
  8
2
 62
1
  6
HIDDEN2
 10
1149.265246885
 20
1006.708313313
 11
1149.765246885
 21
1000.708313313
  0
LINE
  8
7
 62
2
  6
DASHDOT2
 10
1216.765246885
 20
615.483223873
 11
1216.765246885
 21
720.126263254
  0
LINE
  8
1
 62
7
  6
CONTINUOUS
 10
1196.765246885
 20
616.508313313
 11
1196.765246885
 21
603.008313313
  0
LINE
  8
1
 62
7
  6
CONTINUOUS
 10
1222.765246885
 20
616.508313313
 11
1222.765246885
 21
603.008313313
  0
LINE
  8
1
 62
7
  6
CONTINUOUS
 10
1222.765246885
 20
604.208313313
 11
1236.765246885
 21
604.208313313
  0
LINE
  8
1
 62
7
  6
CONTINUOUS
 10
1222.765246885
 20
603.008313313
 11
1236.765246885
 21
603.008313313
  0
LINE
  8
1
 62
2
  6
DASHDOT2
 10
1216.765246885
 20
599.965360666
 11
1216.765246885
 21
656.242844806
  0
LINE
  8
1
 62
7
  6
CONTINUOUS
 10
1210.765246885
 20
603.008313313
 11
1210.765246885
 21
616.508313313
  0
LINE
  8
1
 62
7
  6
CONTINUOUS
 10
1196.765246885
 20
604.208313313
 11
1210.765246885
 21
604.208313313
  0
LINE
  8
1
 62
7
  6
CONTINUOUS
 10
1236.765246885
 20
988.008313313
 11
1236.765246885
 21
974.508313313
  0
LINE
  8
1
 62
7
  6
CONTINUOUS
 10
1196.765246885
 20
988.008313313
 11
1210.765246885
 21
988.008313313
  0
LINE
  8
1
 62
7
  6
CONTINUOUS
 10
1196.765246885
 20
603.008313313
 11
1210.765246885
 21
603.008313313
  0
LINE
  8
1
 62
7
  6
CONTINUOUS
 10
1236.765246885
 20
603.008313313
 11
1236.765246885
 21
616.508313313
  0
LINE
  8
1
 62
7
  6
CONTINUOUS
 10
1236.765246885
 20
616.508313313
 11
1415.765246885
 21
616.508313313
  0
LINE
  8
1
 62
7
  6
CONTINUOUS
 10
1196.765246885
 20
986.808313313
 11
1210.765246885
 21
986.808313313
  0
LINE
  8
1
 62
7
  6
CONTINUOUS
 10
1210.765246885
 20
988.008313313
 11
1210.765246885
 21
974.508313313
  0
LINE
  8
1
 62
2
  6
DASHDOT2
 10
1216.765246885
 20
991.051265959
 11
1216.765246885
 21
934.773781820
  0
LINE
  8
1
 62
7
  6
CONTINUOUS
 10
1222.765246885
 20
988.008313313
 11
1236.765246885
 21
988.008313313
  0
LINE
  8
1
 62
7
  6
CONTINUOUS
 10
1222.765246885
 20
986.808313313
 11
1236.765246885
 21
986.808313313
  0
LINE
  8
1
 62
7
  6
CONTINUOUS
 10
1222.765246885
 20
974.508313313
 11
1222.765246885
 21
988.008313313
  0
LINE
  8
1
 62
7
  6
CONTINUOUS
 10
1196.765246885
 20
974.508313313
 11
1196.765246885
 21
988.008313313
  0
LINE
  8
2
 62
1
  6
HIDDEN2
 10
1052.765246885
 20
965.708313313
 11
1052.765246885
 21
985.708313313
  0
LINE
  8
2
 62
1
  6
HIDDEN2
 10
1150.765246885
 20
985.708313313
 11
1150.765246885
 21
965.708313313
  0
LINE
  8
2
 62
1
  6
HIDDEN2
 10
1054.265246885
 20
1006.708313313
 11
1149.265246885
 21
1006.708313313
  0
LINE
  8
2
 62
1
  6
HIDDEN2
 10
1053.765246885
 20
1000.708313313
 11
1054.265246885
 21
1006.708313313
  0
LINE
  8
5
 62
7
  6
CONTINUOUS
 10
1196.765246885
 20
622.508313313
 11
1150.765246885
 21
622.508313313
  0
LINE
  8
2
 62
1
  6
HIDDEN2
 10
1150.765246885
 20
987.708313313
 11
1150.765246885
 21
985.708313313
  0
LINE
  8
2
 62
1
  6
HIDDEN2
 10
1052.765246885
 20
987.708313313
 11
1150.765246885
 21
987.708313313
  0
LINE
  8
2
 62
1
  6
HIDDEN2
 10
1053.765246885
 20
1000.708313313
 11
1149.765246885
 21
1000.708313313
  0
LINE
  8
2
 62
1
  6
HIDDEN2
 10
1149.765246885
 20
1000.708313313
 11
1149.765246885
 21
987.708313313
  0
LINE
  8
2
 62
1
  6
HIDDEN2
 10
1053.765246885
 20
987.708313313
 11
1053.765246885
 21
1000.708313313
  0
LINE
  8
2
 62
1
  6
HIDDEN2
 10
1150.765246885
 20
965.708313313
 11
1155.265246885
 21
959.708313313
  0
LINE
  8
2
 62
1
  6
HIDDEN2
 10
1052.765246885
 20
965.708313313
 11
1150.765246885
 21
965.708313313
  0
LINE
  8
2
 62
1
  6
HIDDEN2
 10
1048.265246885
 20
959.708313313
 11
1052.765246885
 21
965.708313313
  0
LINE
  8
2
 62
2
  6
DASHDOT2
 10
943.403136714
 20
795.508313313
 11
1463.862433028
 21
795.508313313
  0
ARC
  8
1
 62
7
  6
CONTINUOUS
 10
1415.765246885
 20
646.508313313
 40
30.000000000
 50
270.000000000
 51
0.000000000
  0
ARC
  8
1
 62
7
  6
CONTINUOUS
 10
1017.765246885
 20
646.508313313
 40
30.000000000
 50
180.000000000
 51
270.000000000
  0
ARC
  8
1
 62
7
  6
CONTINUOUS
 10
1415.765246885
 20
944.508313313
 40
30.000000000
 50
0.000000000
 51
90.000000000
  0
ARC
  8
1
 62
7
  6
CONTINUOUS
 10
1017.765246885
 20
944.508313313
 40
30.000000000
 50
90.000000000
 51
180.000000000
  0
LINE
  8
1
 62
7
  6
CONTINUOUS
 10
987.765246885
 20
944.508313313
 11
987.765246885
 21
646.508313313
  0
LINE
  8
1
 62
7
  6
CONTINUOUS
 10
1415.765246885
 20
974.508313313
 11
1236.765246885
 21
974.508313313
  0
LINE
  8
1
 62
7
  6
CONTINUOUS
 10
1445.765246885
 20
646.508313313
 11
1445.765246885
 21
944.508313313
  0
LINE
  8
1
 62
7
  6
CONTINUOUS
 10
1017.765246885
 20
616.508313313
 11
1052.765246885
 21
616.508313313
  0
LINE
  8
2
 62
2
  6
DASHDOT2
 10
1216.765246885
 20
604.681359457
 11
1216.765246885
 21
984.755778681
  0
LINE
  8
9
 62
7
  6
CONTINUOUS
 10
1411.265246885
 20
939.008313313
 11
1411.265246885
 21
652.008313313
  0
LINE
  8
9
 62
7
  6
CONTINUOUS
 10
1023.265246885
 20
940.008313313
 11
1410.265246885
 21
940.008313313
  0
LINE
  8
9
 62
7
  6
CONTINUOUS
 10
1022.265246885
 20
652.008313313
 11
1022.265246885
 21
939.008313313
  0
LINE
  8
9
 62
7
  6
CONTINUOUS
 10
1410.265246885
 20
651.008313313
 11
1023.265246885
 21
651.008313313
  0
ARC
  8
9
 62
7
  6
CONTINUOUS
 10
1023.265246885
 20
652.008313313
 40
1.000000000
 50
180.000000000
 51
270.000000000
  0
ARC
  8
9
 62
7
  6
CONTINUOUS
 10
1023.265246885
 20
939.008313313
 40
1.000000000
 50
90.000000000
 51
180.000000000
  0
ARC
  8
9
 62
7
  6
CONTINUOUS
 10
1410.265246885
 20
939.008313313
 40
1.000000000
 50
0.000000000
 51
90.000000000
  0
LINE
  8
1
 62
7
  6
CONTINUOUS
 10
1213.515246885
 20
635.758313313
 11
1213.515246885
 21
640.551873563
  0
ARC
  8
1
 62
1
  6
HIDDEN2
 10
1216.765246885
 20
641.258313313
 40
3.250000000
 50
0.000000000
 51
180.000000000
  0
LINE
  8
1
 62
1
  6
HIDDEN2
 10
1220.015246885
 20
641.258313313
 11
1220.015246885
 21
640.551873563
  0
ARC
  8
1
 62
7
  6
CONTINUOUS
 10
1216.765246885
 20
635.758313313
 40
3.250000000
 50
180.000000000
 51
0.000000000
  0
LINE
  8
1
 62
7
  6
CONTINUOUS
 10
1247.744520919
 20
643.008313353
 11
1251.785972850
 21
643.008313353
  0
LINE
  8
1
 62
7
  6
CONTINUOUS
 10
1251.785972850
 20
643.008313353
 11
1253.806698816
 21
639.508313313
  0
LINE
  8
1
 62
7
  6
CONTINUOUS
 10
1253.806698816
 20
639.508313313
 11
1251.785972850
 21
636.008313273
  0
LINE
  8
1
 62
7
  6
CONTINUOUS
 10
1251.785972850
 20
636.008313273
 11
1247.744520919
 21
636.008313273
  0
LINE
  8
1
 62
7
  6
CONTINUOUS
 10
1247.744520919
 20
636.008313273
 11
1245.723794954
 21
639.508313313
  0
LINE
  8
1
 62
7
  6
CONTINUOUS
 10
1245.723794954
 20
639.508313313
 11
1247.744520919
 21
643.008313353
  0
CIRCLE
  8
1
 62
7
  6
CONTINUOUS
 10
1249.765246885
 20
639.508313313
 40
2.250000000
  0
LINE
  8
1
 62
1
  6
HIDDEN2
 10
1220.015246885
 20
949.758313313
 11
1220.015246885
 21
950.464753062
  0
ARC
  8
1
 62
1
  6
HIDDEN2
 10
1216.765246885
 20
949.758313313
 40
3.250000000
 50
180.000000000
 51
0.000000000
  0
LINE
  8
1
 62
7
  6
CONTINUOUS
 10
1213.515246885
 20
955.258313313
 11
1213.515246885
 21
950.464753062
  0
CIRCLE
  8
1
 62
7
  6
CONTINUOUS
 10
1249.765246885
 20
639.508313313
 40
5.500000000
  0
LINE
  8
1
 62
7
  6
CONTINUOUS
 10
1247.744520919
 20
955.008313353
 11
1245.723794954
 21
951.508313313
  0
LINE
  8
1
 62
7
  6
CONTINUOUS
 10
1251.785972850
 20
955.008313353
 11
1247.744520919
 21
955.008313353
  0
LINE
  8
1
 62
7
  6
CONTINUOUS
 10
1253.806698816
 20
951.508313313
 11
1251.785972850
 21
955.008313353
  0
LINE
  8
1
 62
7
  6
CONTINUOUS
 10
1251.785972850
 20
948.008313272
 11
1253.806698816
 21
951.508313313
  0
LINE
  8
1
 62
7
  6
CONTINUOUS
 10
1247.744520919
 20
948.008313272
 11
1251.785972850
 21
948.008313272
  0
ARC
  8
1
 62
7
  6
CONTINUOUS
 10
1216.765246885
 20
955.258313313
 40
3.250000000
 50
0.000000000
 51
180.000000000
  0
LINE
  8
2
 62
7
  6
CONTINUOUS
 10
1002.565246885
 20
889.008313313
 11
1022.265246885
 21
889.008313313
  0
LINE
  8
5
 62
2
  6
DASHDOT2
 10
1006.765246885
 20
921.881904582
 11
1006.765246885
 21
933.594521338
  0
LINE
  8
2
 62
1
  6
HIDDEN2
 10
1048.265246885
 20
959.708313313
 11
1155.265246885
 21
959.708313313
  0
LINE
  8
2
 62
1
  6
HIDDEN2
 10
1048.265246885
 20
940.008313313
 11
1048.265246885
 21
959.708313313
  0
LINE
  8
2
 62
1
  6
HIDDEN2
 10
1052.765246885
 20
985.708313313
 11
1150.765246885
 21
985.708313313
  0
LINE
  8
2
 62
1
  6
HIDDEN2
 10
1155.265246885
 20
959.708313313
 11
1155.265246885
 21
940.008313313
  0
LINE
  8
2
 62
2
  6
DASHDOT2
 10
1101.765246885
 20
1018.870423484
 11
1101.765246885
 21
968.022295974
  0
LINE
  8
2
 62
7
  6
CONTINUOUS
 10
976.565246885
 20
786.508313313
 11
976.565246885
 21
884.508313313
  0
LINE
  8
2
 62
7
  6
CONTINUOUS
 10
1022.265246885
 20
782.008313313
 11
1002.565246885
 21
782.008313313
  0
LINE
  8
2
 62
7
  6
CONTINUOUS
 10
1002.565246885
 20
782.008313313
 11
1002.565246885
 21
889.008313313
  0
LINE
  8
2
 62
7
  6
CONTINUOUS
 10
1002.565246885
 20
782.008313313
 11
996.565246885
 21
786.508313313
  0
LINE
  8
2
 62
7
  6
CONTINUOUS
 10
996.565246885
 20
786.508313313
 11
996.565246885
 21
884.508313313
  0
LINE
  8
2
 62
7
  6
CONTINUOUS
 10
996.565246885
 20
884.508313313
 11
1002.565246885
 21
889.008313313
  0
LINE
  8
2
 62
7
  6
CONTINUOUS
 10
974.565246885
 20
787.508313313
 11
961.565246885
 21
787.508313313
  0
LINE
  8
2
 62
7
  6
CONTINUOUS
 10
961.565246885
 20
883.508313313
 11
974.565246885
 21
883.508313313
  0
LINE
  8
2
 62
7
  6
CONTINUOUS
 10
961.565246885
 20
787.508313313
 11
961.565246885
 21
883.508313313
  0
ARC
  8
9
 62
7
  6
CONTINUOUS
 10
1410.265246885
 20
652.008313313
 40
1.000000000
 50
270.000000000
 51
0.000000000
  0
LINE
  8
2
 62
7
  6
CONTINUOUS
 10
974.565246885
 20
786.508313313
 11
974.565246885
 21
884.508313313
  0
LINE
  8
2
 62
7
  6
CONTINUOUS
 10
974.565246885
 20
884.508313313
 11
976.565246885
 21
884.508313313
  0
LINE
  8
2
 62
7
  6
CONTINUOUS
 10
961.565246885
 20
787.508313313
 11
955.565246885
 21
788.008313313
  0
LINE
  8
2
 62
7
  6
CONTINUOUS
 10
955.565246885
 20
788.008313313
 11
955.565246885
 21
883.008313313
  0
LINE
  8
2
 62
7
  6
CONTINUOUS
 10
976.565246885
 20
884.508313313
 11
996.565246885
 21
884.508313313
  0
LINE
  8
2
 62
7
  6
CONTINUOUS
 10
996.565246885
 20
786.508313313
 11
976.565246885
 21
786.508313313
  0
LINE
  8
2
 62
7
  6
CONTINUOUS
 10
955.565246885
 20
883.008313313
 11
961.565246885
 21
883.508313313
  0
LINE
  8
2
 62
7
  6
CONTINUOUS
 10
976.565246885
 20
786.508313313
 11
974.565246885
 21
786.508313313
  0
LINE
  8
5
 62
7
  6
CONTINUOUS
 10
993.765246885
 20
884.508313313
 11
993.765246885
 21
940.008313313
  0
LINE
  8
5
 62
2
  6
DASHDOT2
 10
999.745598164
 20
835.508313313
 11
1016.101606921
 21
835.508313313
  0
ARC
  8
1
 62
7
  6
CONTINUOUS
 10
1429.515246885
 20
673.508313313
 40
2.250000000
 50
270.000000000
 51
90.000000001
  0
LINE
  8
5
 62
2
  6
DASHDOT2
 10
1216.765246885
 20
958.526795718
 11
1216.765246885
 21
946.477085694
  0
LINE
  8
5
 62
2
  6
DASHDOT2
 10
1222.391655616
 20
952.508313313
 11
1210.679038859
 21
952.508313313
  0
ARC
  8
5
 62
7
  6
CONTINUOUS
 10
1411.265246885
 20
940.008313313
 40
28.500000000
 50
0.000000000
 51
90.000000000
  0
LINE
  8
5
 62
7
  6
CONTINUOUS
 10
1439.765246885
 20
940.008313313
 11
1439.765246885
 21
651.008313313
  0
ARC
  8
5
 62
7
  6
CONTINUOUS
 10
1411.265246885
 20
651.008313313
 40
28.500000000
 50
270.000000000
 51
0.000000000
  0
LINE
  8
5
 62
7
  6
CONTINUOUS
 10
1411.265246885
 20
622.508313313
 11
1236.765246885
 21
622.508313313
  0
LINE
  8
5
 62
2
  6
DASHDOT2
 10
999.746764480
 20
927.508313313
 11
1014.796474505
 21
927.508313313
  0
ARC
  8
1
 62
7
  6
CONTINUOUS
 10
1009.515246885
 20
927.508313313
 40
2.250000000
 50
270.000000000
 51
90.000000001
  0
LINE
  8
1
 62
7
  6
CONTINUOUS
 10
1009.515246885
 20
929.758313313
 11
1004.015246885
 21
929.758313313
  0
LINE
  8
5
 62
7
  6
CONTINUOUS
 10
993.765246885
 20
651.008313313
 11
993.765246885
 21
786.508313313
  0
ARC
  8
1
 62
7
  6
CONTINUOUS
 10
1004.015246885
 20
927.508313313
 40
2.250000000
 50
90.000000000
 51
270.000000000
  0
LINE
  8
1
 62
7
  6
CONTINUOUS
 10
1004.015246885
 20
675.758313313
 11
1009.515246885
 21
675.758313313
  0
LINE
  8
1
 62
7
  6
CONTINUOUS
 10
1004.015246885
 20
925.258313313
 11
1009.515246885
 21
925.258313313
  0
LINE
  8
5
 62
2
  6
DASHDOT2
 10
1433.783729291
 20
917.508313313
 11
1418.734019266
 21
917.508313313
  0
ARC
  8
1
 62
7
  6
CONTINUOUS
 10
1424.015246885
 20
917.508313313
 40
2.250000000
 50
90.000000000
 51
270.000000000
  0
LINE
  8
1
 62
7
  6
CONTINUOUS
 10
1424.015246885
 20
919.758313313
 11
1429.515246885
 21
919.758313313
  0
ARC
  8
1
 62
7
  6
CONTINUOUS
 10
1429.515246885
 20
917.508313313
 40
2.250000000
 50
270.000000000
 51
90.000000001
  0
LINE
  8
1
 62
7
  6
CONTINUOUS
 10
1429.515246885
 20
915.258313313
 11
1424.015246885
 21
915.258313313
  0
LINE
  8
5
 62
2
  6
DASHDOT2
 10
1426.765246885
 20
667.881904582
 11
1426.765246885
 21
679.594521338
  0
LINE
  8
5
 62
2
  6
DASHDOT2
 10
1433.783729291
 20
673.508313313
 11
1418.734019266
 21
673.508313313
  0
ARC
  8
1
 62
7
  6
CONTINUOUS
 10
1424.015246885
 20
673.508313313
 40
2.250000000
 50
90.000000000
 51
270.000000000
  0
ARC
  8
1
 62
7
  6
CONTINUOUS
 10
1004.015246885
 20
673.508313313
 40
2.250000000
 50
90.000000000
 51
270.000000000
  0
LINE
  8
1
 62
7
  6
CONTINUOUS
 10
1009.515246885
 20
671.258313313
 11
1004.015246885
 21
671.258313313
  0
ARC
  8
1
 62
7
  6
CONTINUOUS
 10
1009.515246885
 20
673.508313313
 40
2.250000000
 50
270.000000000
 51
90.000000001
  0
LINE
  8
5
 62
2
  6
DASHDOT2
 10
999.746764480
 20
673.508313313
 11
1014.796474505
 21
673.508313313
  0
LINE
  8
5
 62
2
  6
DASHDOT2
 10
1222.391655616
 20
638.508313313
 11
1210.679038860
 21
638.508313313
  0
LINE
  8
5
 62
2
  6
DASHDOT2
 10
1006.765246885
 20
667.881904582
 11
1006.765246885
 21
679.594521338
  0
LINE
  8
5
 62
2
  6
DASHDOT2
 10
1216.765246885
 20
632.489830907
 11
1216.765246885
 21
644.539540932
  0
LINE
  8
1
 62
7
  6
CONTINUOUS
 10
1245.723794954
 20
951.508313313
 11
1247.744520919
 21
948.008313272
  0
CIRCLE
  8
1
 62
7
  6
CONTINUOUS
 10
1249.765246885
 20
951.508313313
 40
2.250000000
  0
CIRCLE
  8
1
 62
7
  6
CONTINUOUS
 10
1249.765246885
 20
951.508313313
 40
5.500000000
  0
CIRCLE
  8
5
 62
1
  6
HIDDEN2
 10
1101.765246885
 20
953.508313313
 40
2.500000000
  0
CIRCLE
  8
5
 62
7
  6
CONTINUOUS
 10
1426.765246885
 20
795.508313313
 40
2.500000000
  0
LINE
  8
1
 62
7
  6
CONTINUOUS
 10
1429.515246885
 20
675.758313313
 11
1424.015246885
 21
675.758313313
  0
LINE
  8
1
 62
7
  6
CONTINUOUS
 10
1424.015246885
 20
671.258313313
 11
1429.515246885
 21
671.258313313
  0
LINE
  8
1
 62
7
  6
CONTINUOUS
 10
1210.765246885
 20
616.508313313
 11
1210.765246885
 21
635.508313313
  0
ARC
  8
5
 62
7
  6
CONTINUOUS
 10
1022.265246885
 20
651.008313313
 40
28.500000000
 50
180.000000000
 51
270.000000000
  0
ARC
  8
5
 62
7
  6
CONTINUOUS
 10
1022.265246885
 20
940.008313313
 40
28.500000000
 50
90.000000000
 51
180.000000000
  0
LINE
  8
1
 62
7
  6
CONTINUOUS
 10
1222.765246885
 20
635.508313313
 11
1222.765246885
 21
616.508313313
  0
ARC
  8
1
 62
7
  6
CONTINUOUS
 10
1216.765246885
 20
635.508313313
 40
6.000000000
 50
0.000000000
 51
180.000000000
  0
CIRCLE
  8
5
 62
1
  6
HIDDEN2
 10
1101.765246885
 20
637.508313313
 40
2.500000000
  0
CIRCLE
  8
1
 62
1
  6
HIDDEN2
 10
1249.765246885
 20
135.349079897
 40
2.250000000
  0
LINE
  8
1
 62
1
  6
HIDDEN2
 10
1245.723794954
 20
135.349079897
 11
1247.744520919
 21
131.849079856
  0
LINE
  8
1
 62
1
  6
HIDDEN2
 10
1247.744520919
 20
138.849079937
 11
1245.723794954
 21
135.349079897
  0
LINE
  8
1
 62
1
  6
HIDDEN2
 10
1251.785972850
 20
138.849079937
 11
1247.744520919
 21
138.849079937
  0
LINE
  8
1
 62
1
  6
HIDDEN2
 10
1253.806698816
 20
135.349079897
 11
1251.785972850
 21
138.849079937
  0
LINE
  8
1
 62
1
  6
HIDDEN2
 10
1251.785972850
 20
131.849079856
 11
1253.806698816
 21
135.349079897
  0
LINE
  8
1
 62
1
  6
HIDDEN2
 10
1247.744520919
 20
131.849079856
 11
1251.785972850
 21
131.849079856
  0
ARC
  8
1
 62
1
  6
HIDDEN2
 10
1216.765246885
 20
139.099079897
 40
3.250000000
 50
0.000000000
 51
180.000000000
  0
LINE
  8
1
 62
1
  6
HIDDEN2
 10
1220.015246885
 20
133.599079897
 11
1220.015246885
 21
139.099079897
  0
ARC
  8
1
 62
1
  6
HIDDEN2
 10
1216.765246885
 20
133.599079897
 40
3.250000000
 50
180.000000000
 51
0.000000000
  0
LINE
  8
1
 62
1
  6
HIDDEN2
 10
1213.515246885
 20
139.099079897
 11
1213.515246885
 21
133.599079897
  0
ARC
  8
9
 62
1
  6
HIDDEN
 10
1410.265246885
 20
-164.150920103
 40
1.000000000
 50
270.000000000
 51
0.000000000
  0
ARC
  8
9
 62
1
  6
HIDDEN
 10
1023.265246885
 20
-164.150920103
 40
1.000000000
 50
180.000000000
 51
270.000000000
  0
ARC
  8
9
 62
1
  6
HIDDEN
 10
1023.265246885
 20
122.849079897
 40
1.000000000
 50
90.000000000
 51
180.000000000
  0
LINE
  8
9
 62
1
  6
HIDDEN
 10
1410.265246885
 20
123.849079897
 11
1023.265246885
 21
123.849079897
  0
LINE
  8
9
 62
1
  6
HIDDEN
 10
1022.265246885
 20
122.849079897
 11
1022.265246885
 21
-164.150920103
  0
LINE
  8
9
 62
1
  6
HIDDEN
 10
1023.265246885
 20
-165.150920103
 11
1410.265246885
 21
-165.150920103
  0
LINE
  8
9
 62
1
  6
HIDDEN
 10
1411.265246885
 20
-164.150920103
 11
1411.265246885
 21
122.849079897
  0
LINE
  8
6
 62
2
  6
CENTER
 10
605.831346992
 20
797.492535217
 11
616.618110850
 21
808.279299074
  0
ARC
  8
2
 62
1
  6
HIDDEN2
 10
541.219656648
 20
732.880844872
 40
92.994949366
 50
42.000000000
 51
48.000000000
  0
ARC
  8
2
 62
1
  6
HIDDEN2
 10
474.979106152
 20
806.448429242
 40
2.500000000
 50
312.000000000
 51
132.000000000
  0
ARC
  8
6
 62
2
  6
CENTER
 10
541.219656648
 20
732.880844872
 40
98.994949366
 50
37.587511977
 51
52.183525022
  0
ARC
  8
2
 62
1
  6
HIDDEN2
 10
614.787241018
 20
799.121395368
 40
2.500000000
 50
222.000000000
 51
42.000000000
  0
ARC
  8
2
 62
1
  6
HIDDEN2
 10
541.219656648
 20
732.880844872
 40
101.494949366
 50
42.000000000
 51
48.000000000
  0
LINE
  8
1
 62
7
  6
CONTINUOUS
 10
482.219656648
 20
769.945022644
 11
490.219656648
 21
772.492814284
  0
LINE
  8
1
 62
7
  6
CONTINUOUS
 10
490.219656648
 20
764.492814284
 11
490.219656648
 21
768.030741103
  0
ARC
  8
2
 62
1
  6
CONTINUOUS
 10
299.187823010
 20
732.880844872
 40
96.494949366
 50
312.000000000
 51
318.000000000
  0
ARC
  8
2
 62
1
  6
CONTINUOUS
 10
541.219656648
 20
732.880844872
 40
104.994949366
 50
222.000000000
 51
228.000000000
  0
ARC
  8
2
 62
1
  6
CONTINUOUS
 10
467.652072278
 20
666.640294376
 40
6.000000000
 50
42.000000000
 51
222.000000000
  0
LINE
  8
6
 62
2
  6
CENTER
 10
476.607966303
 20
668.269154527
 11
465.821202445
 21
657.482390670
  0
CIRCLE
  8
2
 62
1
  6
HIDDEN2
 10
541.219656648
 20
799.630844872
 40
5.500000000
  0
ARC
  8
2
 62
1
  6
CONTINUOUS
 10
541.219656648
 20
732.880844872
 40
92.994949366
 50
222.000000000
 51
228.000000000
  0
ARC
  8
6
 62
2
  6
CENTER
 10
541.219656648
 20
732.880844872
 40
98.994949366
 50
217.587511977
 51
232.183525022
  0
ARC
  8
2
 62
1
  6
HIDDEN2
 10
607.460207144
 20
806.448429242
 40
2.500000000
 50
48.000000000
 51
228.000000000
  0
LINE
  8
1
 62
7
  6
CONTINUOUS
 10
490.219656648
 20
776.030741103
 11
490.219656648
 21
772.492814284
  0
LINE
  8
1
 62
7
  6
CONTINUOUS
 10
482.219656648
 20
745.945022644
 11
490.219656648
 21
748.492814284
  0
LINE
  8
1
 62
7
  6
CONTINUOUS
 10
487.219656648
 20
791.880844872
 11
595.219656648
 21
791.880844872
  0
LINE
  8
1
 62
7
  6
CONTINUOUS
 10
482.219656648
 20
753.945022644
 11
490.219656648
 21
756.492814284
  0
LINE
  8
1
 62
7
  6
CONTINUOUS
 10
490.219656648
 20
676.278740281
 11
490.219656648
 21
680.030741103
  0
LINE
  8
1
 62
7
  6
CONTINUOUS
 10
595.219656648
 20
673.880844872
 11
487.219656648
 21
673.880844872
  0
LINE
  8
1
 62
7
  6
CONTINUOUS
 10
490.219656648
 20
748.492814284
 11
490.219656648
 21
752.030741103
  0
LINE
  8
1
 62
7
  6
CONTINUOUS
 10
600.219656648
 20
688.030741103
 11
482.219656648
 21
688.030741103
  0
LINE
  8
1
 62
7
  6
CONTINUOUS
 10
482.219656648
 20
689.945022644
 11
600.219656648
 21
689.945022644
  0
LINE
  8
1
 62
7
  6
CONTINUOUS
 10
592.219656648
 20
692.492814284
 11
490.219656648
 21
692.492814284
  0
LINE
  8
1
 62
7
  6
CONTINUOUS
 10
600.219656648
 20
696.030741103
 11
482.219656648
 21
696.030741103
  0
LINE
  8
1
 62
7
  6
CONTINUOUS
 10
482.219656648
 20
697.945022644
 11
600.219656648
 21
697.945022644
  0
LINE
  8
1
 62
7
  6
CONTINUOUS
 10
592.219656648
 20
700.492814284
 11
490.219656648
 21
700.492814284
  0
LINE
  8
1
 62
7
  6
CONTINUOUS
 10
600.219656648
 20
704.030741103
 11
482.219656648
 21
704.030741103
  0
LINE
  8
1
 62
7
  6
CONTINUOUS
 10
482.219656648
 20
705.945022644
 11
600.219656648
 21
705.945022644
  0
LINE
  8
1
 62
7
  6
CONTINUOUS
 10
592.219656648
 20
708.492814284
 11
490.219656648
 21
708.492814284
  0
ARC
  8
2
 62
1
  6
CONTINUOUS
 10
232.437823010
 20
732.880844872
 40
5.500000000
 50
180.000000000
 51
0.000000000
  0
ARC
  8
1
 62
7
  6
CONTINUOUS
 10
769.271599687
 20
690.430518616
 40
100.000000000
 50
189.866524017
 51
205.733149379
  0
LINE
  8
1
 62
7
  6
CONTINUOUS
 10
670.743243457
 20
792.380844872
 11
670.743243457
 21
673.380844872
  0
ARC
  8
2
 62
1
  6
CONTINUOUS
 10
365.428373506
 20
659.313260502
 40
6.000000000
 50
132.000000000
 51
312.000000000
  0
ARC
  8
1
 62
7
  6
CONTINUOUS
 10
680.990654607
 20
817.880844872
 40
2.000000000
 50
90.000000000
 51
154.266850621
  0
ARC
  8
1
 62
7
  6
CONTINUOUS
 10
680.990654607
 20
647.880844872
 40
2.000000000
 50
205.733149379
 51
270.000000000
  0
LINE
  8
1
 62
7
  6
CONTINUOUS
 10
680.990654607
 20
819.880844872
 11
685.743243457
 21
819.880844872
  0
LINE
  8
1
 62
7
  6
CONTINUOUS
 10
685.743243457
 20
819.880844872
 11
685.743243457
 21
645.880844872
  0
LINE
  8
1
 62
7
  6
CONTINUOUS
 10
600.219656648
 20
712.030741103
 11
482.219656648
 21
712.030741103
  0
LINE
  8
1
 62
7
  6
CONTINUOUS
 10
482.219656648
 20
713.945022644
 11
600.219656648
 21
713.945022644
  0
LINE
  8
1
 62
7
  6
CONTINUOUS
 10
592.219656648
 20
716.492814284
 11
490.219656648
 21
716.492814284
  0
LINE
  8
1
 62
7
  6
CONTINUOUS
 10
600.219656648
 20
720.030741103
 11
482.219656648
 21
720.030741103
  0
LINE
  8
1
 62
7
  6
CONTINUOUS
 10
482.219656648
 20
721.945022644
 11
600.219656648
 21
721.945022644
  0
LINE
  8
1
 62
7
  6
CONTINUOUS
 10
592.219656648
 20
724.492814284
 11
490.219656648
 21
724.492814284
  0
LINE
  8
1
 62
7
  6
CONTINUOUS
 10
600.219656648
 20
728.030741103
 11
482.219656648
 21
728.030741103
  0
LINE
  8
1
 62
7
  6
CONTINUOUS
 10
482.219656648
 20
729.945022644
 11
600.219656648
 21
729.945022644
  0
LINE
  8
1
 62
7
  6
CONTINUOUS
 10
592.219656648
 20
732.492814284
 11
490.219656648
 21
732.492814284
  0
LINE
  8
1
 62
7
  6
CONTINUOUS
 10
600.219656648
 20
736.030741103
 11
482.219656648
 21
736.030741103
  0
LINE
  8
1
 62
7
  6
CONTINUOUS
 10
482.219656648
 20
737.945022644
 11
600.219656648
 21
737.945022644
  0
LINE
  8
1
 62
7
  6
CONTINUOUS
 10
592.219656648
 20
740.492814284
 11
490.219656648
 21
740.492814284
  0
LINE
  8
1
 62
7
  6
CONTINUOUS
 10
600.219656648
 20
744.030741103
 11
482.219656648
 21
744.030741103
  0
LINE
  8
1
 62
7
  6
CONTINUOUS
 10
490.219656648
 20
760.030741103
 11
490.219656648
 21
756.492814284
  0
LINE
  8
1
 62
7
  6
CONTINUOUS
 10
484.630464131
 20
674.603452896
 11
490.219656648
 21
676.278740281
  0
LINE
  8
1
 62
7
  6
CONTINUOUS
 10
600.219656648
 20
777.945022644
 11
592.219656648
 21
780.492814284
  0
LINE
  8
1
 62
7
  6
CONTINUOUS
 10
482.219656648
 20
745.945022644
 11
600.219656648
 21
745.945022644
  0
LINE
  8
1
 62
7
  6
CONTINUOUS
 10
592.219656648
 20
748.492814284
 11
490.219656648
 21
748.492814284
  0
LINE
  8
1
 62
7
  6
CONTINUOUS
 10
600.219656648
 20
752.030741103
 11
482.219656648
 21
752.030741103
  0
LINE
  8
1
 62
7
  6
CONTINUOUS
 10
482.219656648
 20
753.945022644
 11
600.219656648
 21
753.945022644
  0
LINE
  8
1
 62
7
  6
CONTINUOUS
 10
592.219656648
 20
756.492814284
 11
490.219656648
 21
756.492814284
  0
LINE
  8
1
 62
7
  6
CONTINUOUS
 10
600.219656648
 20
760.030741103
 11
482.219656648
 21
760.030741103
  0
LINE
  8
1
 62
7
  6
CONTINUOUS
 10
592.219656648
 20
684.492814284
 11
490.219656648
 21
684.492814284
  0
LINE
  8
1
 62
7
  6
CONTINUOUS
 10
482.219656648
 20
761.945022644
 11
600.219656648
 21
761.945022644
  0
ARC
  8
2
 62
1
  6
CONTINUOUS
 10
467.652072278
 20
666.640294376
 40
2.500000000
 50
42.000000000
 51
222.000000000
  0
LINE
  8
1
 62
7
  6
CONTINUOUS
 10
482.219656648
 20
681.945022644
 11
600.219656648
 21
681.945022644
  0
LINE
  8
1
 62
7
  6
CONTINUOUS
 10
490.219656648
 20
700.492814284
 11
490.219656648
 21
704.030741103
  0
LINE
  8
1
 62
7
  6
CONTINUOUS
 10
600.219656648
 20
680.030741103
 11
482.219656648
 21
680.030741103
  0
LINE
  8
1
 62
7
  6
CONTINUOUS
 10
592.219656648
 20
764.492814284
 11
490.219656648
 21
764.492814284
  0
ARC
  8
6
 62
2
  6
CENTER
 10
541.219656648
 20
732.880844872
 40
98.994949366
 50
307.816474978
 51
322.412488023
  0
LINE
  8
1
 62
7
  6
CONTINUOUS
 10
482.219656648
 20
729.945022644
 11
490.219656648
 21
732.492814284
  0
LINE
  8
1
 62
7
  6
CONTINUOUS
 10
600.219656648
 20
768.030741103
 11
482.219656648
 21
768.030741103
  0
LINE
  8
1
 62
7
  6
CONTINUOUS
 10
482.219656648
 20
769.945022644
 11
600.219656648
 21
769.945022644
  0
LINE
  8
1
 62
7
  6
CONTINUOUS
 10
592.219656648
 20
772.492814284
 11
490.219656648
 21
772.492814284
  0
LINE
  8
1
 62
7
  6
CONTINUOUS
 10
600.219656648
 20
776.030741103
 11
482.219656648
 21
776.030741103
  0
LINE
  8
1
 62
7
  6
CONTINUOUS
 10
482.219656648
 20
777.945022644
 11
600.219656648
 21
777.945022644
  0
LINE
  8
1
 62
7
  6
CONTINUOUS
 10
592.219656648
 20
780.492814284
 11
490.219656648
 21
780.492814284
  0
LINE
  8
1
 62
7
  6
CONTINUOUS
 10
600.219656648
 20
784.030741103
 11
482.219656648
 21
784.030741103
  0
LINE
  8
1
 62
7
  6
CONTINUOUS
 10
482.219656648
 20
785.945022644
 11
600.219656648
 21
785.945022644
  0
LINE
  8
1
 62
7
  6
CONTINUOUS
 10
592.219656648
 20
788.492814284
 11
490.219656648
 21
788.492814284
  0
ARC
  8
2
 62
1
  6
CONTINUOUS
 10
541.219656648
 20
732.880844872
 40
101.494949366
 50
222.000000000
 51
228.000000000
  0
LINE
  8
1
 62
7
  6
CONTINUOUS
 10
597.808849164
 20
674.603452896
 11
592.219656648
 21
676.278740281
  0
LINE
  8
1
 62
7
  6
CONTINUOUS
 10
600.219656648
 20
681.945022644
 11
592.219656648
 21
684.492814284
  0
LINE
  8
1
 62
7
  6
CONTINUOUS
 10
600.219656648
 20
689.945022644
 11
592.219656648
 21
692.492814284
  0
LINE
  8
1
 62
7
  6
CONTINUOUS
 10
592.219656648
 20
676.278740281
 11
592.219656648
 21
680.030741103
  0
LINE
  8
1
 62
7
  6
CONTINUOUS
 10
592.219656648
 20
684.492814284
 11
592.219656648
 21
688.030741103
  0
LINE
  8
1
 62
7
  6
CONTINUOUS
 10
592.219656648
 20
696.030741103
 11
592.219656648
 21
692.492814284
  0
LINE
  8
1
 62
7
  6
CONTINUOUS
 10
592.219656648
 20
712.030741103
 11
592.219656648
 21
708.492814284
  0
LINE
  8
1
 62
7
  6
CONTINUOUS
 10
482.219656648
 20
737.945022644
 11
490.219656648
 21
740.492814284
  0
LINE
  8
1
 62
7
  6
CONTINUOUS
 10
592.219656648
 20
700.492814284
 11
592.219656648
 21
704.030741103
  0
LINE
  8
1
 62
7
  6
CONTINUOUS
 10
600.219656648
 20
705.945022644
 11
592.219656648
 21
708.492814284
  0
LINE
  8
1
 62
7
  6
CONTINUOUS
 10
490.219656648
 20
732.492814284
 11
490.219656648
 21
736.030741103
  0
LINE
  8
1
 62
7
  6
CONTINUOUS
 10
490.219656648
 20
744.030741103
 11
490.219656648
 21
740.492814284
  0
LINE
  8
1
 62
7
  6
CONTINUOUS
 10
592.219656648
 20
676.278740281
 11
490.219656648
 21
676.278740281
  0
LINE
  8
1
 62
7
  6
CONTINUOUS
 10
482.219656648
 20
713.945022644
 11
490.219656648
 21
716.492814284
  0
LINE
  8
1
 62
7
  6
CONTINUOUS
 10
600.219656648
 20
697.945022644
 11
592.219656648
 21
700.492814284
  0
LINE
  8
1
 62
7
  6
CONTINUOUS
 10
592.219656648
 20
728.030741103
 11
592.219656648
 21
724.492814284
  0
LINE
  8
1
 62
7
  6
CONTINUOUS
 10
482.219656648
 20
721.945022644
 11
490.219656648
 21
724.492814284
  0
ARC
  8
2
 62
1
  6
HIDDEN2
 10
474.469656648
 20
732.880844872
 40
5.500000000
 50
0.000000000
 51
180.000000000
  0
ARC
  8
2
 62
1
  6
CONTINUOUS
 10
474.979106152
 20
659.313260502
 40
2.500000000
 50
228.000000000
 51
48.000000000
  0
ARC
  8
2
 62
1
  6
HIDDEN2
 10
474.469656648
 20
732.880844872
 40
2.500000000
 50
0.000000000
 51
180.000000000
  0
LINE
  8
1
 62
7
  6
CONTINUOUS
 10
490.219656648
 20
716.492814284
 11
490.219656648
 21
720.030741103
  0
LINE
  8
1
 62
7
  6
CONTINUOUS
 10
490.219656648
 20
728.030741103
 11
490.219656648
 21
724.492814284
  0
LINE
  8
1
 62
7
  6
CONTINUOUS
 10
490.219656648
 20
780.492814284
 11
490.219656648
 21
784.030741103
  0
LINE
  8
1
 62
7
  6
CONTINUOUS
 10
482.219656648
 20
697.945022644
 11
490.219656648
 21
700.492814284
  0
LINE
  8
1
 62
7
  6
CONTINUOUS
 10
482.219656648
 20
705.945022644
 11
490.219656648
 21
708.492814284
  0
LINE
  8
1
 62
7
  6
CONTINUOUS
 10
592.219656648
 20
716.492814284
 11
592.219656648
 21
720.030741103
  0
LINE
  8
1
 62
7
  6
CONTINUOUS
 10
600.219656648
 20
721.945022644
 11
592.219656648
 21
724.492814284
  0
LINE
  8
6
 62
2
  6
CENTER
 10
474.469656648
 20
723.469617561
 11
474.469656648
 21
741.615745328
  0
LINE
  8
1
 62
7
  6
CONTINUOUS
 10
600.219656648
 20
713.945022644
 11
592.219656648
 21
716.492814284
  0
LINE
  8
1
 62
7
  6
CONTINUOUS
 10
592.219656648
 20
744.030741103
 11
592.219656648
 21
740.492814284
  0
ARC
  8
2
 62
1
  6
HIDDEN2
 10
541.219656648
 20
732.880844872
 40
101.494949366
 50
132.000000000
 51
138.000000000
  0
ARC
  8
2
 62
1
  6
HIDDEN2
 10
467.652072278
 20
799.121395368
 40
2.500000000
 50
138.000000000
 51
318.000000000
  0
ARC
  8
6
 62
2
  6
CENTER
 10
541.219656648
 20
732.880844872
 40
98.994949366
 50
127.816474978
 51
142.412488023
  0
ARC
  8
2
 62
1
  6
HIDDEN2
 10
541.219656648
 20
732.880844872
 40
92.994949366
 50
132.000000000
 51
138.000000000
  0
LINE
  8
6
 62
2
  6
CENTER
 10
476.607966303
 20
797.492535217
 11
465.821202445
 21
808.279299074
  0
ARC
  8
2
 62
1
  6
HIDDEN2
 10
467.652072278
 20
799.121395368
 40
6.000000000
 50
138.000000000
 51
318.000000000
  0
ARC
  8
2
 62
1
  6
HIDDEN2
 10
541.219656648
 20
732.880844872
 40
104.994949366
 50
132.000000000
 51
138.000000000
  0
ARC
  8
2
 62
1
  6
HIDDEN2
 10
474.979106152
 20
806.448429242
 40
6.000000000
 50
312.000000000
 51
132.000000000
  0
ARC
  8
2
 62
1
  6
HIDDEN2
 10
541.219656648
 20
732.880844872
 40
96.494949366
 50
132.000000000
 51
138.000000000
  0
ARC
  8
2
 62
1
  6
CONTINUOUS
 10
607.460207144
 20
659.313260502
 40
2.500000000
 50
132.000000000
 51
312.000000000
  0
ARC
  8
2
 62
1
  6
CONTINUOUS
 10
607.969656648
 20
732.880844872
 40
5.500000000
 50
180.000000000
 51
0.000000000
  0
ARC
  8
2
 62
1
  6
CONTINUOUS
 10
541.219656648
 20
732.880844872
 40
101.494949366
 50
312.000000000
 51
318.000000000
  0
ARC
  8
2
 62
1
  6
CONTINUOUS
 10
614.787241018
 20
666.640294376
 40
2.500000000
 50
318.000000000
 51
138.000000000
  0
ARC
  8
1
 62
7
  6
CONTINUOUS
 10
769.271599687
 20
775.331171128
 40
100.000000000
 50
154.266850621
 51
170.133475983
  0
LINE
  8
1
 62
7
  6
CONTINUOUS
 10
592.219656648
 20
732.492814284
 11
592.219656648
 21
736.030741103
  0
LINE
  8
1
 62
7
  6
CONTINUOUS
 10
600.219656648
 20
737.945022644
 11
592.219656648
 21
740.492814284
  0
ARC
  8
2
 62
1
  6
CONTINUOUS
 10
299.187823010
 20
732.880844872
 40
104.994949366
 50
312.000000000
 51
318.000000000
  0
ARC
  8
2
 62
1
  6
CONTINUOUS
 10
541.219656648
 20
732.880844872
 40
92.994949366
 50
312.000000000
 51
318.000000000
  0
LINE
  8
6
 62
2
  6
CENTER
 10
605.831346992
 20
668.269154527
 11
616.618110850
 21
657.482390670
  0
ARC
  8
2
 62
1
  6
CONTINUOUS
 10
614.787241018
 20
666.640294376
 40
6.000000000
 50
318.000000000
 51
138.000000000
  0
ARC
  8
2
 62
1
  6
CONTINUOUS
 10
541.219656648
 20
732.880844872
 40
104.994949366
 50
312.000000000
 51
318.000000000
  0
LINE
  8
1
 62
7
  6
CONTINUOUS
 10
600.219656648
 20
729.945022644
 11
592.219656648
 21
732.492814284
  0
ARC
  8
1
 62
7
  6
CONTINUOUS
 10
487.219656648
 20
786.880844872
 40
5.000000000
 50
90.000000000
 51
180.000000000
  0
ARC
  8
2
 62
1
  6
CONTINUOUS
 10
372.755407380
 20
666.640294376
 40
6.000000000
 50
318.000000000
 51
138.000000000
  0
LINE
  8
6
 62
2
  6
CENTER
 10
363.799513355
 20
668.269154527
 11
374.586277213
 21
657.482390670
  0
ARC
  8
2
 62
1
  6
CONTINUOUS
 10
299.187823010
 20
732.880844872
 40
92.994949366
 50
312.000000000
 51
318.000000000
  0
ARC
  8
2
 62
1
  6
CONTINUOUS
 10
372.755407380
 20
666.640294376
 40
2.500000000
 50
318.000000000
 51
138.000000000
  0
ARC
  8
2
 62
1
  6
CONTINUOUS
 10
299.187823010
 20
732.880844872
 40
101.494949366
 50
312.000000000
 51
318.000000000
  0
ARC
  8
2
 62
1
  6
CONTINUOUS
 10
365.937823010
 20
732.880844872
 40
5.500000000
 50
180.000000000
 51
0.000000000
  0
ARC
  8
2
 62
1
  6
CONTINUOUS
 10
365.428373506
 20
659.313260502
 40
2.500000000
 50
132.000000000
 51
312.000000000
  0
ARC
  8
2
 62
1
  6
CONTINUOUS
 10
232.947272515
 20
806.448429242
 40
2.500000000
 50
312.000000000
 51
132.000000000
  0
ARC
  8
2
 62
1
  6
CONTINUOUS
 10
299.187823010
 20
732.880844872
 40
96.494949366
 50
132.000000000
 51
138.000000000
  0
ARC
  8
2
 62
1
  6
CONTINUOUS
 10
232.947272515
 20
806.448429242
 40
6.000000000
 50
312.000000000
 51
132.000000000
  0
ARC
  8
2
 62
1
  6
CONTINUOUS
 10
299.187823010
 20
732.880844872
 40
104.994949366
 50
132.000000000
 51
138.000000000
  0
ARC
  8
2
 62
1
  6
CONTINUOUS
 10
225.620238641
 20
799.121395368
 40
6.000000000
 50
138.000000000
 51
318.000000000
  0
LINE
  8
6
 62
2
  6
CENTER
 10
234.576132666
 20
797.492535217
 11
223.789368808
 21
808.279299074
  0
ARC
  8
2
 62
1
  6
CONTINUOUS
 10
299.187823010
 20
732.880844872
 40
92.994949366
 50
132.000000000
 51
138.000000000
  0
ARC
  8
6
 62
2
  6
CENTER
 10
299.187823010
 20
732.880844872
 40
98.994949366
 50
127.816474978
 51
142.412488023
  0
LINE
  8
6
 62
2
  6
CENTER
 10
666.982793195
 20
732.880844872
 11
743.863817993
 21
732.880844872
  0
ARC
  8
2
 62
1
  6
CONTINUOUS
 10
225.620238641
 20
799.121395368
 40
2.500000000
 50
138.000000000
 51
318.000000000
  0
ARC
  8
2
 62
1
  6
CONTINUOUS
 10
740.243243457
 20
684.380844872
 40
0.500000000
 50
270.000000000
 51
0.000000000
  0
ARC
  8
2
 62
1
  6
CONTINUOUS
 10
740.243243457
 20
781.380844872
 40
0.500000000
 50
0.000000000
 51
90.000000000
  0
ARC
  8
2
 62
1
  6
CONTINUOUS
 10
365.937823010
 20
732.880844872
 40
2.500000000
 50
180.000000000
 51
0.000000000
  0
LINE
  8
6
 62
2
  6
CENTER
 10
308.599050321
 20
666.130844872
 11
290.452922555
 21
666.130844872
  0
CIRCLE
  8
2
 62
1
  6
CONTINUOUS
 10
299.187823010
 20
666.130844872
 40
2.500000000
  0
CIRCLE
  8
2
 62
1
  6
CONTINUOUS
 10
299.187823010
 20
666.130844872
 40
5.500000000
  0
LINE
  8
6
 62
2
  6
CENTER
 10
365.937823010
 20
742.292072183
 11
365.937823010
 21
724.145944416
  0
ARC
  8
2
 62
1
  6
CONTINUOUS
 10
365.937823010
 20
732.880844872
 40
2.500000000
 50
0.000000000
 51
180.000000000
  0
ARC
  8
2
 62
1
  6
CONTINUOUS
 10
365.937823010
 20
732.880844872
 40
5.500000000
 50
0.000000000
 51
180.000000000
  0
LINE
  8
6
 62
2
  6
CENTER
 10
289.776595700
 20
799.630844872
 11
307.922723466
 21
799.630844872
  0
CIRCLE
  8
2
 62
1
  6
CONTINUOUS
 10
299.187823010
 20
799.630844872
 40
2.500000000
  0
ARC
  8
2
 62
1
  6
CONTINUOUS
 10
299.187823010
 20
732.880844872
 40
96.494949366
 50
222.000000000
 51
228.000000000
  0
ARC
  8
2
 62
1
  6
CONTINUOUS
 10
232.437823010
 20
732.880844872
 40
2.500000000
 50
180.000000000
 51
0.000000000
  0
ARC
  8
2
 62
1
  6
CONTINUOUS
 10
299.187823010
 20
732.880844872
 40
96.494949366
 50
42.000000000
 51
48.000000000
  0
ARC
  8
2
 62
1
  6
CONTINUOUS
 10
365.428373506
 20
806.448429242
 40
6.000000000
 50
48.000000000
 51
228.000000000
  0
ARC
  8
2
 62
1
  6
CONTINUOUS
 10
232.947272515
 20
659.313260502
 40
6.000000000
 50
228.000000000
 51
48.000000000
  0
ARC
  8
2
 62
1
  6
CONTINUOUS
 10
299.187823010
 20
732.880844872
 40
104.994949366
 50
42.000000000
 51
48.000000000
  0
LINE
  8
2
 62
1
  6
CONTINUOUS
 10
685.743243457
 20
683.880844872
 11
740.243243457
 21
683.880844872
  0
LINE
  8
2
 62
1
  6
CONTINUOUS
 10
740.743243457
 20
684.380844872
 11
740.743243457
 21
781.380844872
  0
LINE
  8
2
 62
1
  6
CONTINUOUS
 10
740.243243457
 20
781.880844872
 11
685.743243457
 21
781.880844872
  0
ARC
  8
2
 62
1
  6
CONTINUOUS
 10
372.755407380
 20
799.121395368
 40
6.000000000
 50
222.000000000
 51
42.000000000
  0
ARC
  8
6
 62
2
  6
CENTER
 10
299.187823010
 20
732.880844872
 40
98.994949366
 50
37.587511977
 51
52.183525022
  0
CIRCLE
  8
1
 62
1
  6
CONTINUOUS
 10
299.187823010
 20
732.880844872
 40
49.000000000
  0
LINE
  8
1
 62
7
  6
CONTINUOUS
 10
381.187823010
 20
819.880844872
 11
217.187823010
 21
819.880844872
  0
ARC
  8
2
 62
1
  6
CONTINUOUS
 10
372.755407380
 20
799.121395368
 40
2.500000000
 50
222.000000000
 51
42.000000000
  0
LINE
  8
1
 62
7
  6
CONTINUOUS
 10
212.187823010
 20
814.880844872
 11
212.187823010
 21
650.880844872
  0
ARC
  8
2
 62
1
  6
CONTINUOUS
 10
607.460207144
 20
659.313260502
 40
6.000000000
 50
132.000000000
 51
312.000000000
  0
ARC
  8
2
 62
1
  6
CONTINUOUS
 10
474.469656648
 20
732.880844872
 40
5.500000000
 50
180.000000000
 51
0.000000000
  0
ARC
  8
2
 62
1
  6
CONTINUOUS
 10
541.219656648
 20
732.880844872
 40
96.494949366
 50
312.000000000
 51
318.000000000
  0
LINE
  8
1
 62
7
  6
CONTINUOUS
 10
217.187823010
 20
645.880844872
 11
381.187823010
 21
645.880844872
  0
LINE
  8
1
 62
7
  6
CONTINUOUS
 10
386.187823010
 20
650.880844872
 11
386.187823010
 21
814.880844872
  0
ARC
  8
1
 62
7
  6
CONTINUOUS
 10
381.187823010
 20
814.880844872
 40
5.000000000
 50
0.000000000
 51
90.000000000
  0
ARC
  8
1
 62
7
  6
CONTINUOUS
 10
217.187823010
 20
814.880844872
 40
5.000000000
 50
90.000000000
 51
180.000000000
  0
ARC
  8
1
 62
7
  6
CONTINUOUS
 10
217.187823010
 20
650.880844872
 40
5.000000000
 50
180.000000000
 51
270.000000000
  0
ARC
  8
1
 62
7
  6
CONTINUOUS
 10
381.187823010
 20
650.880844872
 40
5.000000000
 50
270.000000000
 51
0.000000000
  0
LINE
  8
6
 62
2
  6
CENTER
 10
299.187823010
 20
821.609827599
 11
299.187823010
 21
643.187715347
  0
ARC
  8
2
 62
1
  6
CONTINUOUS
 10
299.187823010
 20
732.880844872
 40
101.494949366
 50
132.000000000
 51
138.000000000
  0
LINE
  8
6
 62
2
  6
CENTER
 10
232.437823010
 20
723.469617561
 11
232.437823010
 21
741.615745328
  0
ARC
  8
2
 62
1
  6
CONTINUOUS
 10
232.437823010
 20
732.880844872
 40
2.500000000
 50
0.000000000
 51
180.000000000
  0
ARC
  8
2
 62
1
  6
CONTINUOUS
 10
232.947272515
 20
659.313260502
 40
2.500000000
 50
228.000000000
 51
48.000000000
  0
ARC
  8
1
 62
7
  6
CONTINUOUS
 10
671.243243457
 20
792.380844872
 40
0.500000000
 50
170.133475983
 51
180.000000000
  0
ARC
  8
2
 62
1
  6
CONTINUOUS
 10
232.437823010
 20
732.880844872
 40
5.500000000
 50
0.000000000
 51
180.000000000
  0
ARC
  8
2
 62
1
  6
CONTINUOUS
 10
299.187823010
 20
732.880844872
 40
101.494949366
 50
222.000000000
 51
228.000000000
  0
ARC
  8
6
 62
2
  6
CENTER
 10
299.187823010
 20
732.880844872
 40
98.994949366
 50
307.816474978
 51
322.412488023
  0
ARC
  8
2
 62
1
  6
CONTINUOUS
 10
225.620238641
 20
666.640294376
 40
2.500000000
 50
42.000000000
 51
222.000000000
  0
ARC
  8
2
 62
1
  6
CONTINUOUS
 10
365.428373506
 20
806.448429242
 40
2.500000000
 50
48.000000000
 51
228.000000000
  0
ARC
  8
6
 62
2
  6
CENTER
 10
299.187823010
 20
732.880844872
 40
98.994949366
 50
217.587511977
 51
232.183525022
  0
ARC
  8
2
 62
1
  6
CONTINUOUS
 10
299.187823010
 20
732.880844872
 40
92.994949366
 50
222.000000000
 51
228.000000000
  0
CIRCLE
  8
2
 62
1
  6
CONTINUOUS
 10
299.187823010
 20
799.630844872
 40
5.500000000
  0
LINE
  8
6
 62
2
  6
CENTER
 10
234.576132666
 20
668.269154527
 11
223.789368808
 21
657.482390670
  0
LINE
  8
1
 62
7
  6
CONTINUOUS
 10
680.990654607
 20
645.880844872
 11
685.743243457
 21
645.880844872
  0
ARC
  8
2
 62
1
  6
CONTINUOUS
 10
225.620238641
 20
666.640294376
 40
6.000000000
 50
42.000000000
 51
222.000000000
  0
ARC
  8
2
 62
1
  6
CONTINUOUS
 10
299.187823010
 20
732.880844872
 40
104.994949366
 50
222.000000000
 51
228.000000000
  0
ARC
  8
2
 62
1
  6
CONTINUOUS
 10
299.187823010
 20
732.880844872
 40
101.494949366
 50
42.000000000
 51
48.000000000
  0
LINE
  8
6
 62
2
  6
CENTER
 10
208.495575126
 20
732.880844872
 11
389.465054389
 21
732.880844872
  0
LINE
  8
1
 62
7
  6
CONTINUOUS
 10
600.219656648
 20
678.880844872
 11
600.219656648
 21
680.030741103
  0
LINE
  8
1
 62
7
  6
CONTINUOUS
 10
490.219656648
 20
791.880844872
 11
490.219656648
 21
788.492814284
  0
LINE
  8
1
 62
7
  6
CONTINUOUS
 10
482.219656648
 20
761.945022644
 11
490.219656648
 21
764.492814284
  0
LINE
  8
1
 62
7
  6
CONTINUOUS
 10
482.219656648
 20
681.945022644
 11
490.219656648
 21
684.492814284
  0
ARC
  8
2
 62
1
  6
HIDDEN2
 10
614.787241018
 20
799.121395368
 40
6.000000000
 50
222.000000000
 51
42.000000000
  0
ARC
  8
2
 62
1
  6
HIDDEN2
 10
541.219656648
 20
732.880844872
 40
104.994949366
 50
42.000000000
 51
48.000000000
  0
ARC
  8
2
 62
1
  6
CONTINUOUS
 10
474.979106152
 20
659.313260502
 40
6.000000000
 50
228.000000000
 51
48.000000000
  0
ARC
  8
2
 62
1
  6
HIDDEN2
 10
607.460207144
 20
806.448429242
 40
6.000000000
 50
48.000000000
 51
228.000000000
  0
ARC
  8
2
 62
1
  6
HIDDEN2
 10
541.219656648
 20
732.880844872
 40
96.494949366
 50
42.000000000
 51
48.000000000
  0
ARC
  8
2
 62
1
  6
CONTINUOUS
 10
474.469656648
 20
732.880844872
 40
2.500000000
 50
180.000000000
 51
0.000000000
  0
ARC
  8
1
 62
7
  6
CONTINUOUS
 10
595.219656648
 20
678.880844872
 40
5.000000000
 50
270.000000000
 51
0.000000000
  0
LINE
  8
1
 62
7
  6
CONTINUOUS
 10
592.219656648
 20
760.030741103
 11
592.219656648
 21
756.492814284
  0
LINE
  8
1
 62
7
  6
CONTINUOUS
 10
592.219656648
 20
748.492814284
 11
592.219656648
 21
752.030741103
  0
LINE
  8
1
 62
7
  6
CONTINUOUS
 10
600.219656648
 20
753.945022644
 11
592.219656648
 21
756.492814284
  0
LINE
  8
1
 62
7
  6
CONTINUOUS
 10
600.219656648
 20
745.945022644
 11
592.219656648
 21
748.492814284
  0
ARC
  8
2
 62
1
  6
CONTINUOUS
 10
541.219656648
 20
732.880844872
 40
96.494949366
 50
222.000000000
 51
228.000000000
  0
LINE
  8
1
 62
7
  6
CONTINUOUS
 10
592.219656648
 20
776.030741103
 11
592.219656648
 21
772.492814284
  0
CIRCLE
  8
2
 62
1
  6
HIDDEN2
 10
541.219656648
 20
799.630844872
 40
2.500000000
  0
LINE
  8
6
 62
2
  6
CENTER
 10
531.808429337
 20
799.630844872
 11
549.954557104
 21
799.630844872
  0
ARC
  8
1
 62
7
  6
CONTINUOUS
 10
487.219656648
 20
678.880844872
 40
5.000000000
 50
180.000000000
 51
270.000000000
  0
ARC
  8
2
 62
1
  6
HIDDEN2
 10
607.969656648
 20
732.880844872
 40
5.500000000
 50
0.000000000
 51
180.000000000
  0
LINE
  8
1
 62
7
  6
CONTINUOUS
 10
592.219656648
 20
764.492814284
 11
592.219656648
 21
768.030741103
  0
ARC
  8
2
 62
1
  6
HIDDEN2
 10
607.969656648
 20
732.880844872
 40
2.500000000
 50
0.000000000
 51
180.000000000
  0
LINE
  8
6
 62
2
  6
CENTER
 10
607.969656648
 20
742.292072183
 11
607.969656648
 21
724.145944416
  0
CIRCLE
  8
2
 62
1
  6
CONTINUOUS
 10
541.219656648
 20
666.130844872
 40
5.500000000
  0
CIRCLE
  8
2
 62
1
  6
CONTINUOUS
 10
541.219656648
 20
666.130844872
 40
2.500000000
  0
LINE
  8
6
 62
2
  6
CENTER
 10
550.630883958
 20
666.130844872
 11
532.484756192
 21
666.130844872
  0
LINE
  8
1
 62
7
  6
CONTINUOUS
 10
482.219656648
 20
678.880844872
 11
482.219656648
 21
680.030741103
  0
ARC
  8
2
 62
1
  6
CONTINUOUS
 10
607.969656648
 20
732.880844872
 40
2.500000000
 50
180.000000000
 51
0.000000000
  0
LINE
  8
6
 62
2
  6
CENTER
 10
450.527408764
 20
732.880844872
 11
631.496888027
 21
732.880844872
  0
LINE
  8
6
 62
2
  6
CENTER
 10
541.219656648
 20
821.609827599
 11
541.219656648
 21
643.187715347
  0
LINE
  8
1
 62
7
  6
CONTINUOUS
 10
600.219656648
 20
697.945022644
 11
600.219656648
 21
704.030741103
  0
LINE
  8
1
 62
7
  6
CONTINUOUS
 10
600.219656648
 20
705.945022644
 11
600.219656648
 21
712.030741103
  0
LINE
  8
1
 62
7
  6
CONTINUOUS
 10
592.219656648
 20
780.492814284
 11
592.219656648
 21
784.030741103
  0
ARC
  8
1
 62
7
  6
CONTINUOUS
 10
595.219656648
 20
786.880844872
 40
5.000000000
 50
0.000000000
 51
90.000000000
  0
LINE
  8
1
 62
7
  6
CONTINUOUS
 10
482.219656648
 20
689.945022644
 11
490.219656648
 21
692.492814284
  0
LINE
  8
1
 62
7
  6
CONTINUOUS
 10
600.219656648
 20
785.945022644
 11
592.219656648
 21
788.492814284
  0
LINE
  8
1
 62
7
  6
CONTINUOUS
 10
600.219656648
 20
777.945022644
 11
600.219656648
 21
784.030741103
  0
LINE
  8
1
 62
7
  6
CONTINUOUS
 10
482.219656648
 20
777.945022644
 11
490.219656648
 21
780.492814284
  0
LINE
  8
1
 62
7
  6
CONTINUOUS
 10
482.219656648
 20
785.945022644
 11
490.219656648
 21
788.492814284
  0
LINE
  8
1
 62
7
  6
CONTINUOUS
 10
490.219656648
 20
712.030741103
 11
490.219656648
 21
708.492814284
  0
LINE
  8
1
 62
7
  6
CONTINUOUS
 10
600.219656648
 20
769.945022644
 11
600.219656648
 21
776.030741103
  0
ARC
  8
1
 62
7
  6
CONTINUOUS
 10
487.219656648
 20
678.880844872
 40
5.000000000
 50
180.000000000
 51
270.000000000
  0
LINE
  8
1
 62
7
  6
CONTINUOUS
 10
600.219656648
 20
713.945022644
 11
600.219656648
 21
720.030741103
  0
LINE
  8
1
 62
7
  6
CONTINUOUS
 10
600.219656648
 20
785.945022644
 11
600.219656648
 21
786.880844872
  0
LINE
  8
1
 62
7
  6
CONTINUOUS
 10
592.219656648
 20
791.880844872
 11
592.219656648
 21
788.492814284
  0
LINE
  8
1
 62
7
  6
CONTINUOUS
 10
600.219656648
 20
679.816667099
 11
482.219656648
 21
679.816667099
  0
LINE
  8
1
 62
7
  6
CONTINUOUS
 10
482.219656648
 20
679.816667099
 11
482.219656648
 21
678.880844872
  0
LINE
  8
1
 62
7
  6
CONTINUOUS
 10
600.219656648
 20
769.945022644
 11
592.219656648
 21
772.492814284
  0
LINE
  8
1
 62
7
  6
CONTINUOUS
 10
600.219656648
 20
761.945022644
 11
592.219656648
 21
764.492814284
  0
LINE
  8
1
 62
7
  6
CONTINUOUS
 10
600.219656648
 20
679.816667099
 11
600.219656648
 21
678.880844872
  0
LINE
  8
1
 62
7
  6
CONTINUOUS
 10
595.219656648
 20
673.880844872
 11
487.219656648
 21
673.880844872
  0
ARC
  8
1
 62
7
  6
CONTINUOUS
 10
595.219656648
 20
678.880844872
 40
5.000000000
 50
270.000000000
 51
0.000000000
  0
LINE
  8
1
 62
7
  6
CONTINUOUS
 10
600.219656648
 20
761.945022644
 11
600.219656648
 21
768.030741103
  0
LINE
  8
1
 62
7
  6
CONTINUOUS
 10
600.219656648
 20
753.945022644
 11
600.219656648
 21
760.030741103
  0
LINE
  8
1
 62
7
  6
CONTINUOUS
 10
600.219656648
 20
745.945022644
 11
600.219656648
 21
752.030741103
  0
LINE
  8
1
 62
7
  6
CONTINUOUS
 10
600.219656648
 20
737.945022644
 11
600.219656648
 21
744.030741103
  0
LINE
  8
1
 62
7
  6
CONTINUOUS
 10
600.219656648
 20
729.945022644
 11
600.219656648
 21
736.030741103
  0
LINE
  8
1
 62
7
  6
CONTINUOUS
 10
600.219656648
 20
721.945022644
 11
600.219656648
 21
728.030741103
  0
LINE
  8
1
 62
7
  6
CONTINUOUS
 10
600.219656648
 20
689.945022644
 11
600.219656648
 21
696.030741103
  0
LINE
  8
1
 62
7
  6
CONTINUOUS
 10
600.219656648
 20
681.945022644
 11
600.219656648
 21
688.030741103
  0
LINE
  8
1
 62
7
  6
CONTINUOUS
 10
482.219656648
 20
785.945022644
 11
482.219656648
 21
786.880844872
  0
LINE
  8
1
 62
7
  6
CONTINUOUS
 10
482.219656648
 20
777.945022644
 11
482.219656648
 21
784.030741103
  0
LINE
  8
1
 62
7
  6
CONTINUOUS
 10
482.219656648
 20
769.945022644
 11
482.219656648
 21
776.030741103
  0
LINE
  8
1
 62
7
  6
CONTINUOUS
 10
482.219656648
 20
761.945022644
 11
482.219656648
 21
768.030741103
  0
LINE
  8
1
 62
7
  6
CONTINUOUS
 10
482.219656648
 20
753.945022644
 11
482.219656648
 21
760.030741103
  0
LINE
  8
1
 62
7
  6
CONTINUOUS
 10
482.219656648
 20
745.945022644
 11
482.219656648
 21
752.030741103
  0
LINE
  8
1
 62
7
  6
CONTINUOUS
 10
482.219656648
 20
737.945022644
 11
482.219656648
 21
744.030741103
  0
LINE
  8
1
 62
7
  6
CONTINUOUS
 10
482.219656648
 20
729.945022644
 11
482.219656648
 21
736.030741103
  0
LINE
  8
1
 62
7
  6
CONTINUOUS
 10
482.219656648
 20
721.945022644
 11
482.219656648
 21
728.030741103
  0
LINE
  8
1
 62
7
  6
CONTINUOUS
 10
482.219656648
 20
713.945022644
 11
482.219656648
 21
720.030741103
  0
LINE
  8
1
 62
7
  6
CONTINUOUS
 10
482.219656648
 20
705.945022644
 11
482.219656648
 21
712.030741103
  0
LINE
  8
1
 62
7
  6
CONTINUOUS
 10
482.219656648
 20
697.945022644
 11
482.219656648
 21
704.030741103
  0
LINE
  8
1
 62
7
  6
CONTINUOUS
 10
482.219656648
 20
689.945022644
 11
482.219656648
 21
696.030741103
  0
LINE
  8
1
 62
7
  6
CONTINUOUS
 10
482.219656648
 20
681.945022644
 11
482.219656648
 21
688.030741103
  0
LINE
  8
1
 62
7
  6
CONTINUOUS
 10
490.219656648
 20
696.030741103
 11
490.219656648
 21
692.492814284
  0
ARC
  8
2
 62
1
  6
CONTINUOUS
 10
299.187823010
 20
732.880844872
 40
92.994949366
 50
42.000000000
 51
48.000000000
  0
LINE
  8
6
 62
2
  6
CENTER
 10
363.799513355
 20
797.492535217
 11
374.586277213
 21
808.279299074
  0
LINE
  8
1
 62
7
  6
CONTINUOUS
 10
490.219656648
 20
684.492814284
 11
490.219656648
 21
688.030741103
  0
ARC
  8
1
 62
7
  6
CONTINUOUS
 10
623.219656648
 20
650.880844872
 40
5.000000000
 50
270.000000000
 51
0.000000000
  0
ARC
  8
1
 62
7
  6
CONTINUOUS
 10
459.219656648
 20
650.880844872
 40
5.000000000
 50
180.000000000
 51
270.000000000
  0
ARC
  8
1
 62
7
  6
CONTINUOUS
 10
459.219656648
 20
814.880844872
 40
5.000000000
 50
90.000000000
 51
180.000000000
  0
ARC
  8
1
 62
7
  6
CONTINUOUS
 10
623.219656648
 20
814.880844872
 40
5.000000000
 50
0.000000000
 51
90.000000000
  0
LINE
  8
1
 62
7
  6
CONTINUOUS
 10
628.219656648
 20
650.880844872
 11
628.219656648
 21
814.880844872
  0
LINE
  8
1
 62
7
  6
CONTINUOUS
 10
459.219656648
 20
645.880844872
 11
623.219656648
 21
645.880844872
  0
LINE
  8
1
 62
7
  6
CONTINUOUS
 10
454.219656648
 20
814.880844872
 11
454.219656648
 21
650.880844872
  0
LINE
  8
1
 62
7
  6
CONTINUOUS
 10
623.219656648
 20
819.880844872
 11
459.219656648
 21
819.880844872
  0
ENDSEC
  0
EOF
