  0
SECTION
  2
HEADER
  9
$ACADVER
  1
AC1009
  9
$INSBASE
 10
0.000000000
 20
0.000000000
  9
$EXTMIN
 10
352.349839248
 20
-607.072215314
  9
$EXTMAX
 10
4184.053240764
 20
3806.446666229
  9
$LIMMIN
 10
352.349839248
 20
-607.072215314
  9
$LIMMAX
 10
4184.053240764
 20
3806.446666229
  9
$SNAPBASE
 10
0.000000000
 20
0.000000000
  9
$SNAPANG
 50
0.000000000
  9
$SNAPSTYLE
 70
0
  9
$GRIDMODE
 70
0
  9
$GRIDUNIT
 10
0.000000000
 20
0.000000000
  9
$DIMEXO
 40
0.000000000
  9
$DIMDLI
 40
8.000000000
  9
$DIMDLE
 40
0.000000000
  9
$DIMEXE
 40
1.000000000
  9
$DIMTIH
 70
1
  9
$DIMTOH
 70
1
  9
$DIMTAD
 70
2
  9
$DIMZIN
 70
0
  9
$FILLETRAD
 40
1.000000000
  9
$CHAMFERA
 40
1.000000000
  9
$CHAMFERB
 40
1.000000000
  9
$TEXTSTYLE
  7
STANDARD
  9
$TDCREATE
 40
2454047.340648148
  9
$TDUPDATE
 40
2454047.340648148
  9
$ANGBASE
 50
0.000000000
  9
$ANGDIR
 70
0
  0
ENDSEC
  0
SECTION
  2
TABLES
  0
TABLE
  2
LTYPE
 70
7
  0
LTYPE
  2
CENTER
 70
64
  3
___ _ ___ _ __
 72
65
 73
4
 40
13.000000000
 49
8.500000000
 49
-1.500000000
 49
1.500000000
 49
-1.500000000
  0
LTYPE
  2
CONTINUOUS
 70
64
  3
______________
 72
65
 73
0
 40
0.000000000
  0
LTYPE
  2
DASHDOT
 70
64
  3
__ . __ . __ .
 72
65
 73
4
 40
13.000000000
 49
6.500000000
 49
-3.250000000
 49
0.000000000
 49
-3.250000000
  0
LTYPE
  2
DASHDOT2
 70
64
  3
_ . _ . _ . _ 
 72
65
 73
4
 40
10.000000000
 49
5.000000000
 49
-2.500000000
 49
0.000000000
 49
-2.500000000
  0
LTYPE
  2
DIVIDE
 70
64
  3
___ . . ___ . 
 72
65
 73
6
 40
12.999999523
 49
5.199999809
 49
-2.599999905
 49
0.000000000
 49
-2.599999905
 49
0.000000000
 49
-2.599999905
  0
LTYPE
  2
HIDDEN
 70
64
  3
__ __ __ __ __
 72
65
 73
2
 40
3.000000000
 49
2.000000000
 49
-1.000000000
  0
LTYPE
  2
HIDDEN2
 70
64
  3
_ _ _ _ _ _ _ 
 72
65
 73
2
 40
2.000000000
 49
1.399999976
 49
-0.600000024
  0
ENDTAB
  0
TABLE
  2
LAYER
 70
9
  0
LAYER
  2
1
 70
0
 62
7
  6
CONTINUOUS
999
1
  0
LAYER
  2
2
 70
0
 62
7
  6
CONTINUOUS
999
2
  0
LAYER
  2
3
 70
0
 62
3
  6
CONTINUOUS
999
3
  0
LAYER
  2
4
 70
0
 62
7
  6
CONTINUOUS
999
4
  0
LAYER
  2
5
 70
0
 62
4
  6
CONTINUOUS
999
5
  0
LAYER
  2
6
 70
0
 62
5
  6
CONTINUOUS
999
6
  0
LAYER
  2
7
 70
0
 62
6
  6
CONTINUOUS
999
7
  0
LAYER
  2
8
 70
0
 62
1
  6
CONTINUOUS
999
8
  0
LAYER
  2
9
 70
0
 62
1
  6
CONTINUOUS
999
9
  0
LAYER
  2
_CONSTR
 70
0
 62
5
  6
CONTINUOUS
  0
ENDTAB
  0
TABLE
  2
STYLE
 70
1
  0
STYLE
  2
STANDARD
 70
64
 40
0.000000000
 42
3.200000000
 41
0.600000000
 50
0.000000000
 71
0
  3
TXT
  4
BIGFONT
  0
STYLE
  2
VISION_STANDARD
 70
64
 40
0.000000000
 42
3.200000000
 41
0.600000000
 50
0.000000000
 71
0
  3
TXT
  4
BIGFONT
  0
ENDTAB
  0
TABLE
  2
VPORT
 70
2
  0
VPORT
  2
*ACTIVE
 70
0
 10
0.000000000
 20
0.000000000
 11
1.000000000
 21
1.000000000
 12
2268.201540006
 22
1599.687225458
 13
0.000000000
 23
0.000000000
 14
1.000000000
 24
1.000000000
 15
0.000000000
 25
0.000000000
 16
0.000000000
 26
0.000000000
 36
1.000000000
 17
0.000000000
 27
0.000000000
 37
0.000000000
 40
4413.518881542
 41
0.868174240
 42
50.000000000
 43
0.000000000
 44
0.000000000
 50
0.000000000
 51
0.000000000
 71
0
 72
100
 73
1
 74
1
 75
0
 76
0
 77
0
 78
0
  0
ENDTAB
  0
TABLE
  2
VIEW
 70
0
  0
ENDTAB
  0
TABLE
  2
DIMSTYLE
 70
1
  0
DIMSTYLE
  2
STANDARD
 70
0
  3

  4

  5

  6

  7

 40
1.000000000
 41
2.500000000
 42
0.000000000
 43
8.000000000
 44
1.000000000
 45
0.000000000
 46
0.000000000
 47
0.000000000
 48
0.000000000
140
3.200000000
141
2.500000000
142
0.000000000
143
0.039400000
144
1.000000000
145
0.000000000
146
1.000000000
147
0.625000000
 71
0
 72
0
 73
1
 74
1
 75
0
 76
0
 77
2
 78
8
170
0
171
2
172
0
173
0
174
0
175
0
176
0
177
0
178
0
  0
ENDTAB
  0
ENDSEC
  0
SECTION
  2
BLOCKS
  0
ENDSEC
  0
SECTION
  2
ENTITIES
  0
LINE
  8
5
 62
7
  6
CONTINUOUS
 10
1731.519070542
 20
-165.150920103
 11
1731.519070542
 21
-165.750920103
  0
LINE
  8
7
 62
7
  6
CONTINUOUS
 10
1824.719070542
 20
124.738103956
 11
1824.719070542
 21
126.840429185
  0
ARC
  8
7
 62
7
  6
CONTINUOUS
 10
2465.099348050
 20
354.567258169
 40
1.000000000
 50
0.500000000
 51
90.000000000
  0
ARC
  8
7
 62
7
  6
CONTINUOUS
 10
2467.692851217
 20
286.567258169
 40
1.000000000
 50
180.500000000
 51
270.000000000
  0
LINE
  8
7
 62
7
  6
CONTINUOUS
 10
2466.099309973
 20
354.575984704
 11
2466.692889294
 21
286.558531634
  0
LINE
  8
7
 62
7
  6
CONTINUOUS
 10
2463.590564065
 20
355.567258169
 11
2465.099348050
 21
355.567258169
  0
LINE
  8
3
 62
7
  6
CONTINUOUS
 10
1686.719070542
 20
-41.850920103
 11
1686.719070542
 21
-5.650920103
  0
LINE
  8
7
 62
7
  6
CONTINUOUS
 10
2438.201540006
 20
355.567258169
 11
2463.590564065
 21
355.567258169
  0
LINE
  8
7
 62
7
  6
CONTINUOUS
 10
2438.201540006
 20
355.567258169
 11
2209.201540006
 21
355.567258169
  0
LINE
  8
5
 62
7
  6
CONTINUOUS
 10
1737.519070542
 20
-160.150920103
 11
1732.519070542
 21
-160.150920103
  0
LINE
  8
7
 62
7
  6
CONTINUOUS
 10
2070.312420751
 20
355.567258169
 11
2069.710190719
 21
286.558531634
  0
LINE
  8
2
 62
7
  6
CONTINUOUS
 10
1844.219070542
 20
-210.350920103
 11
1746.219070542
 21
-210.350920103
  0
ARC
  8
7
 62
7
  6
CONTINUOUS
 10
2068.710228796
 20
286.567258169
 40
1.000000000
 50
270.000000000
 51
359.500000000
  0
LINE
  8
5
 62
7
  6
CONTINUOUS
 10
1731.519070542
 20
-160.550920103
 11
1731.519070542
 21
-165.150920103
  0
LINE
  8
5
 62
7
  6
CONTINUOUS
 10
1732.119070542
 20
-160.550920103
 11
1732.119070542
 21
-165.150920103
  0
LINE
  8
2
 62
7
  6
CONTINUOUS
 10
1894.719070542
 20
-187.650920103
 11
1894.719070542
 21
-165.150920103
  0
LINE
  8
2
 62
7
  6
CONTINUOUS
 10
1824.719070542
 20
0.349079897
 11
1832.819070542
 21
0.349079897
  0
ARC
  8
7
 62
7
  6
CONTINUOUS
 10
1893.719070542
 20
128.840391108
 40
1.000000000
 50
270.500000000
 51
0.000000000
  0
LINE
  8
7
 62
7
  6
CONTINUOUS
 10
1824.719070542
 20
-168.142269390
 11
1824.719070542
 21
-121.650920103
  0
LINE
  8
5
 62
7
  6
CONTINUOUS
 10
1824.719070542
 20
-165.150920103
 11
1732.119070542
 21
-165.150920103
  0
ARC
  8
2
 62
7
  6
CONTINUOUS
 10
1750.219070542
 20
-102.650920103
 40
37.500000000
 50
180.000000000
 51
270.000000000
  0
ARC
  8
1
 62
7
  6
CONTINUOUS
 10
1909.165354083
 20
135.001157431
 40
22.000000000
 50
29.181264943
 51
85.000000000
  0
ARC
  8
1
 62
7
  6
CONTINUOUS
 10
1909.165354083
 20
-176.302997637
 40
22.000000000
 50
275.000000000
 51
330.818735057
  0
LINE
  8
1
 62
7
  6
CONTINUOUS
 10
1927.719070542
 20
-139.650920103
 11
1927.719070542
 21
-132.650920103
  0
LINE
  8
1
 62
7
  6
CONTINUOUS
 10
1927.719070542
 20
-150.650920103
 11
1927.719070542
 21
-143.650920103
  0
LINE
  8
1
 62
7
  6
CONTINUOUS
 10
1927.719070542
 20
-161.650920103
 11
1927.719070542
 21
-154.650920103
  0
LINE
  8
1
 62
7
  6
CONTINUOUS
 10
1927.719070542
 20
98.349079897
 11
1927.719070542
 21
91.349079897
  0
LINE
  8
1
 62
7
  6
CONTINUOUS
 10
1927.719070542
 20
109.349079897
 11
1927.719070542
 21
102.349079897
  0
LINE
  8
1
 62
7
  6
CONTINUOUS
 10
1927.719070542
 20
120.349079897
 11
1927.719070542
 21
113.349079897
  0
ARC
  8
1
 62
7
  6
CONTINUOUS
 10
1933.719070542
 20
-162.650920103
 40
1.000000000
 50
0.000000000
 51
90.000000000
  0
ARC
  8
1
 62
7
  6
CONTINUOUS
 10
1933.719070542
 20
-118.650920103
 40
1.000000000
 50
0.000000000
 51
90.000000000
  0
LINE
  8
1
 62
7
  6
CONTINUOUS
 10
1933.719070542
 20
-132.650920103
 11
1919.719070542
 21
-132.650920103
  0
LINE
  8
1
 62
7
  6
CONTINUOUS
 10
1933.719070542
 20
-128.650920103
 11
1919.719070542
 21
-128.650920103
  0
LINE
  8
1
 62
7
  6
CONTINUOUS
 10
1934.719070542
 20
-131.650920103
 11
1934.719070542
 21
-129.650920103
  0
ARC
  8
1
 62
7
  6
CONTINUOUS
 10
1933.719070542
 20
-131.650920103
 40
1.000000000
 50
270.000000000
 51
0.000000000
  0
ARC
  8
1
 62
7
  6
CONTINUOUS
 10
1933.719070542
 20
-129.650920103
 40
1.000000000
 50
0.000000000
 51
90.000000000
  0
LINE
  8
1
 62
7
  6
CONTINUOUS
 10
1933.719070542
 20
-143.650920103
 11
1919.719070542
 21
-143.650920103
  0
LINE
  8
1
 62
7
  6
CONTINUOUS
 10
1933.719070542
 20
-139.650920103
 11
1919.719070542
 21
-139.650920103
  0
LINE
  8
1
 62
7
  6
CONTINUOUS
 10
1934.719070542
 20
-142.650920103
 11
1934.719070542
 21
-140.650920103
  0
ARC
  8
1
 62
7
  6
CONTINUOUS
 10
1933.719070542
 20
-142.650920103
 40
1.000000000
 50
270.000000000
 51
0.000000000
  0
LINE
  8
1
 62
7
  6
CONTINUOUS
 10
1933.719070542
 20
-154.650920103
 11
1919.719070542
 21
-154.650920103
  0
LINE
  8
1
 62
7
  6
CONTINUOUS
 10
1894.719070542
 20
-20.650920103
 11
1894.719070542
 21
-199.650920103
  0
LINE
  8
2
 62
7
  6
CONTINUOUS
 10
1894.719070542
 20
-199.650920103
 11
1911.082780423
 21
-198.219280995
  0
LINE
  8
1
 62
7
  6
CONTINUOUS
 10
1919.719070542
 20
-188.300391775
 11
1919.719070542
 21
-20.650920103
  0
ARC
  8
1
 62
7
  6
CONTINUOUS
 10
1909.719070542
 20
-188.300391775
 40
10.000000000
 50
275.000000000
 51
0.000000000
  0
LINE
  8
1
 62
7
  6
CONTINUOUS
 10
1933.719070542
 20
-150.650920103
 11
1919.719070542
 21
-150.650920103
  0
LINE
  8
1
 62
7
  6
CONTINUOUS
 10
1934.719070542
 20
-153.650920103
 11
1934.719070542
 21
-151.650920103
  0
ARC
  8
1
 62
7
  6
CONTINUOUS
 10
1933.719070542
 20
-153.650920103
 40
1.000000000
 50
270.000000000
 51
0.000000000
  0
LINE
  8
1
 62
7
  6
CONTINUOUS
 10
1919.719070542
 20
-161.650920103
 11
1933.719070542
 21
-161.650920103
  0
LINE
  8
2
 62
7
  6
CONTINUOUS
 10
1844.219070542
 20
-190.350920103
 11
1844.219070542
 21
-210.350920103
  0
LINE
  8
2
 62
7
  6
CONTINUOUS
 10
1712.719070542
 20
-165.750920103
 11
1824.719070542
 21
-165.750920103
  0
LINE
  8
6
 62
2
  6
CENTER
 10
1907.727704362
 20
-60.650920103
 11
1704.401662271
 21
-60.650920103
  0
LINE
  8
6
 62
7
  6
CONTINUOUS
 10
1712.819070542
 20
19.349079897
 11
1712.819070542
 21
-60.650920103
  0
LINE
  8
6
 62
7
  6
CONTINUOUS
 10
1824.719070542
 20
19.349079897
 11
1712.819070542
 21
19.349079897
  0
LINE
  8
6
 62
2
  6
DASHDOT
 10
1791.819070542
 20
8.468101143
 11
1791.819070542
 21
-130.024107652
  0
LINE
  8
6
 62
7
  6
CONTINUOUS
 10
1712.819070542
 20
-140.650920103
 11
1712.819070542
 21
-60.650920103
  0
LINE
  8
6
 62
7
  6
CONTINUOUS
 10
1824.719070542
 20
-140.650920103
 11
1712.819070542
 21
-140.650920103
  0
LINE
  8
4
 62
2
  6
DASHDOT2
 10
2193.701540006
 20
497.970387294
 11
2193.701540006
 21
449.998283184
  0
ARC
  8
3
 62
7
  6
CONTINUOUS
 10
1691.719070542
 20
-41.850920103
 40
5.000000000
 50
180.000000000
 51
270.000000000
  0
LINE
  8
2
 62
2
  6
DASHDOT2
 10
2268.201540006
 20
519.650651845
 11
2268.201540006
 21
259.428766515
  0
ARC
  8
2
 62
7
  6
CONTINUOUS
 10
2188.201540006
 20
352.067258169
 40
21.000000000
 50
270.000000000
 51
0.000000000
  0
LINE
  8
2
 62
7
  6
CONTINUOUS
 10
2209.201540006
 20
352.067258169
 11
2209.201540006
 21
355.567258169
  0
LINE
  8
7
 62
7
  6
CONTINUOUS
 10
2097.201540006
 20
355.567258169
 11
2070.312420751
 21
355.567258169
  0
LINE
  8
2
 62
7
  6
CONTINUOUS
 10
1746.219070542
 20
-210.350920103
 11
1746.219070542
 21
-190.350920103
  0
LINE
  8
1
 62
7
  6
CONTINUOUS
 10
2268.201540006
 20
285.567258169
 11
2039.201540006
 21
285.567258169
  0
ARC
  8
1
 62
7
  6
CONTINUOUS
 10
2268.201540006
 20
1842.110342135
 40
1596.543083965
 50
270.000000000
 51
277.884970806
  0
ARC
  8
1
 62
7
  6
CONTINUOUS
 10
2268.201540006
 20
1842.110342135
 40
1596.543083965
 50
262.115029194
 51
270.000000000
  0
ARC
  8
2
 62
7
  6
CONTINUOUS
 10
1750.219070542
 20
-18.650920103
 40
37.500000000
 50
90.000000000
 51
180.000000000
  0
LINE
  8
6
 62
2
  6
DASHDOT
 10
2109.054761952
 20
385.067258169
 11
1994.839429835
 21
385.067258169
  0
LINE
  8
7
 62
7
  6
CONTINUOUS
 10
1824.719070542
 20
124.738103956
 11
1824.719070542
 21
0.349079897
  0
LINE
  8
2
 62
7
  6
CONTINUOUS
 10
1844.219070542
 20
-210.350920103
 11
1844.219070542
 21
-212.350920103
  0
LINE
  8
5
 62
2
  6
CENTER
 10
2153.201540006
 20
273.158624349
 11
2153.201540006
 21
453.568510665
  0
LINE
  8
2
 62
7
  6
CONTINUOUS
 10
1686.719070542
 20
123.849079897
 11
1686.719070542
 21
-20.650920103
  0
LINE
  8
2
 62
7
  6
CONTINUOUS
 10
1747.719070542
 20
-231.350920103
 11
1747.219070542
 21
-225.350920103
  0
ARC
  8
8
 62
7
  6
CONTINUOUS
 10
2256.798128162
 20
448.601232766
 40
13.375374204
 50
69.411906409
 51
92.142337532
  0
LINE
  8
1
 62
7
  6
CONTINUOUS
 10
2050.552068334
 20
260.567258169
 11
2485.851011678
 21
260.567258169
  0
LINE
  8
2
 62
7
  6
CONTINUOUS
 10
1686.719070542
 20
-165.150920103
 11
1686.719070542
 21
-20.650920103
  0
LINE
  8
2
 62
7
  6
CONTINUOUS
 10
2039.201540006
 20
285.567258169
 11
2040.590121354
 21
269.695700742
  0
LINE
  8
3
 62
7
  6
CONTINUOUS
 10
1718.919070542
 20
50.349079897
 11
1716.419070542
 21
50.349079897
  0
LINE
  8
8
 62
7
  6
CONTINUOUS
 10
2256.298128162
 20
461.967258170
 11
2233.201540006
 21
461.967258169
  0
LINE
  8
2
 62
7
  6
CONTINUOUS
 10
1842.719070542
 20
-231.350920103
 11
1747.719070542
 21
-231.350920103
  0
LINE
  8
2
 62
7
  6
CONTINUOUS
 10
1843.219070542
 20
-225.350920103
 11
1842.719070542
 21
-231.350920103
  0
LINE
  8
2
 62
7
  6
CONTINUOUS
 10
1746.219070542
 20
-212.350920103
 11
1746.219070542
 21
-210.350920103
  0
LINE
  8
2
 62
7
  6
CONTINUOUS
 10
1844.219070542
 20
-212.350920103
 11
1746.219070542
 21
-212.350920103
  0
LINE
  8
2
 62
7
  6
CONTINUOUS
 10
1843.219070542
 20
-225.350920103
 11
1747.219070542
 21
-225.350920103
  0
LINE
  8
2
 62
7
  6
CONTINUOUS
 10
1747.219070542
 20
-225.350920103
 11
1747.219070542
 21
-212.350920103
  0
LINE
  8
5
 62
7
  6
CONTINUOUS
 10
1824.719070542
 20
124.449079897
 11
1815.677831012
 21
124.449079897
  0
LINE
  8
2
 62
7
  6
CONTINUOUS
 10
1824.719070542
 20
-121.650920103
 11
1832.819070542
 21
-121.650920103
  0
ARC
  8
2
 62
7
  6
CONTINUOUS
 10
1832.819070542
 20
-105.650920103
 40
16.000000000
 50
270.000000000
 51
0.000000000
  0
LINE
  8
2
 62
7
  6
CONTINUOUS
 10
1848.819070542
 20
-15.650920103
 11
1848.819070542
 21
-105.650920103
  0
LINE
  8
2
 62
7
  6
CONTINUOUS
 10
1742.919070542
 20
-165.150920103
 11
1736.719070542
 21
-165.150920103
  0
LINE
  8
2
 62
7
  6
CONTINUOUS
 10
1843.219070542
 20
-212.350920103
 11
1843.219070542
 21
-225.350920103
  0
LINE
  8
5
 62
7
  6
CONTINUOUS
 10
1824.719070542
 20
123.849079897
 11
1791.719070542
 21
123.849079897
  0
LINE
  8
2
 62
7
  6
CONTINUOUS
 10
1746.219070542
 20
-190.350920103
 11
1741.719070542
 21
-184.350920103
  0
ARC
  8
3
 62
7
  6
CONTINUOUS
 10
1691.719070542
 20
30.549079897
 40
5.000000000
 50
90.000000000
 51
180.000000000
  0
LINE
  8
2
 62
7
  6
CONTINUOUS
 10
1844.219070542
 20
-190.350920103
 11
1746.219070542
 21
-190.350920103
  0
LINE
  8
2
 62
7
  6
CONTINUOUS
 10
1737.819070542
 20
-165.150920103
 11
1737.819070542
 21
-140.650920103
  0
LINE
  8
2
 62
7
  6
CONTINUOUS
 10
1848.719070542
 20
-184.350920103
 11
1844.219070542
 21
-190.350920103
  0
ARC
  8
1
 62
7
  6
CONTINUOUS
 10
2050.552068334
 20
270.567258169
 40
10.000000000
 50
185.000000000
 51
270.000000000
  0
ARC
  8
1
 62
7
  6
CONTINUOUS
 10
2485.851011678
 20
270.567258169
 40
10.000000000
 50
270.000000000
 51
355.000000000
  0
LINE
  8
5
 62
2
  6
CENTER
 10
1907.727704362
 20
-60.650920103
 11
1722.108249223
 21
-60.650920103
  0
LINE
  8
2
 62
7
  6
CONTINUOUS
 10
2233.201540006
 20
443.067258169
 11
2321.501540006
 21
443.067258169
  0
ARC
  8
1
 62
7
  6
CONTINUOUS
 10
1884.719070542
 20
-162.650920103
 40
50.000000000
 50
330.818735057
 51
0.000000000
  0
ARC
  8
1
 62
7
  6
CONTINUOUS
 10
1884.719070542
 20
121.349079897
 40
50.000000000
 50
0.000000000
 51
29.181264943
  0
ARC
  8
3
 62
7
  6
CONTINUOUS
 10
1714.919070542
 20
37.049079897
 40
1.500000000
 50
270.000000000
 51
0.000000000
  0
LINE
  8
2
 62
2
  6
DASHDOT2
 10
2268.201540006
 20
234.177397811
 11
2268.201540006
 21
303.307048842
  0
LINE
  8
2
 62
7
  6
CONTINUOUS
 10
2497.201540006
 20
285.567258169
 11
2495.812958659
 21
269.695700742
  0
LINE
  8
1
 62
7
  6
CONTINUOUS
 10
2268.201540006
 20
285.567258169
 11
2497.201540006
 21
285.567258169
  0
LINE
  8
2
 62
7
  6
CONTINUOUS
 10
1737.819070542
 20
123.849079897
 11
1737.819070542
 21
19.349079897
  0
ARC
  8
2
 62
7
  6
CONTINUOUS
 10
1832.819070542
 20
-15.650920103
 40
16.000000000
 50
0.000000000
 51
90.000000000
  0
ARC
  8
1
 62
7
  6
CONTINUOUS
 10
1933.719070542
 20
121.349079897
 40
1.000000000
 50
270.000000000
 51
0.000000000
  0
LINE
  8
2
 62
7
  6
CONTINUOUS
 10
1848.719070542
 20
-184.350920103
 11
1741.719070542
 21
-184.350920103
  0
LINE
  8
2
 62
7
  6
CONTINUOUS
 10
1848.719070542
 20
-169.142269390
 11
1848.719070542
 21
-184.350920103
  0
ARC
  8
1
 62
7
  6
CONTINUOUS
 10
1933.719070542
 20
77.349079897
 40
1.000000000
 50
270.000000000
 51
0.000000000
  0
LINE
  8
2
 62
7
  6
CONTINUOUS
 10
2153.201540006
 20
331.067258169
 11
2188.201540006
 21
331.067258169
  0
LINE
  8
1
 62
7
  6
CONTINUOUS
 10
1933.719070542
 20
91.349079897
 11
1919.719070542
 21
91.349079897
  0
LINE
  8
1
 62
7
  6
CONTINUOUS
 10
1933.719070542
 20
87.349079897
 11
1919.719070542
 21
87.349079897
  0
LINE
  8
1
 62
7
  6
CONTINUOUS
 10
1934.719070542
 20
90.349079897
 11
1934.719070542
 21
88.349079897
  0
ARC
  8
1
 62
7
  6
CONTINUOUS
 10
1933.719070542
 20
90.349079897
 40
1.000000000
 50
0.000000000
 51
90.000000000
  0
ARC
  8
1
 62
7
  6
CONTINUOUS
 10
1933.719070542
 20
88.349079897
 40
1.000000000
 50
270.000000000
 51
0.000000000
  0
LINE
  8
1
 62
7
  6
CONTINUOUS
 10
1933.719070542
 20
102.349079897
 11
1919.719070542
 21
102.349079897
  0
LINE
  8
1
 62
7
  6
CONTINUOUS
 10
1933.719070542
 20
98.349079897
 11
1919.719070542
 21
98.349079897
  0
LINE
  8
1
 62
7
  6
CONTINUOUS
 10
1934.719070542
 20
101.349079897
 11
1934.719070542
 21
99.349079897
  0
ARC
  8
1
 62
7
  6
CONTINUOUS
 10
1933.719070542
 20
101.349079897
 40
1.000000000
 50
0.000000000
 51
90.000000000
  0
LINE
  8
1
 62
7
  6
CONTINUOUS
 10
1933.719070542
 20
-22.650920103
 11
1919.719070542
 21
-22.650920103
  0
LINE
  8
1
 62
7
  6
CONTINUOUS
 10
1934.719070542
 20
-21.650920103
 11
1934.719070542
 21
-20.650920103
  0
ARC
  8
1
 62
7
  6
CONTINUOUS
 10
1933.719070542
 20
-21.650920103
 40
1.000000000
 50
270.000000000
 51
0.000000000
  0
LINE
  8
1
 62
7
  6
CONTINUOUS
 10
1933.719070542
 20
-33.650920103
 11
1919.719070542
 21
-33.650920103
  0
LINE
  8
1
 62
7
  6
CONTINUOUS
 10
1933.719070542
 20
113.349079897
 11
1919.719070542
 21
113.349079897
  0
LINE
  8
1
 62
7
  6
CONTINUOUS
 10
1894.719070542
 20
-20.650920103
 11
1894.719070542
 21
158.349079897
  0
LINE
  8
2
 62
7
  6
CONTINUOUS
 10
1894.719070542
 20
158.349079897
 11
1911.082780423
 21
156.917440789
  0
LINE
  8
1
 62
7
  6
CONTINUOUS
 10
1919.719070542
 20
146.998551569
 11
1919.719070542
 21
-20.650920103
  0
ARC
  8
1
 62
7
  6
CONTINUOUS
 10
1909.719070542
 20
146.998551569
 40
10.000000000
 50
0.000000000
 51
85.000000000
  0
LINE
  8
1
 62
7
  6
CONTINUOUS
 10
1933.719070542
 20
-29.650920103
 11
1919.719070542
 21
-29.650920103
  0
LINE
  8
1
 62
7
  6
CONTINUOUS
 10
1934.719070542
 20
-32.650920103
 11
1934.719070542
 21
-30.650920103
  0
LINE
  8
1
 62
7
  6
CONTINUOUS
 10
1933.719070542
 20
109.349079897
 11
1919.719070542
 21
109.349079897
  0
LINE
  8
1
 62
7
  6
CONTINUOUS
 10
1934.719070542
 20
112.349079897
 11
1934.719070542
 21
110.349079897
  0
ARC
  8
1
 62
7
  6
CONTINUOUS
 10
1933.719070542
 20
-32.650920103
 40
1.000000000
 50
270.000000000
 51
0.000000000
  0
ARC
  8
1
 62
7
  6
CONTINUOUS
 10
1933.719070542
 20
112.349079897
 40
1.000000000
 50
0.000000000
 51
90.000000000
  0
ARC
  8
1
 62
7
  6
CONTINUOUS
 10
1933.719070542
 20
-30.650920103
 40
1.000000000
 50
0.000000000
 51
90.000000000
  0
LINE
  8
1
 62
7
  6
CONTINUOUS
 10
1919.719070542
 20
120.349079897
 11
1933.719070542
 21
120.349079897
  0
LINE
  8
1
 62
7
  6
CONTINUOUS
 10
1933.719070542
 20
-44.650920103
 11
1919.719070542
 21
-44.650920103
  0
ARC
  8
1
 62
7
  6
CONTINUOUS
 10
1933.719070542
 20
110.349079897
 40
1.000000000
 50
270.000000000
 51
0.000000000
  0
LINE
  8
1
 62
7
  6
CONTINUOUS
 10
1933.719070542
 20
-40.650920103
 11
1919.719070542
 21
-40.650920103
  0
ARC
  8
1
 62
7
  6
CONTINUOUS
 10
1933.719070542
 20
99.349079897
 40
1.000000000
 50
270.000000000
 51
0.000000000
  0
ARC
  8
1
 62
7
  6
CONTINUOUS
 10
1933.719070542
 20
79.349079897
 40
1.000000000
 50
0.000000000
 51
90.000000000
  0
LINE
  8
1
 62
7
  6
CONTINUOUS
 10
1934.719070542
 20
79.349079897
 11
1934.719070542
 21
77.349079897
  0
LINE
  8
1
 62
7
  6
CONTINUOUS
 10
1933.719070542
 20
76.349079897
 11
1919.719070542
 21
76.349079897
  0
LINE
  8
1
 62
7
  6
CONTINUOUS
 10
1933.719070542
 20
80.349079897
 11
1919.719070542
 21
80.349079897
  0
ARC
  8
1
 62
7
  6
CONTINUOUS
 10
1933.719070542
 20
66.349079897
 40
1.000000000
 50
270.000000000
 51
0.000000000
  0
ARC
  8
1
 62
7
  6
CONTINUOUS
 10
1933.719070542
 20
68.349079897
 40
1.000000000
 50
0.000000000
 51
90.000000000
  0
LINE
  8
1
 62
7
  6
CONTINUOUS
 10
1934.719070542
 20
68.349079897
 11
1934.719070542
 21
66.349079897
  0
LINE
  8
1
 62
7
  6
CONTINUOUS
 10
1933.719070542
 20
65.349079897
 11
1919.719070542
 21
65.349079897
  0
LINE
  8
1
 62
7
  6
CONTINUOUS
 10
1933.719070542
 20
69.349079897
 11
1919.719070542
 21
69.349079897
  0
ARC
  8
1
 62
7
  6
CONTINUOUS
 10
1933.719070542
 20
55.349079897
 40
1.000000000
 50
270.000000000
 51
0.000000000
  0
ARC
  8
1
 62
7
  6
CONTINUOUS
 10
1933.719070542
 20
57.349079897
 40
1.000000000
 50
0.000000000
 51
90.000000000
  0
LINE
  8
1
 62
7
  6
CONTINUOUS
 10
1934.719070542
 20
57.349079897
 11
1934.719070542
 21
55.349079897
  0
LINE
  8
1
 62
7
  6
CONTINUOUS
 10
1933.719070542
 20
54.349079897
 11
1919.719070542
 21
54.349079897
  0
LINE
  8
1
 62
7
  6
CONTINUOUS
 10
1933.719070542
 20
58.349079897
 11
1919.719070542
 21
58.349079897
  0
ARC
  8
1
 62
7
  6
CONTINUOUS
 10
1933.719070542
 20
44.349079897
 40
1.000000000
 50
270.000000000
 51
0.000000000
  0
ARC
  8
1
 62
7
  6
CONTINUOUS
 10
1933.719070542
 20
46.349079897
 40
1.000000000
 50
0.000000000
 51
90.000000000
  0
LINE
  8
1
 62
7
  6
CONTINUOUS
 10
1934.719070542
 20
46.349079897
 11
1934.719070542
 21
44.349079897
  0
LINE
  8
1
 62
7
  6
CONTINUOUS
 10
1933.719070542
 20
43.349079897
 11
1919.719070542
 21
43.349079897
  0
LINE
  8
1
 62
7
  6
CONTINUOUS
 10
1933.719070542
 20
47.349079897
 11
1919.719070542
 21
47.349079897
  0
ARC
  8
1
 62
7
  6
CONTINUOUS
 10
1933.719070542
 20
33.349079897
 40
1.000000000
 50
270.000000000
 51
0.000000000
  0
ARC
  8
1
 62
7
  6
CONTINUOUS
 10
1933.719070542
 20
35.349079897
 40
1.000000000
 50
0.000000000
 51
90.000000000
  0
LINE
  8
1
 62
7
  6
CONTINUOUS
 10
1934.719070542
 20
35.349079897
 11
1934.719070542
 21
33.349079897
  0
LINE
  8
1
 62
7
  6
CONTINUOUS
 10
1933.719070542
 20
32.349079897
 11
1919.719070542
 21
32.349079897
  0
LINE
  8
1
 62
7
  6
CONTINUOUS
 10
1933.719070542
 20
36.349079897
 11
1919.719070542
 21
36.349079897
  0
LINE
  8
3
 62
7
  6
CONTINUOUS
 10
1718.919070542
 20
50.349079897
 11
1718.919070542
 21
19.349079897
  0
LINE
  8
3
 62
7
  6
CONTINUOUS
 10
1716.419070542
 20
37.049079897
 11
1716.419070542
 21
19.349079897
  0
ARC
  8
1
 62
7
  6
CONTINUOUS
 10
1933.719070542
 20
22.349079897
 40
1.000000000
 50
270.000000000
 51
0.000000000
  0
LINE
  8
2
 62
7
  6
CONTINUOUS
 10
2097.201540006
 20
355.567258169
 11
2097.201540006
 21
352.067258169
  0
ARC
  8
2
 62
7
  6
CONTINUOUS
 10
2118.201540006
 20
352.067258169
 40
21.000000000
 50
180.000000000
 51
270.000000000
  0
LINE
  8
2
 62
7
  6
CONTINUOUS
 10
2118.201540006
 20
331.067258169
 11
2153.201540006
 21
331.067258169
  0
LINE
  8
3
 62
7
  6
CONTINUOUS
 10
1686.719070542
 20
30.549079897
 11
1686.719070542
 21
-5.650920103
  0
LINE
  8
3
 62
7
  6
CONTINUOUS
 10
1714.919070542
 20
35.549079897
 11
1691.719070542
 21
35.549079897
  0
LINE
  8
5
 62
7
  6
CONTINUOUS
 10
1824.719070542
 20
-165.750920103
 11
1731.519070542
 21
-165.750920103
  0
LINE
  8
3
 62
7
  6
CONTINUOUS
 10
1716.419070542
 20
50.349079897
 11
1716.419070542
 21
37.049079897
  0
LINE
  8
2
 62
7
  6
CONTINUOUS
 10
2462.701540006
 20
493.567258169
 11
2462.701540006
 21
355.567258169
  0
LINE
  8
2
 62
7
  6
CONTINUOUS
 10
2321.501540006
 20
493.567258169
 11
2462.701540006
 21
493.567258169
  0
LINE
  8
2
 62
7
  6
CONTINUOUS
 10
2321.501540006
 20
443.067258169
 11
2321.501540006
 21
493.567258169
  0
LINE
  8
5
 62
7
  6
CONTINUOUS
 10
1737.519070542
 20
-159.550920103
 11
1732.519070542
 21
-159.550920103
  0
ARC
  8
1
 62
7
  6
CONTINUOUS
 10
1933.719070542
 20
24.349079897
 40
1.000000000
 50
0.000000000
 51
90.000000000
  0
LINE
  8
1
 62
7
  6
CONTINUOUS
 10
1934.719070542
 20
24.349079897
 11
1934.719070542
 21
22.349079897
  0
LINE
  8
1
 62
7
  6
CONTINUOUS
 10
1933.719070542
 20
21.349079897
 11
1919.719070542
 21
21.349079897
  0
LINE
  8
1
 62
7
  6
CONTINUOUS
 10
1933.719070542
 20
25.349079897
 11
1919.719070542
 21
25.349079897
  0
ARC
  8
1
 62
7
  6
CONTINUOUS
 10
1933.719070542
 20
11.349079897
 40
1.000000000
 50
270.000000000
 51
0.000000000
  0
ARC
  8
1
 62
7
  6
CONTINUOUS
 10
1933.719070542
 20
13.349079897
 40
1.000000000
 50
0.000000000
 51
90.000000000
  0
LINE
  8
1
 62
7
  6
CONTINUOUS
 10
1934.719070542
 20
13.349079897
 11
1934.719070542
 21
11.349079897
  0
LINE
  8
1
 62
7
  6
CONTINUOUS
 10
1933.719070542
 20
10.349079897
 11
1919.719070542
 21
10.349079897
  0
ARC
  8
2
 62
7
  6
CONTINUOUS
 10
1762.231452148
 20
-31.650920103
 40
1.500000000
 50
90.000000000
 51
180.000000000
  0
LINE
  8
1
 62
7
  6
CONTINUOUS
 10
1933.719070542
 20
14.349079897
 11
1919.719070542
 21
14.349079897
  0
ARC
  8
1
 62
7
  6
CONTINUOUS
 10
1933.719070542
 20
0.349079897
 40
1.000000000
 50
270.000000000
 51
360.000000000
  0
ARC
  8
1
 62
7
  6
CONTINUOUS
 10
1933.719070542
 20
2.349079897
 40
1.000000000
 50
0.000000000
 51
90.000000000
  0
LINE
  8
1
 62
7
  6
CONTINUOUS
 10
1934.719070542
 20
2.349079897
 11
1934.719070542
 21
0.349079897
  0
LINE
  8
2
 62
7
  6
CONTINUOUS
 10
1775.219070542
 20
-35.616583553
 11
1806.537048928
 21
-27.531388626
  0
LINE
  8
1
 62
7
  6
CONTINUOUS
 10
1933.719070542
 20
-0.650920103
 11
1919.719070542
 21
-0.650920103
  0
LINE
  8
1
 62
7
  6
CONTINUOUS
 10
1933.719070542
 20
3.349079897
 11
1919.719070542
 21
3.349079897
  0
ARC
  8
1
 62
7
  6
CONTINUOUS
 10
1933.719070542
 20
-10.650920103
 40
1.000000000
 50
270.000000000
 51
0.000000000
  0
ARC
  8
1
 62
7
  6
CONTINUOUS
 10
1933.719070542
 20
-8.650920103
 40
1.000000000
 50
0.000000000
 51
90.000000000
  0
LINE
  8
1
 62
7
  6
CONTINUOUS
 10
1934.719070542
 20
-8.650920103
 11
1934.719070542
 21
-10.650920103
  0
LINE
  8
1
 62
7
  6
CONTINUOUS
 10
1933.719070542
 20
-11.650920103
 11
1919.719070542
 21
-11.650920103
  0
LINE
  8
1
 62
7
  6
CONTINUOUS
 10
1933.719070542
 20
-7.650920103
 11
1919.719070542
 21
-7.650920103
  0
ARC
  8
1
 62
7
  6
CONTINUOUS
 10
1933.719070542
 20
-19.650920103
 40
1.000000000
 50
0.000000000
 51
90.000000000
  0
LINE
  8
1
 62
7
  6
CONTINUOUS
 10
1934.719070542
 20
-19.650920103
 11
1934.719070542
 21
-20.650920103
  0
LINE
  8
1
 62
7
  6
CONTINUOUS
 10
1933.719070542
 20
-18.650920103
 11
1919.719070542
 21
-18.650920103
  0
LINE
  8
1
 62
7
  6
CONTINUOUS
 10
1934.719070542
 20
-43.650920103
 11
1934.719070542
 21
-41.650920103
  0
ARC
  8
1
 62
7
  6
CONTINUOUS
 10
1933.719070542
 20
-43.650920103
 40
1.000000000
 50
270.000000000
 51
0.000000000
  0
ARC
  8
1
 62
7
  6
CONTINUOUS
 10
1933.719070542
 20
-41.650920103
 40
1.000000000
 50
0.000000000
 51
90.000000000
  0
LINE
  8
1
 62
7
  6
CONTINUOUS
 10
1933.719070542
 20
-55.650920103
 11
1919.719070542
 21
-55.650920103
  0
LINE
  8
1
 62
7
  6
CONTINUOUS
 10
1933.719070542
 20
-51.650920103
 11
1919.719070542
 21
-51.650920103
  0
LINE
  8
1
 62
7
  6
CONTINUOUS
 10
1934.719070542
 20
-54.650920103
 11
1934.719070542
 21
-52.650920103
  0
ARC
  8
1
 62
7
  6
CONTINUOUS
 10
1933.719070542
 20
-54.650920103
 40
1.000000000
 50
270.000000000
 51
0.000000000
  0
ARC
  8
1
 62
7
  6
CONTINUOUS
 10
1933.719070542
 20
-52.650920103
 40
1.000000000
 50
0.000000000
 51
90.000000000
  0
LINE
  8
1
 62
7
  6
CONTINUOUS
 10
1933.719070542
 20
-66.650920103
 11
1919.719070542
 21
-66.650920103
  0
LINE
  8
1
 62
7
  6
CONTINUOUS
 10
1933.719070542
 20
-62.650920103
 11
1919.719070542
 21
-62.650920103
  0
LINE
  8
1
 62
7
  6
CONTINUOUS
 10
1934.719070542
 20
-65.650920103
 11
1934.719070542
 21
-63.650920103
  0
ARC
  8
1
 62
7
  6
CONTINUOUS
 10
1933.719070542
 20
-65.650920103
 40
1.000000000
 50
270.000000000
 51
0.000000000
  0
ARC
  8
1
 62
7
  6
CONTINUOUS
 10
1933.719070542
 20
-63.650920103
 40
1.000000000
 50
0.000000000
 51
90.000000000
  0
LINE
  8
1
 62
7
  6
CONTINUOUS
 10
1933.719070542
 20
-77.650920103
 11
1919.719070542
 21
-77.650920103
  0
LINE
  8
1
 62
7
  6
CONTINUOUS
 10
1933.719070542
 20
-73.650920103
 11
1919.719070542
 21
-73.650920103
  0
LINE
  8
1
 62
7
  6
CONTINUOUS
 10
1934.719070542
 20
-76.650920103
 11
1934.719070542
 21
-74.650920103
  0
ARC
  8
1
 62
7
  6
CONTINUOUS
 10
1933.719070542
 20
-76.650920103
 40
1.000000000
 50
270.000000000
 51
0.000000000
  0
ARC
  8
1
 62
7
  6
CONTINUOUS
 10
1933.719070542
 20
-74.650920103
 40
1.000000000
 50
0.000000000
 51
90.000000000
  0
LINE
  8
1
 62
7
  6
CONTINUOUS
 10
1933.719070542
 20
-88.650920103
 11
1919.719070542
 21
-88.650920103
  0
LINE
  8
1
 62
7
  6
CONTINUOUS
 10
1933.719070542
 20
-84.650920103
 11
1919.719070542
 21
-84.650920103
  0
LINE
  8
1
 62
7
  6
CONTINUOUS
 10
1934.719070542
 20
-87.650920103
 11
1934.719070542
 21
-85.650920103
  0
ARC
  8
1
 62
7
  6
CONTINUOUS
 10
1933.719070542
 20
-87.650920103
 40
1.000000000
 50
270.000000000
 51
0.000000000
  0
ARC
  8
1
 62
7
  6
CONTINUOUS
 10
1933.719070542
 20
-85.650920103
 40
1.000000000
 50
0.000000000
 51
90.000000000
  0
LINE
  8
1
 62
7
  6
CONTINUOUS
 10
1933.719070542
 20
-99.650920103
 11
1919.719070542
 21
-99.650920103
  0
LINE
  8
1
 62
7
  6
CONTINUOUS
 10
1933.719070542
 20
-95.650920103
 11
1919.719070542
 21
-95.650920103
  0
LINE
  8
1
 62
7
  6
CONTINUOUS
 10
1934.719070542
 20
-98.650920103
 11
1934.719070542
 21
-96.650920103
  0
ARC
  8
1
 62
7
  6
CONTINUOUS
 10
1933.719070542
 20
-98.650920103
 40
1.000000000
 50
270.000000000
 51
0.000000000
  0
ARC
  8
1
 62
7
  6
CONTINUOUS
 10
1933.719070542
 20
-96.650920103
 40
1.000000000
 50
0.000000000
 51
90.000000000
  0
LINE
  8
1
 62
7
  6
CONTINUOUS
 10
1933.719070542
 20
-110.650920103
 11
1919.719070542
 21
-110.650920103
  0
LINE
  8
1
 62
7
  6
CONTINUOUS
 10
1933.719070542
 20
-106.650920103
 11
1919.719070542
 21
-106.650920103
  0
LINE
  8
1
 62
7
  6
CONTINUOUS
 10
1934.719070542
 20
-109.650920103
 11
1934.719070542
 21
-107.650920103
  0
ARC
  8
1
 62
7
  6
CONTINUOUS
 10
1933.719070542
 20
-109.650920103
 40
1.000000000
 50
270.000000000
 51
0.000000000
  0
ARC
  8
1
 62
7
  6
CONTINUOUS
 10
1933.719070542
 20
-107.650920103
 40
1.000000000
 50
0.000000000
 51
90.000000000
  0
LINE
  8
1
 62
7
  6
CONTINUOUS
 10
1933.719070542
 20
-121.650920103
 11
1919.719070542
 21
-121.650920103
  0
LINE
  8
1
 62
7
  6
CONTINUOUS
 10
1933.719070542
 20
-117.650920103
 11
1919.719070542
 21
-117.650920103
  0
LINE
  8
1
 62
7
  6
CONTINUOUS
 10
1934.719070542
 20
-120.650920103
 11
1934.719070542
 21
-118.650920103
  0
ARC
  8
1
 62
7
  6
CONTINUOUS
 10
1933.719070542
 20
-120.650920103
 40
1.000000000
 50
270.000000000
 51
0.000000000
  0
ARC
  8
1
 62
7
  6
CONTINUOUS
 10
1933.719070542
 20
-140.650920103
 40
1.000000000
 50
0.000000000
 51
90.000000000
  0
LINE
  8
2
 62
2
  6
DASHDOT2
 10
1657.944888037
 20
-20.650920103
 11
1947.042905066
 21
-20.650920103
  0
ARC
  8
1
 62
7
  6
CONTINUOUS
 10
1933.719070542
 20
-151.650920103
 40
1.000000000
 50
0.000000000
 51
90.000000000
  0
ARC
  8
7
 62
7
  6
CONTINUOUS
 10
1825.719070542
 20
126.840429185
 40
1.000000000
 50
90.000000000
 51
180.000000000
  0
LINE
  8
7
 62
7
  6
CONTINUOUS
 10
1893.727797077
 20
127.840429185
 11
1825.719070542
 21
127.840429185
  0
LINE
  8
5
 62
7
  6
CONTINUOUS
 10
1737.519070542
 20
-159.550920103
 11
1737.519070542
 21
-160.150920103
  0
ARC
  8
5
 62
7
  6
CONTINUOUS
 10
1732.519070542
 20
-160.550920103
 40
1.000000000
 50
90.000000000
 51
180.000000000
  0
ARC
  8
5
 62
7
  6
CONTINUOUS
 10
1732.519070542
 20
-160.550920103
 40
0.400000000
 50
90.000000000
 51
180.000000000
  0
LINE
  8
2
 62
7
  6
CONTINUOUS
 10
1712.719070542
 20
-165.750920103
 11
1712.719070542
 21
-165.150920103
  0
LINE
  8
2
 62
7
  6
CONTINUOUS
 10
1741.719070542
 20
-184.350920103
 11
1741.719070542
 21
-166.350920103
  0
ARC
  8
7
 62
7
  6
CONTINUOUS
 10
1893.719070542
 20
-170.142231313
 40
1.000000000
 50
0.000000000
 51
89.500000000
  0
LINE
  8
2
 62
7
  6
CONTINUOUS
 10
1894.119070542
 20
-187.650920103
 11
1894.719070542
 21
-187.650920103
  0
LINE
  8
2
 62
7
  6
CONTINUOUS
 10
1731.519070542
 20
-165.150920103
 11
1686.719070542
 21
-165.150920103
  0
LINE
  8
7
 62
7
  6
CONTINUOUS
 10
1893.727797077
 20
-169.142269390
 11
1825.719070542
 21
-169.142269390
  0
LINE
  8
3
 62
7
  6
CONTINUOUS
 10
2249.701540006
 20
461.967258169
 11
2249.701540006
 21
464.467258169
  0
LINE
  8
3
 62
7
  6
CONTINUOUS
 10
2249.701540006
 20
464.467258169
 11
2236.401540006
 21
464.467258169
  0
LINE
  8
3
 62
7
  6
CONTINUOUS
 10
2234.901540006
 20
465.967258169
 11
2234.901540006
 21
488.567258169
  0
LINE
  8
3
 62
7
  6
CONTINUOUS
 10
2229.901540006
 20
493.567258169
 11
2193.701540006
 21
493.567258169
  0
LINE
  8
3
 62
7
  6
CONTINUOUS
 10
2236.401540006
 20
464.467258169
 11
2233.201540006
 21
464.467258169
  0
LINE
  8
3
 62
7
  6
CONTINUOUS
 10
2249.701540006
 20
461.967258169
 11
2233.201540006
 21
461.967258169
  0
ARC
  8
3
 62
7
  6
CONTINUOUS
 10
2236.401540006
 20
465.967258169
 40
1.500000000
 50
180.000000000
 51
270.000000000
  0
ARC
  8
3
 62
7
  6
CONTINUOUS
 10
2229.901540006
 20
488.567258169
 40
5.000000000
 50
0.000000000
 51
90.000000000
  0
ARC
  8
2
 62
7
  6
CONTINUOUS
 10
1767.069070542
 20
-28.425542453
 40
1.000000000
 50
104.475672986
 51
180.000000000
  0
ARC
  8
3
 62
7
  6
CONTINUOUS
 10
2157.501540006
 20
488.567258169
 40
5.000000000
 50
90.000000000
 51
180.000000000
  0
LINE
  8
3
 62
7
  6
CONTINUOUS
 10
2157.501540006
 20
493.567258169
 11
2193.701540006
 21
493.567258169
  0
LINE
  8
3
 62
7
  6
CONTINUOUS
 10
2152.501540006
 20
468.067258169
 11
2152.501540006
 21
488.567258169
  0
LINE
  8
3
 62
7
  6
CONTINUOUS
 10
1712.819070542
 20
-46.850920103
 11
1691.719070542
 21
-46.850920103
  0
LINE
  8
2
 62
7
  6
CONTINUOUS
 10
2261.501540006
 20
443.067258169
 11
2261.501540006
 21
493.567258169
  0
LINE
  8
2
 62
7
  6
CONTINUOUS
 10
2261.501540006
 20
493.567258169
 11
2321.501540006
 21
493.567258169
  0
LINE
  8
8
 62
7
  6
CONTINUOUS
 10
1718.919070542
 20
62.945668053
 11
1718.919070542
 21
19.349079897
  0
ARC
  8
8
 62
7
  6
CONTINUOUS
 10
1732.285095945
 20
63.445668053
 40
13.375374204
 50
122.142337532
 51
182.142337532
  0
LINE
  8
8
 62
7
  6
CONTINUOUS
 10
1737.819070542
 20
82.074466505
 11
1725.169070541
 21
74.770985600
  0
CIRCLE
  8
2
 62
7
  6
CONTINUOUS
 10
1795.219070542
 20
-60.650920103
 40
47.500000000
  0
ARC
  8
2
 62
7
  6
CONTINUOUS
 10
1795.219070542
 20
-60.650920103
 40
63.500000000
 50
32.424952812
 51
327.575047188
  0
ARC
  8
2
 62
7
  6
CONTINUOUS
 10
1795.219070542
 20
-60.650920103
 40
40.500000000
 50
286.459177744
 51
360.000000000
  0
LINE
  8
2
 62
7
  6
CONTINUOUS
 10
1769.719070542
 20
-89.945679580
 11
1806.694021812
 21
-99.491304928
  0
LINE
  8
2
 62
7
  6
CONTINUOUS
 10
1769.719070542
 20
-60.650920103
 11
1769.719070542
 21
-89.945679580
  0
LINE
  8
2
 62
7
  6
CONTINUOUS
 10
1775.219070542
 20
-60.650920103
 11
1775.219070542
 21
-85.685256656
  0
LINE
  8
2
 62
7
  6
CONTINUOUS
 10
2072.601540006
 20
467.567258169
 11
2073.201540006
 21
467.567258169
  0
LINE
  8
2
 62
7
  6
CONTINUOUS
 10
2050.701540006
 20
285.567258169
 11
2073.201540006
 21
285.567258169
  0
LINE
  8
2
 62
7
  6
CONTINUOUS
 10
1766.069070542
 20
-28.425542453
 11
1766.069070542
 21
-34.450920103
  0
LINE
  8
2
 62
7
  6
CONTINUOUS
 10
2072.001540006
 20
448.567258169
 11
2072.601540006
 21
448.567258169
  0
LINE
  8
1
 62
2
  6
DASHDOT2
 10
1760.072073339
 20
139.348828957
 11
1769.792229288
 21
139.348828957
  0
ARC
  8
1
 62
7
  6
CONTINUOUS
 10
1766.419070542
 20
126.849079919
 40
1.800000000
 50
180.000000000
 51
270.000000000
  0
ARC
  8
1
 62
7
  6
CONTINUOUS
 10
1766.419070542
 20
168.848828957
 40
1.800000000
 50
90.000000000
 51
180.000000000
  0
LINE
  8
1
 62
7
  6
CONTINUOUS
 10
1764.619070542
 20
126.849079919
 11
1764.619070542
 21
168.848828957
  0
ARC
  8
1
 62
7
  6
CONTINUOUS
 10
1766.419070542
 20
126.848828957
 40
3.000000000
 50
180.000000000
 51
270.000110608
  0
LINE
  8
7
 62
7
  6
CONTINUOUS
 10
1766.419070542
 20
125.048827413
 11
1815.677829854
 21
125.048926560
  0
ARC
  8
2
 62
7
  6
CONTINUOUS
 10
1795.219070542
 20
-60.650920103
 40
45.000000000
 50
0.000000000
 51
74.826133844
  0
ARC
  8
2
 62
7
  6
CONTINUOUS
 10
1795.219070542
 20
-60.650920103
 40
45.000000000
 50
285.173866156
 51
360.000000000
  0
LINE
  8
2
 62
7
  6
CONTINUOUS
 10
2054.001540006
 20
438.567258169
 11
2072.001540006
 21
438.567258169
  0
LINE
  8
1
 62
7
  6
CONTINUOUS
 10
1764.619070542
 20
129.345879441
 11
1768.915870064
 21
125.049079919
  0
LINE
  8
1
 62
7
  6
CONTINUOUS
 10
1763.419070542
 20
133.057589707
 11
1764.619070542
 21
133.057589707
  0
LINE
  8
1
 62
7
  6
CONTINUOUS
 10
1771.419070542
 20
171.848828957
 11
1766.419070542
 21
171.848828957
  0
LINE
  8
1
 62
7
  6
CONTINUOUS
 10
1771.419070542
 20
170.648828957
 11
1771.419070542
 21
171.848828957
  0
LINE
  8
2
 62
7
  6
CONTINUOUS
 10
2028.001540006
 20
336.067258169
 11
2028.001540006
 21
434.067258169
  0
LINE
  8
1
 62
7
  6
CONTINUOUS
 10
1763.419070542
 20
168.848828957
 11
1763.419070542
 21
126.848828957
  0
LINE
  8
1
 62
7
  6
CONTINUOUS
 10
1686.719070542
 20
123.848676053
 11
1824.719042928
 21
123.848940806
  0
ARC
  8
1
 62
7
  6
CONTINUOUS
 10
1766.419070542
 20
168.848828957
 40
3.000000000
 50
90.000000000
 51
180.000000000
  0
LINE
  8
1
 62
7
  6
CONTINUOUS
 10
1766.419070542
 20
170.648828957
 11
1771.419070542
 21
170.648828957
  0
LINE
  8
2
 62
7
  6
CONTINUOUS
 10
2070.102975924
 20
331.567258169
 11
2054.001540006
 21
331.567258169
  0
LINE
  8
2
 62
7
  6
CONTINUOUS
 10
2054.001540006
 20
331.567258169
 11
2054.001540006
 21
438.567258169
  0
LINE
  8
1
 62
7
  6
CONTINUOUS
 10
2274.201540006
 20
416.367258169
 11
2262.201540006
 21
416.367258169
  0
LINE
  8
1
 62
7
  6
CONTINUOUS
 10
2262.201540006
 20
417.567258169
 11
2262.201540006
 21
409.567258169
  0
LINE
  8
1
 62
7
  6
CONTINUOUS
 10
2274.201540006
 20
417.567258169
 11
2274.201540006
 21
409.567258169
  0
LINE
  8
1
 62
7
  6
CONTINUOUS
 10
2288.201540006
 20
409.567258169
 11
2248.201540006
 21
409.567258169
  0
LINE
  8
1
 62
7
  6
CONTINUOUS
 10
2248.201540006
 20
417.567258169
 11
2248.201540006
 21
355.567258169
  0
LINE
  8
1
 62
7
  6
CONTINUOUS
 10
2288.201540006
 20
417.567258169
 11
2248.201540006
 21
417.567258169
  0
LINE
  8
1
 62
7
  6
CONTINUOUS
 10
2288.201540006
 20
355.567258169
 11
2288.201540006
 21
417.567258169
  0
LINE
  8
1
 62
2
  6
DASHDOT2
 10
2268.201540006
 20
274.728907360
 11
2268.201540006
 21
424.395525262
  0
LINE
  8
2
 62
7
  6
CONTINUOUS
 10
2054.001540006
 20
331.567258169
 11
2048.001540006
 21
336.067258169
  0
LINE
  8
2
 62
7
  6
CONTINUOUS
 10
2048.001540006
 20
336.067258169
 11
2048.001540006
 21
434.067258169
  0
LINE
  8
2
 62
7
  6
CONTINUOUS
 10
2048.001540006
 20
434.067258169
 11
2054.001540006
 21
438.567258169
  0
LINE
  8
2
 62
7
  6
CONTINUOUS
 10
2026.001540006
 20
337.067258169
 11
2013.001540006
 21
337.067258169
  0
LINE
  8
2
 62
7
  6
CONTINUOUS
 10
2013.001540006
 20
433.067258169
 11
2026.001540006
 21
433.067258169
  0
LINE
  8
2
 62
7
  6
CONTINUOUS
 10
2013.001540006
 20
337.067258169
 11
2013.001540006
 21
433.067258169
  0
LINE
  8
2
 62
7
  6
CONTINUOUS
 10
2026.001540006
 20
336.067258169
 11
2026.001540006
 21
434.067258169
  0
LINE
  8
2
 62
7
  6
CONTINUOUS
 10
2026.001540006
 20
434.067258169
 11
2028.001540006
 21
434.067258169
  0
LINE
  8
2
 62
7
  6
CONTINUOUS
 10
2013.001540006
 20
337.067258169
 11
2007.001540006
 21
337.567258169
  0
LINE
  8
2
 62
7
  6
CONTINUOUS
 10
2007.001540006
 20
337.567258169
 11
2007.001540006
 21
432.567258169
  0
LINE
  8
2
 62
7
  6
CONTINUOUS
 10
2028.001540006
 20
434.067258169
 11
2048.001540006
 21
434.067258169
  0
LINE
  8
2
 62
7
  6
CONTINUOUS
 10
2048.001540006
 20
336.067258169
 11
2028.001540006
 21
336.067258169
  0
LINE
  8
2
 62
7
  6
CONTINUOUS
 10
2123.906780529
 20
410.567258169
 11
2114.361155181
 21
373.592306899
  0
ARC
  8
2
 62
7
  6
CONTINUOUS
 10
2185.426917656
 20
413.217258169
 40
1.000000000
 50
14.475672986
 51
90.000000000
  0
LINE
  8
2
 62
7
  6
CONTINUOUS
 10
2178.235876556
 20
405.067258169
 11
2186.321071483
 21
373.749279783
  0
ARC
  8
2
 62
7
  6
CONTINUOUS
 10
2182.201540006
 20
418.054876563
 40
1.500000000
 50
270.000000000
 51
0.000000000
  0
LINE
  8
6
 62
7
  6
CONTINUOUS
 10
2073.201540006
 20
468.067258169
 11
2153.201540006
 21
468.067258169
  0
LINE
  8
2
 62
7
  6
CONTINUOUS
 10
2178.401540006
 20
416.554876563
 11
2178.401540006
 21
415.217258169
  0
LINE
  8
6
 62
7
  6
CONTINUOUS
 10
2233.201540006
 20
356.167258169
 11
2233.201540006
 21
468.067258169
  0
LINE
  8
6
 62
7
  6
CONTINUOUS
 10
2233.201540006
 20
468.067258169
 11
2153.201540006
 21
468.067258169
  0
LINE
  8
2
 62
7
  6
CONTINUOUS
 10
2153.201540006
 20
410.567258169
 11
2123.906780529
 21
410.567258169
  0
ARC
  8
2
 62
7
  6
CONTINUOUS
 10
2153.201540006
 20
385.067258169
 40
63.500000000
 50
301.745483702
 51
238.254516298
  0
ARC
  8
2
 62
7
  6
CONTINUOUS
 10
2111.201540006
 20
430.067258169
 40
37.500000000
 50
90.000000000
 51
180.000000000
  0
ARC
  8
2
 62
7
  6
CONTINUOUS
 10
2195.201540006
 20
430.067258169
 40
37.500000000
 50
0.000000000
 51
90.000000000
  0
LINE
  8
2
 62
7
  6
CONTINUOUS
 10
2195.201540006
 20
467.567258169
 11
2111.201540006
 21
467.567258169
  0
CIRCLE
  8
2
 62
7
  6
CONTINUOUS
 10
2153.201540006
 20
385.067258169
 40
53.500000000
  0
ARC
  8
2
 62
7
  6
CONTINUOUS
 10
2153.201540006
 20
385.067258169
 40
45.000000000
 50
270.000000000
 51
344.826133844
  0
ARC
  8
2
 62
7
  6
CONTINUOUS
 10
2182.201540006
 20
418.054876563
 40
1.500000000
 50
0.000000000
 51
90.000000000
  0
LINE
  8
2
 62
7
  6
CONTINUOUS
 10
2120.007908495
 20
413.467227088
 11
2109.767302838
 21
373.800271682
  0
ARC
  8
2
 62
7
  6
CONTINUOUS
 10
2127.001540006
 20
415.217258169
 40
1.000000000
 50
270.000000000
 51
0.000000000
  0
ARC
  8
2
 62
7
  6
CONTINUOUS
 10
2110.735556699
 20
373.550302763
 40
1.000000000
 50
165.524327014
 51
195.173866156
  0
LINE
  8
2
 62
7
  6
CONTINUOUS
 10
2153.201540006
 20
419.554876563
 11
2182.201540006
 21
419.554876563
  0
ARC
  8
2
 62
7
  6
CONTINUOUS
 10
2153.201540006
 20
385.067258169
 40
35.000000000
 50
198.866900248
 51
270.000000000
  0
CIRCLE
  8
2
 62
7
  6
CONTINUOUS
 10
2153.201540006
 20
385.067258169
 40
47.500000000
  0
ARC
  8
2
 62
7
  6
CONTINUOUS
 10
2124.201540006
 20
418.054876563
 40
1.500000000
 50
180.000000000
 51
270.000000000
  0
LINE
  8
2
 62
7
  6
CONTINUOUS
 10
2153.201540006
 20
405.067258169
 11
2128.167203453
 21
405.067258169
  0
ARC
  8
2
 62
7
  6
CONTINUOUS
 10
2153.201540006
 20
385.067258169
 40
40.500000000
 50
196.459177744
 51
270.000000000
  0
ARC
  8
2
 62
7
  6
CONTINUOUS
 10
2124.201540006
 20
418.054876563
 40
1.500000000
 50
90.000000000
 51
180.000000000
  0
LINE
  8
2
 62
7
  6
CONTINUOUS
 10
2128.001540006
 20
416.554876563
 11
2128.001540006
 21
415.217258169
  0
LINE
  8
2
 62
7
  6
CONTINUOUS
 10
2124.201540006
 20
416.554876563
 11
2153.201540006
 21
416.554876563
  0
CIRCLE
  8
2
 62
7
  6
CONTINUOUS
 10
2153.201540006
 20
385.067258169
 40
49.000000000
  0
LINE
  8
2
 62
7
  6
CONTINUOUS
 10
2185.426917656
 20
414.217258169
 11
2179.401540006
 21
414.217258169
  0
ARC
  8
2
 62
7
  6
CONTINUOUS
 10
2179.401540006
 20
415.217258169
 40
1.000000000
 50
180.000000000
 51
270.000000000
  0
ARC
  8
2
 62
7
  6
CONTINUOUS
 10
2120.976162356
 20
413.217258169
 40
1.000000000
 50
90.000000000
 51
165.524327014
  0
LINE
  8
2
 62
7
  6
CONTINUOUS
 10
2153.201540006
 20
419.554876563
 11
2124.201540006
 21
419.554876563
  0
LINE
  8
2
 62
7
  6
CONTINUOUS
 10
2128.167203453
 20
405.067258169
 11
2120.082008529
 21
373.749279784
  0
LINE
  8
2
 62
7
  6
CONTINUOUS
 10
2120.976162356
 20
414.217258169
 11
2127.001540006
 21
414.217258169
  0
ARC
  8
2
 62
7
  6
CONTINUOUS
 10
2153.201540006
 20
385.067258169
 40
45.000000000
 50
195.173866156
 51
270.000000000
  0
LINE
  8
2
 62
7
  6
CONTINUOUS
 10
2153.201540006
 20
405.067258169
 11
2178.235876556
 21
405.067258169
  0
LINE
  8
2
 62
7
  6
CONTINUOUS
 10
2153.201540006
 20
410.567258169
 11
2182.496299479
 21
410.567258169
  0
LINE
  8
2
 62
2
  6
DASHDOT2
 10
2098.133625208
 20
385.067258169
 11
2214.057668347
 21
385.067258169
  0
LINE
  8
2
 62
2
  6
DASHDOT2
 10
2153.201540006
 20
441.858616646
 11
2153.201540006
 21
333.942573518
  0
LINE
  8
2
 62
7
  6
CONTINUOUS
 10
2182.496299479
 20
410.567258169
 11
2192.041924831
 21
373.592306899
  0
ARC
  8
2
 62
7
  6
CONTINUOUS
 10
2153.201540006
 20
385.067258169
 40
43.500000000
 50
40.066640716
 51
40.066640716
  0
LINE
  8
2
 62
7
  6
CONTINUOUS
 10
2186.395171517
 20
413.467227088
 11
2196.635777174
 21
373.800271682
  0
ARC
  8
2
 62
7
  6
CONTINUOUS
 10
2153.201540006
 20
385.067258169
 40
43.500000000
 50
139.933359284
 51
139.933359284
  0
ARC
  8
2
 62
7
  6
CONTINUOUS
 10
2153.201540006
 20
385.067258169
 40
40.500000000
 50
270.000000000
 51
343.540822256
  0
ARC
  8
2
 62
7
  6
CONTINUOUS
 10
2195.667523313
 20
373.550302763
 40
1.000000000
 50
344.826133844
 51
14.475672986
  0
ARC
  8
2
 62
7
  6
CONTINUOUS
 10
2153.201540006
 20
385.067258169
 40
35.000000000
 50
270.000000000
 51
341.133099752
  0
LINE
  8
2
 62
7
  6
CONTINUOUS
 10
2182.201540006
 20
416.554876563
 11
2153.201540006
 21
416.554876563
  0
LINE
  8
2
 62
7
  6
CONTINUOUS
 10
1763.731452148
 20
-35.450920103
 11
1765.069070542
 21
-35.450920103
  0
LINE
  8
2
 62
7
  6
CONTINUOUS
 10
1763.731452148
 20
-31.650920103
 11
1763.731452148
 21
-60.650920103
  0
LINE
  8
2
 62
7
  6
CONTINUOUS
 10
1760.731452148
 20
-60.650920103
 11
1760.731452148
 21
-31.650920103
  0
ARC
  8
2
 62
7
  6
CONTINUOUS
 10
1762.231452148
 20
-31.650920103
 40
1.500000000
 50
0.000000000
 51
90.000000000
  0
ARC
  8
2
 62
7
  6
CONTINUOUS
 10
1795.219070542
 20
-60.650920103
 40
35.000000000
 50
0.000000000
 51
71.133099752
  0
ARC
  8
2
 62
7
  6
CONTINUOUS
 10
1806.736025948
 20
-18.184936796
 40
1.000000000
 50
74.826133844
 51
104.475672986
  0
ARC
  8
2
 62
7
  6
CONTINUOUS
 10
1765.069070542
 20
-34.450920103
 40
1.000000000
 50
270.000000000
 51
0.000000000
  0
LINE
  8
2
 62
7
  6
CONTINUOUS
 10
1766.819101623
 20
-27.457288592
 11
1806.486057029
 21
-17.216682935
  0
ARC
  8
2
 62
7
  6
CONTINUOUS
 10
1795.219070542
 20
-60.650920103
 40
43.500000000
 50
130.066640716
 51
130.066640716
  0
LINE
  8
2
 62
7
  6
CONTINUOUS
 10
2073.201540006
 20
443.567258169
 11
2073.201540006
 21
454.067258169
  0
LINE
  8
6
 62
7
  6
CONTINUOUS
 10
2073.201540006
 20
355.567258169
 11
2073.201540006
 21
468.067258169
  0
ARC
  8
2
 62
7
  6
CONTINUOUS
 10
1795.219070542
 20
-60.650920103
 40
40.500000000
 50
0.000000000
 51
73.540822256
  0
LINE
  8
2
 62
7
  6
CONTINUOUS
 10
1769.719070542
 20
-31.356160630
 11
1806.694021812
 21
-21.810535278
  0
LINE
  8
2
 62
7
  6
CONTINUOUS
 10
1769.719070542
 20
-60.650920103
 11
1769.719070542
 21
-31.356160630
  0
LINE
  8
2
 62
7
  6
CONTINUOUS
 10
1775.219070542
 20
-60.650920103
 11
1775.219070542
 21
-35.616583553
  0
LINE
  8
2
 62
7
  6
CONTINUOUS
 10
1766.069070542
 20
-92.876297753
 11
1766.069070542
 21
-86.850920103
  0
LINE
  8
2
 62
7
  6
CONTINUOUS
 10
1775.219070542
 20
-85.685256656
 11
1806.537048928
 21
-93.770451580
  0
LINE
  8
2
 62
7
  6
CONTINUOUS
 10
1760.731452148
 20
-60.650920103
 11
1760.731452148
 21
-89.650920103
  0
ARC
  8
2
 62
7
  6
CONTINUOUS
 10
1767.069070542
 20
-92.876297753
 40
1.000000000
 50
180.000000000
 51
255.524327014
  0
LINE
  8
2
 62
7
  6
CONTINUOUS
 10
1763.731452148
 20
-89.650920103
 11
1763.731452148
 21
-60.650920103
  0
LINE
  8
2
 62
7
  6
CONTINUOUS
 10
1763.731452148
 20
-85.850920103
 11
1765.069070542
 21
-85.850920103
  0
ARC
  8
2
 62
7
  6
CONTINUOUS
 10
1762.231452148
 20
-89.650920103
 40
1.500000000
 50
180.000000000
 51
270.000000000
  0
ARC
  8
2
 62
7
  6
CONTINUOUS
 10
1762.231452148
 20
-89.650920103
 40
1.500000000
 50
270.000000000
 51
0.000000000
  0
ARC
  8
2
 62
7
  6
CONTINUOUS
 10
1795.219070542
 20
-60.650920103
 40
35.000000000
 50
288.866900248
 51
360.000000000
  0
ARC
  8
2
 62
7
  6
CONTINUOUS
 10
1806.736025948
 20
-103.116903410
 40
1.000000000
 50
255.524327014
 51
285.173866156
  0
ARC
  8
2
 62
7
  6
CONTINUOUS
 10
1765.069070542
 20
-86.850920103
 40
1.000000000
 50
0.000000000
 51
90.000000000
  0
LINE
  8
2
 62
7
  6
CONTINUOUS
 10
1766.819101623
 20
-93.844551614
 11
1806.486057029
 21
-104.085157271
  0
ARC
  8
2
 62
7
  6
CONTINUOUS
 10
1795.219070542
 20
-60.650920103
 40
43.500000000
 50
229.933359284
 51
229.933359284
  0
CIRCLE
  8
2
 62
7
  6
CONTINUOUS
 10
1795.219070542
 20
-60.650920103
 40
53.500000000
  0
CIRCLE
  8
2
 62
7
  6
CONTINUOUS
 10
1795.219070542
 20
-60.650920103
 40
49.000000000
  0
LINE
  8
2
 62
7
  6
CONTINUOUS
 10
1731.719070542
 20
-166.350920103
 11
1731.719070542
 21
-165.750920103
  0
LINE
  8
2
 62
2
  6
CENTER
 10
1795.219070542
 20
-159.148137803
 11
1795.219070542
 21
-238.099091519
  0
LINE
  8
2
 62
7
  6
CONTINUOUS
 10
1736.719070542
 20
-165.150920103
 11
1791.719070542
 21
-165.150920103
  0
LINE
  8
2
 62
7
  6
CONTINUOUS
 10
1894.119070542
 20
-169.142269390
 11
1894.119070542
 21
-187.650920103
  0
ARC
  8
7
 62
7
  6
CONTINUOUS
 10
1825.719070542
 20
-168.142269390
 40
1.000000000
 50
180.000000000
 51
270.000000000
  0
LINE
  8
2
 62
7
  6
CONTINUOUS
 10
1731.719070542
 20
125.048744791
 11
1824.719070542
 21
125.048744791
  0
LINE
  8
2
 62
7
  6
CONTINUOUS
 10
1712.719070542
 20
124.448744791
 11
1824.719042928
 21
124.448744791
  0
LINE
  8
2
 62
7
  6
CONTINUOUS
 10
1844.219070542
 20
149.048744791
 11
1844.219070542
 21
169.048744791
  0
LINE
  8
2
 62
7
  6
CONTINUOUS
 10
1844.219070542
 20
169.048744791
 11
1784.639525221
 21
169.048744791
  0
LINE
  8
2
 62
7
  6
CONTINUOUS
 10
1848.719070542
 20
143.048744791
 11
1809.327880264
 21
143.048744791
  0
LINE
  8
2
 62
7
  6
CONTINUOUS
 10
1848.719070542
 20
127.840429185
 11
1848.719070542
 21
143.048744791
  0
LINE
  8
2
 62
7
  6
CONTINUOUS
 10
1848.719070542
 20
143.048744791
 11
1844.219070542
 21
149.048744791
  0
LINE
  8
2
 62
7
  6
CONTINUOUS
 10
1741.719070542
 20
143.048744791
 11
1741.719070542
 21
125.048744791
  0
LINE
  8
2
 62
7
  6
CONTINUOUS
 10
1746.219070542
 20
169.048744791
 11
1746.219070542
 21
149.048744791
  0
LINE
  8
2
 62
7
  6
CONTINUOUS
 10
1844.219070542
 20
169.048744791
 11
1844.219070542
 21
171.048744791
  0
LINE
  8
2
 62
7
  6
CONTINUOUS
 10
1747.719070542
 20
190.048744791
 11
1747.219070542
 21
184.048744791
  0
LINE
  8
2
 62
7
  6
CONTINUOUS
 10
1842.719070542
 20
190.048744791
 11
1747.719070542
 21
190.048744791
  0
LINE
  8
2
 62
7
  6
CONTINUOUS
 10
1712.719070542
 20
124.448744791
 11
1712.719070542
 21
123.848725934
  0
LINE
  8
2
 62
7
  6
CONTINUOUS
 10
1843.219070542
 20
184.048744791
 11
1842.719070542
 21
190.048744791
  0
LINE
  8
2
 62
7
  6
CONTINUOUS
 10
1746.219070542
 20
171.048744791
 11
1746.219070542
 21
169.048744791
  0
LINE
  8
2
 62
7
  6
CONTINUOUS
 10
1844.219070542
 20
171.048744791
 11
1782.500070119
 21
171.048744791
  0
LINE
  8
2
 62
7
  6
CONTINUOUS
 10
1843.219070542
 20
184.048744791
 11
1747.219070542
 21
184.048744791
  0
LINE
  8
2
 62
7
  6
CONTINUOUS
 10
1753.826015884
 20
169.048744791
 11
1746.219070542
 21
169.048744791
  0
LINE
  8
2
 62
7
  6
CONTINUOUS
 10
1749.203683977
 20
149.048744791
 11
1746.219070542
 21
149.048744791
  0
LINE
  8
2
 62
7
  6
CONTINUOUS
 10
1747.219070542
 20
184.048744791
 11
1747.219070542
 21
171.048744791
  0
LINE
  8
2
 62
7
  6
CONTINUOUS
 10
1731.719070542
 20
125.048744791
 11
1731.719070542
 21
124.448744791
  0
LINE
  8
2
 62
7
  6
CONTINUOUS
 10
1748.310249868
 20
143.048744791
 11
1741.719070542
 21
143.048744791
  0
LINE
  8
2
 62
2
  6
CENTER
 10
1795.219070542
 20
117.845962492
 11
1795.219070542
 21
196.796916207
  0
LINE
  8
2
 62
7
  6
CONTINUOUS
 10
1843.219070542
 20
171.048744791
 11
1843.219070542
 21
184.048744791
  0
LINE
  8
2
 62
7
  6
CONTINUOUS
 10
1746.219070542
 20
149.048744791
 11
1741.719070542
 21
143.048744791
  0
LINE
  8
2
 62
7
  6
CONTINUOUS
 10
1844.219070542
 20
149.048744791
 11
1806.227470588
 21
149.048744791
  0
LINE
  8
2
 62
7
  6
CONTINUOUS
 10
1754.588246194
 20
171.048744791
 11
1746.219070542
 21
171.048744791
  0
LINE
  8
2
 62
7
  6
CONTINUOUS
 10
1894.719070542
 20
146.348744791
 11
1894.719070542
 21
123.848744791
  0
LINE
  8
2
 62
7
  6
CONTINUOUS
 10
1894.119070542
 20
127.840429185
 11
1894.119070542
 21
146.348744791
  0
LINE
  8
2
 62
7
  6
CONTINUOUS
 10
1894.119070542
 20
146.348744791
 11
1894.719070542
 21
146.348744791
  0
ARC
  8
7
 62
7
  6
CONTINUOUS
 10
1825.719070542
 20
126.840429185
 40
1.000000000
 50
90.000000000
 51
180.000000000
  0
POLYLINE
  8
2
 62
7
  6
CONTINUOUS
 66
1
  0
VERTEX
  8
2
 10
1743.284351922
 20
123.849079897
  0
VERTEX
  8
2
 10
1744.646146215
 20
127.164303684
  0
VERTEX
  8
2
 10
1745.373995210
 20
129.424389939
  0
VERTEX
  8
2
 10
1746.040420863
 20
131.703343840
  0
VERTEX
  8
2
 10
1746.644935116
 20
133.999496395
  0
VERTEX
  8
2
 10
1747.134151143
 20
136.319383061
  0
VERTEX
  8
2
 10
1747.581317506
 20
138.647740574
  0
VERTEX
  8
2
 10
1747.986287840
 20
140.983806818
  0
VERTEX
  8
2
 10
1748.358592865
 20
143.308901559
  0
VERTEX
  8
2
 10
1748.710159719
 20
145.637222270
  0
VERTEX
  8
2
 10
1749.040960472
 20
147.968583985
  0
VERTEX
  8
2
 10
1749.415765732
 20
150.259831120
  0
VERTEX
  8
2
 10
1749.790988974
 20
152.551009842
  0
VERTEX
  8
2
 10
1750.166630185
 20
154.842120075
  0
VERTEX
  8
2
 10
1750.642860955
 20
157.135295652
  0
VERTEX
  8
2
 10
1751.135184049
 20
159.425070302
  0
VERTEX
  8
2
 10
1751.643575186
 20
161.711331098
  0
VERTEX
  8
2
 10
1752.309886494
 20
164.068931272
  0
VERTEX
  8
2
 10
1753.003681232
 20
166.418590438
  0
VERTEX
  8
2
 10
1753.724864801
 20
168.759988225
  0
VERTEX
  8
2
 10
1754.759523149
 20
170.994705975
  0
VERTEX
  8
2
 10
1755.828493766
 20
173.213215191
  0
VERTEX
  8
2
 10
1756.931522817
 20
175.414989074
  0
VERTEX
  8
2
 10
1758.658440713
 20
176.857839995
  0
VERTEX
  8
2
 10
1760.471815051
 20
178.190408085
  0
VERTEX
  8
2
 10
1762.364614073
 20
179.407526018
  0
VERTEX
  8
2
 10
1764.799690816
 20
179.749179376
  0
VERTEX
  8
2
 10
1767.258203752
 20
179.794344636
  0
VERTEX
  8
2
 10
1769.704186179
 20
179.542361054
  0
VERTEX
  8
2
 10
1772.028124770
 20
178.710333594
  0
VERTEX
  8
2
 10
1774.284797481
 20
177.710139339
  0
VERTEX
  8
2
 10
1776.462054285
 20
176.547163380
  0
VERTEX
  8
2
 10
1778.326077217
 20
175.091206163
  0
VERTEX
  8
2
 10
1780.081190055
 20
173.505655208
  0
VERTEX
  8
2
 10
1781.718402651
 20
171.798632120
  0
VERTEX
  8
2
 10
1783.555180356
 20
170.340059442
  0
VERTEX
  8
2
 10
1785.382562079
 20
168.869732053
  0
VERTEX
  8
2
 10
1787.200472594
 20
167.387710477
  0
VERTEX
  8
2
 10
1789.193172064
 20
166.096953834
  0
VERTEX
  8
2
 10
1791.236302907
 20
164.887606802
  0
VERTEX
  8
2
 10
1793.326541094
 20
163.761636903
  0
VERTEX
  8
2
 10
1795.165487362
 20
162.348142223
  0
VERTEX
  8
2
 10
1796.988524327
 20
160.914187269
  0
VERTEX
  8
2
 10
1798.795424358
 20
159.459951090
  0
VERTEX
  8
2
 10
1800.338618677
 20
157.709788735
  0
VERTEX
  8
2
 10
1801.808652696
 20
155.897741009
  0
VERTEX
  8
2
 10
1803.203047189
 20
154.026863949
  0
VERTEX
  8
2
 10
1804.487354416
 20
151.997098954
  0
VERTEX
  8
2
 10
1805.715374544
 20
149.932793367
  0
VERTEX
  8
2
 10
1806.886179268
 20
147.835507672
  0
VERTEX
  8
2
 10
1808.021926152
 20
145.665863366
  0
VERTEX
  8
2
 10
1809.126324453
 20
143.480095357
  0
VERTEX
  8
2
 10
1810.199145328
 20
141.278656562
  0
VERTEX
  8
2
 10
1811.245986734
 20
139.081507737
  0
VERTEX
  8
2
 10
1812.286604822
 20
136.881404585
  0
VERTEX
  8
2
 10
1813.320991256
 20
134.678364733
  0
VERTEX
  8
2
 10
1814.051672207
 20
132.444442116
  0
VERTEX
  8
2
 10
1814.746509294
 20
130.199112221
  0
VERTEX
  8
2
 10
1815.405324551
 20
127.942950133
  0
VERTEX
  8
2
 10
1815.550737618
 20
126.783012846
  0
VERTEX
  8
2
 10
1815.641639669
 20
125.617535997
  0
VERTEX
  8
2
 10
1815.677831012
 20
124.449079897
  0
SEQEND
  8
2
  0
LINE
  8
2
 62
7
  6
CONTINUOUS
 10
2072.601540006
 20
467.567258169
 11
2072.601540006
 21
355.567258169
  0
LINE
  8
2
 62
7
  6
CONTINUOUS
 10
2072.001540006
 20
448.567258169
 11
2072.001540006
 21
355.567258169
  0
LINE
  8
2
 62
7
  6
CONTINUOUS
 10
1731.719070542
 20
-166.350920103
 11
1824.719070542
 21
-166.350920103
  0
TEXT
  8
1
 62
7
  6
CONTINUOUS
 72
5
 10
1913.971565852
 20
1111.083600003
 40
22.000000000
  1
[BF-513SR]
 41
0.882089966
 11
2082.156725852
 21
1111.083600003
  0
LINE
  8
2
 62
7
  6
CONTINUOUS
 10
2007.001540006
 20
432.567258169
 11
2013.001540006
 21
433.067258169
  0
LINE
  8
2
 62
7
  6
CONTINUOUS
 10
2028.001540006
 20
336.067258169
 11
2026.001540006
 21
336.067258169
  0
LINE
  8
5
 62
7
  6
CONTINUOUS
 10
2202.201540006
 20
955.967974307
 11
2248.201540006
 21
955.967974307
  0
LINE
  8
1
 62
7
  6
CONTINUOUS
 10
2104.201540006
 20
961.967974307
 11
2069.201540006
 21
961.967974307
  0
CIRCLE
  8
5
 62
1
  6
HIDDEN2
 10
2153.201540006
 20
624.967974307
 40
2.500000000
  0
ARC
  8
1
 62
7
  6
CONTINUOUS
 10
2268.201540006
 20
622.967974307
 40
6.000000000
 50
0.000000000
 51
180.000000000
  0
LINE
  8
1
 62
7
  6
CONTINUOUS
 10
2274.201540006
 20
622.967974307
 11
2274.201540006
 21
603.967974307
  0
ARC
  8
5
 62
7
  6
CONTINUOUS
 10
2073.701540006
 20
927.467974307
 40
28.500000000
 50
90.000000000
 51
180.000000000
  0
ARC
  8
5
 62
7
  6
CONTINUOUS
 10
2073.701540006
 20
638.467974307
 40
28.500000000
 50
180.000000000
 51
270.000000000
  0
LINE
  8
1
 62
7
  6
CONTINUOUS
 10
2262.201540006
 20
603.967974307
 11
2262.201540006
 21
622.967974307
  0
LINE
  8
1
 62
7
  6
CONTINUOUS
 10
2475.451540006
 20
658.717974307
 11
2480.951540006
 21
658.717974307
  0
LINE
  8
1
 62
7
  6
CONTINUOUS
 10
2480.951540006
 20
663.217974307
 11
2475.451540006
 21
663.217974307
  0
CIRCLE
  8
5
 62
7
  6
CONTINUOUS
 10
2478.201540006
 20
782.967974307
 40
2.500000000
  0
CIRCLE
  8
5
 62
1
  6
HIDDEN2
 10
2153.201540006
 20
940.967974307
 40
2.500000000
  0
CIRCLE
  8
1
 62
7
  6
CONTINUOUS
 10
2301.201540006
 20
938.967974307
 40
5.500000000
  0
CIRCLE
  8
1
 62
7
  6
CONTINUOUS
 10
2301.201540006
 20
938.967974307
 40
2.250000000
  0
LINE
  8
1
 62
7
  6
CONTINUOUS
 10
2297.160088075
 20
938.967974307
 11
2299.180814040
 21
935.467974266
  0
LINE
  8
5
 62
2
  6
DASHDOT2
 10
2268.201540006
 20
619.949491901
 11
2268.201540006
 21
631.999201926
  0
LINE
  8
5
 62
2
  6
DASHDOT2
 10
2058.201540006
 20
655.341565576
 11
2058.201540006
 21
667.054182332
  0
LINE
  8
5
 62
2
  6
DASHDOT2
 10
2273.827948737
 20
625.967974307
 11
2262.115331981
 21
625.967974307
  0
LINE
  8
5
 62
2
  6
DASHDOT2
 10
2051.183057601
 20
660.967974307
 11
2066.232767625
 21
660.967974307
  0
ARC
  8
1
 62
7
  6
CONTINUOUS
 10
2060.951540006
 20
660.967974307
 40
2.250000000
 50
270.000000000
 51
90.000000000
  0
LINE
  8
1
 62
7
  6
CONTINUOUS
 10
2060.951540006
 20
658.717974307
 11
2055.451540006
 21
658.717974307
  0
ARC
  8
1
 62
7
  6
CONTINUOUS
 10
2055.451540006
 20
660.967974307
 40
2.250000000
 50
90.000000000
 51
270.000000000
  0
ARC
  8
1
 62
7
  6
CONTINUOUS
 10
2475.451540006
 20
660.967974307
 40
2.250000000
 50
90.000000000
 51
270.000000000
  0
LINE
  8
5
 62
2
  6
DASHDOT2
 10
2485.220022412
 20
660.967974307
 11
2470.170312387
 21
660.967974307
  0
LINE
  8
5
 62
2
  6
DASHDOT2
 10
2478.201540006
 20
655.341565576
 11
2478.201540006
 21
667.054182332
  0
LINE
  8
1
 62
7
  6
CONTINUOUS
 10
2480.951540006
 20
902.717974307
 11
2475.451540006
 21
902.717974307
  0
ARC
  8
1
 62
7
  6
CONTINUOUS
 10
2480.951540006
 20
904.967974307
 40
2.250000000
 50
270.000000000
 51
90.000000000
  0
LINE
  8
1
 62
7
  6
CONTINUOUS
 10
2475.451540006
 20
907.217974307
 11
2480.951540006
 21
907.217974307
  0
ARC
  8
1
 62
7
  6
CONTINUOUS
 10
2475.451540006
 20
904.967974307
 40
2.250000000
 50
90.000000000
 51
270.000000000
  0
LINE
  8
5
 62
2
  6
DASHDOT2
 10
2485.220022412
 20
904.967974307
 11
2470.170312387
 21
904.967974307
  0
LINE
  8
1
 62
7
  6
CONTINUOUS
 10
2055.451540006
 20
912.717974307
 11
2060.951540006
 21
912.717974307
  0
LINE
  8
1
 62
7
  6
CONTINUOUS
 10
2055.451540006
 20
663.217974307
 11
2060.951540006
 21
663.217974307
  0
ARC
  8
1
 62
7
  6
CONTINUOUS
 10
2055.451540006
 20
914.967974307
 40
2.250000000
 50
90.000000000
 51
270.000000000
  0
LINE
  8
5
 62
7
  6
CONTINUOUS
 10
2045.201540006
 20
638.467974307
 11
2045.201540006
 21
773.967974307
  0
LINE
  8
1
 62
7
  6
CONTINUOUS
 10
2060.951540006
 20
917.217974307
 11
2055.451540006
 21
917.217974307
  0
ARC
  8
1
 62
7
  6
CONTINUOUS
 10
2060.951540006
 20
914.967974307
 40
2.250000000
 50
270.000000000
 51
90.000000000
  0
LINE
  8
5
 62
2
  6
DASHDOT2
 10
2051.183057601
 20
914.967974307
 11
2066.232767625
 21
914.967974307
  0
LINE
  8
5
 62
7
  6
CONTINUOUS
 10
2462.701540006
 20
609.967974307
 11
2288.201540006
 21
609.967974307
  0
ARC
  8
5
 62
7
  6
CONTINUOUS
 10
2462.701540006
 20
638.467974307
 40
28.500000000
 50
270.000000000
 51
0.000000000
  0
LINE
  8
5
 62
7
  6
CONTINUOUS
 10
2491.201540006
 20
927.467974307
 11
2491.201540006
 21
638.467974307
  0
ARC
  8
5
 62
7
  6
CONTINUOUS
 10
2462.701540006
 20
927.467974307
 40
28.500000000
 50
0.000000000
 51
90.000000000
  0
LINE
  8
5
 62
2
  6
DASHDOT2
 10
2273.827948737
 20
939.967974307
 11
2262.115331980
 21
939.967974307
  0
LINE
  8
5
 62
2
  6
DASHDOT2
 10
2268.201540006
 20
945.986456712
 11
2268.201540006
 21
933.936746688
  0
ARC
  8
1
 62
7
  6
CONTINUOUS
 10
2480.951540006
 20
660.967974307
 40
2.250000000
 50
270.000000000
 51
90.000000000
  0
LINE
  8
5
 62
2
  6
DASHDOT2
 10
2051.181891285
 20
822.967974307
 11
2067.537900042
 21
822.967974307
  0
LINE
  8
5
 62
7
  6
CONTINUOUS
 10
2045.201540006
 20
871.967974307
 11
2045.201540006
 21
927.467974307
  0
LINE
  8
2
 62
7
  6
CONTINUOUS
 10
2028.001540006
 20
773.967974307
 11
2026.001540006
 21
773.967974307
  0
LINE
  8
2
 62
7
  6
CONTINUOUS
 10
2007.001540006
 20
870.467974307
 11
2013.001540006
 21
870.967974307
  0
LINE
  8
2
 62
7
  6
CONTINUOUS
 10
2048.001540006
 20
773.967974307
 11
2028.001540006
 21
773.967974307
  0
LINE
  8
2
 62
7
  6
CONTINUOUS
 10
2028.001540006
 20
871.967974307
 11
2048.001540006
 21
871.967974307
  0
LINE
  8
2
 62
7
  6
CONTINUOUS
 10
2007.001540006
 20
775.467974307
 11
2007.001540006
 21
870.467974307
  0
LINE
  8
2
 62
7
  6
CONTINUOUS
 10
2013.001540006
 20
774.967974307
 11
2007.001540006
 21
775.467974307
  0
LINE
  8
2
 62
7
  6
CONTINUOUS
 10
2026.001540006
 20
871.967974307
 11
2028.001540006
 21
871.967974307
  0
LINE
  8
2
 62
7
  6
CONTINUOUS
 10
2026.001540006
 20
773.967974307
 11
2026.001540006
 21
871.967974307
  0
ARC
  8
9
 62
7
  6
CONTINUOUS
 10
2461.701540006
 20
639.467974307
 40
1.000000000
 50
270.000000000
 51
0.000000000
  0
LINE
  8
2
 62
7
  6
CONTINUOUS
 10
2013.001540006
 20
774.967974307
 11
2013.001540006
 21
870.967974307
  0
LINE
  8
2
 62
7
  6
CONTINUOUS
 10
2013.001540006
 20
870.967974307
 11
2026.001540006
 21
870.967974307
  0
LINE
  8
2
 62
7
  6
CONTINUOUS
 10
2026.001540006
 20
774.967974307
 11
2013.001540006
 21
774.967974307
  0
LINE
  8
2
 62
7
  6
CONTINUOUS
 10
2048.001540006
 20
871.967974307
 11
2054.001540006
 21
876.467974307
  0
LINE
  8
2
 62
7
  6
CONTINUOUS
 10
2048.001540006
 20
773.967974307
 11
2048.001540006
 21
871.967974307
  0
LINE
  8
2
 62
7
  6
CONTINUOUS
 10
2054.001540006
 20
769.467974307
 11
2048.001540006
 21
773.967974307
  0
LINE
  8
2
 62
7
  6
CONTINUOUS
 10
2054.001540006
 20
769.467974307
 11
2054.001540006
 21
876.467974307
  0
LINE
  8
2
 62
7
  6
CONTINUOUS
 10
2073.701540006
 20
769.467974307
 11
2054.001540006
 21
769.467974307
  0
LINE
  8
2
 62
7
  6
CONTINUOUS
 10
2028.001540006
 20
773.967974307
 11
2028.001540006
 21
871.967974307
  0
LINE
  8
2
 62
2
  6
DASHDOT2
 10
2153.201540006
 20
1006.330084478
 11
2153.201540006
 21
955.481956968
  0
LINE
  8
2
 62
7
  6
CONTINUOUS
 10
2206.701540006
 20
947.167974307
 11
2206.701540006
 21
927.467974307
  0
LINE
  8
2
 62
7
  6
CONTINUOUS
 10
2104.201540006
 20
973.167974307
 11
2202.201540006
 21
973.167974307
  0
LINE
  8
2
 62
7
  6
CONTINUOUS
 10
2099.701540006
 20
927.467974307
 11
2099.701540006
 21
947.167974307
  0
LINE
  8
2
 62
7
  6
CONTINUOUS
 10
2099.701540006
 20
947.167974307
 11
2206.701540006
 21
947.167974307
  0
LINE
  8
5
 62
2
  6
DASHDOT2
 10
2058.201540006
 20
909.341565576
 11
2058.201540006
 21
921.054182332
  0
LINE
  8
2
 62
7
  6
CONTINUOUS
 10
2054.001540006
 20
876.467974307
 11
2073.701540006
 21
876.467974307
  0
ARC
  8
1
 62
7
  6
CONTINUOUS
 10
2268.201540006
 20
942.717974307
 40
3.250000000
 50
0.000000000
 51
180.000000000
  0
LINE
  8
1
 62
7
  6
CONTINUOUS
 10
2299.180814040
 20
935.467974266
 11
2303.222265971
 21
935.467974266
  0
LINE
  8
1
 62
7
  6
CONTINUOUS
 10
2303.222265971
 20
935.467974266
 11
2305.242991937
 21
938.967974307
  0
LINE
  8
1
 62
7
  6
CONTINUOUS
 10
2305.242991937
 20
938.967974307
 11
2303.222265971
 21
942.467974347
  0
LINE
  8
1
 62
7
  6
CONTINUOUS
 10
2303.222265971
 20
942.467974347
 11
2299.180814040
 21
942.467974347
  0
LINE
  8
1
 62
7
  6
CONTINUOUS
 10
2299.180814040
 20
942.467974347
 11
2297.160088075
 21
938.967974307
  0
CIRCLE
  8
1
 62
7
  6
CONTINUOUS
 10
2301.201540006
 20
626.967974307
 40
5.500000000
  0
LINE
  8
1
 62
7
  6
CONTINUOUS
 10
2264.951540006
 20
942.717974307
 11
2264.951540006
 21
937.924414056
  0
ARC
  8
1
 62
1
  6
HIDDEN2
 10
2268.201540006
 20
937.217974307
 40
3.250000000
 50
180.000000000
 51
0.000000000
  0
LINE
  8
1
 62
1
  6
HIDDEN2
 10
2271.451540006
 20
937.217974307
 11
2271.451540006
 21
937.924414056
  0
CIRCLE
  8
1
 62
7
  6
CONTINUOUS
 10
2301.201540006
 20
626.967974307
 40
2.250000000
  0
LINE
  8
1
 62
7
  6
CONTINUOUS
 10
2297.160088075
 20
626.967974307
 11
2299.180814040
 21
630.467974348
  0
LINE
  8
1
 62
7
  6
CONTINUOUS
 10
2299.180814040
 20
623.467974267
 11
2297.160088075
 21
626.967974307
  0
LINE
  8
1
 62
7
  6
CONTINUOUS
 10
2303.222265971
 20
623.467974267
 11
2299.180814040
 21
623.467974267
  0
LINE
  8
1
 62
7
  6
CONTINUOUS
 10
2305.242991937
 20
626.967974307
 11
2303.222265971
 21
623.467974267
  0
LINE
  8
1
 62
7
  6
CONTINUOUS
 10
2303.222265971
 20
630.467974348
 11
2305.242991937
 21
626.967974307
  0
LINE
  8
1
 62
7
  6
CONTINUOUS
 10
2299.180814040
 20
630.467974348
 11
2303.222265971
 21
630.467974348
  0
ARC
  8
1
 62
7
  6
CONTINUOUS
 10
2268.201540006
 20
623.217974307
 40
3.250000000
 50
180.000000000
 51
0.000000000
  0
LINE
  8
1
 62
1
  6
HIDDEN2
 10
2271.451540006
 20
628.717974307
 11
2271.451540006
 21
628.011534557
  0
ARC
  8
1
 62
1
  6
HIDDEN2
 10
2268.201540006
 20
628.717974307
 40
3.250000000
 50
0.000000000
 51
180.000000000
  0
LINE
  8
1
 62
7
  6
CONTINUOUS
 10
2264.951540006
 20
623.217974307
 11
2264.951540006
 21
628.011534557
  0
ARC
  8
9
 62
7
  6
CONTINUOUS
 10
2461.701540006
 20
926.467974307
 40
1.000000000
 50
0.000000000
 51
90.000000000
  0
ARC
  8
9
 62
7
  6
CONTINUOUS
 10
2074.701540006
 20
926.467974307
 40
1.000000000
 50
90.000000000
 51
180.000000000
  0
ARC
  8
9
 62
7
  6
CONTINUOUS
 10
2074.701540006
 20
639.467974307
 40
1.000000000
 50
180.000000000
 51
270.000000000
  0
LINE
  8
9
 62
7
  6
CONTINUOUS
 10
2461.701540006
 20
638.467974307
 11
2074.701540006
 21
638.467974307
  0
LINE
  8
9
 62
7
  6
CONTINUOUS
 10
2073.701540006
 20
639.467974307
 11
2073.701540006
 21
926.467974307
  0
LINE
  8
9
 62
7
  6
CONTINUOUS
 10
2074.701540006
 20
927.467974307
 11
2461.701540006
 21
927.467974307
  0
LINE
  8
9
 62
7
  6
CONTINUOUS
 10
2462.701540006
 20
926.467974307
 11
2462.701540006
 21
639.467974307
  0
LINE
  8
2
 62
2
  6
DASHDOT2
 10
2268.201540006
 20
592.141020451
 11
2268.201540006
 21
972.215439675
  0
LINE
  8
1
 62
7
  6
CONTINUOUS
 10
2069.201540006
 20
603.967974307
 11
2104.201540006
 21
603.967974307
  0
LINE
  8
1
 62
7
  6
CONTINUOUS
 10
2497.201540006
 20
633.967974307
 11
2497.201540006
 21
931.967974307
  0
LINE
  8
1
 62
7
  6
CONTINUOUS
 10
2467.201540006
 20
961.967974307
 11
2288.201540006
 21
961.967974307
  0
LINE
  8
1
 62
7
  6
CONTINUOUS
 10
2039.201540006
 20
931.967974307
 11
2039.201540006
 21
633.967974307
  0
ARC
  8
1
 62
7
  6
CONTINUOUS
 10
2069.201540006
 20
931.967974307
 40
30.000000000
 50
90.000000000
 51
180.000000000
  0
ARC
  8
1
 62
7
  6
CONTINUOUS
 10
2467.201540006
 20
931.967974307
 40
30.000000000
 50
0.000000000
 51
90.000000000
  0
ARC
  8
1
 62
7
  6
CONTINUOUS
 10
2069.201540006
 20
633.967974307
 40
30.000000000
 50
180.000000000
 51
270.000000000
  0
ARC
  8
1
 62
7
  6
CONTINUOUS
 10
2467.201540006
 20
633.967974307
 40
30.000000000
 50
270.000000000
 51
0.000000000
  0
LINE
  8
2
 62
2
  6
DASHDOT2
 10
1994.839429835
 20
782.967974307
 11
2515.298726149
 21
782.967974307
  0
LINE
  8
2
 62
7
  6
CONTINUOUS
 10
2099.701540006
 20
947.167974307
 11
2104.201540006
 21
953.167974307
  0
LINE
  8
2
 62
7
  6
CONTINUOUS
 10
2104.201540006
 20
953.167974307
 11
2202.201540006
 21
953.167974307
  0
LINE
  8
2
 62
7
  6
CONTINUOUS
 10
2202.201540006
 20
953.167974307
 11
2206.701540006
 21
947.167974307
  0
LINE
  8
2
 62
7
  6
CONTINUOUS
 10
2105.201540006
 20
975.167974307
 11
2105.201540006
 21
988.167974307
  0
LINE
  8
2
 62
7
  6
CONTINUOUS
 10
2201.201540006
 20
988.167974307
 11
2201.201540006
 21
975.167974307
  0
LINE
  8
2
 62
7
  6
CONTINUOUS
 10
2105.201540006
 20
988.167974307
 11
2201.201540006
 21
988.167974307
  0
LINE
  8
2
 62
7
  6
CONTINUOUS
 10
2104.201540006
 20
975.167974307
 11
2202.201540006
 21
975.167974307
  0
LINE
  8
2
 62
7
  6
CONTINUOUS
 10
2202.201540006
 20
975.167974307
 11
2202.201540006
 21
973.167974307
  0
LINE
  8
5
 62
7
  6
CONTINUOUS
 10
2248.201540006
 20
609.967974307
 11
2202.201540006
 21
609.967974307
  0
LINE
  8
2
 62
7
  6
CONTINUOUS
 10
2105.201540006
 20
988.167974307
 11
2105.701540006
 21
994.167974307
  0
LINE
  8
2
 62
7
  6
CONTINUOUS
 10
2105.701540006
 20
994.167974307
 11
2200.701540006
 21
994.167974307
  0
LINE
  8
2
 62
7
  6
CONTINUOUS
 10
2202.201540006
 20
973.167974307
 11
2202.201540006
 21
953.167974307
  0
LINE
  8
2
 62
7
  6
CONTINUOUS
 10
2104.201540006
 20
953.167974307
 11
2104.201540006
 21
973.167974307
  0
LINE
  8
1
 62
7
  6
CONTINUOUS
 10
2248.201540006
 20
961.967974307
 11
2248.201540006
 21
975.467974307
  0
LINE
  8
1
 62
7
  6
CONTINUOUS
 10
2274.201540006
 20
961.967974307
 11
2274.201540006
 21
975.467974307
  0
LINE
  8
1
 62
7
  6
CONTINUOUS
 10
2274.201540006
 20
974.267974307
 11
2288.201540006
 21
974.267974307
  0
LINE
  8
1
 62
7
  6
CONTINUOUS
 10
2274.201540006
 20
975.467974307
 11
2288.201540006
 21
975.467974307
  0
LINE
  8
1
 62
2
  6
DASHDOT2
 10
2268.201540006
 20
978.510926953
 11
2268.201540006
 21
922.233442814
  0
LINE
  8
1
 62
7
  6
CONTINUOUS
 10
2262.201540006
 20
975.467974307
 11
2262.201540006
 21
961.967974307
  0
LINE
  8
1
 62
7
  6
CONTINUOUS
 10
2248.201540006
 20
974.267974307
 11
2262.201540006
 21
974.267974307
  0
LINE
  8
1
 62
7
  6
CONTINUOUS
 10
2288.201540006
 20
603.967974307
 11
2467.201540006
 21
603.967974307
  0
LINE
  8
1
 62
7
  6
CONTINUOUS
 10
2288.201540006
 20
590.467974307
 11
2288.201540006
 21
603.967974307
  0
LINE
  8
1
 62
7
  6
CONTINUOUS
 10
2248.201540006
 20
590.467974307
 11
2262.201540006
 21
590.467974307
  0
LINE
  8
1
 62
7
  6
CONTINUOUS
 10
2248.201540006
 20
975.467974307
 11
2262.201540006
 21
975.467974307
  0
LINE
  8
1
 62
7
  6
CONTINUOUS
 10
2288.201540006
 20
975.467974307
 11
2288.201540006
 21
961.967974307
  0
LINE
  8
1
 62
7
  6
CONTINUOUS
 10
2248.201540006
 20
591.667974307
 11
2262.201540006
 21
591.667974307
  0
LINE
  8
1
 62
7
  6
CONTINUOUS
 10
2262.201540006
 20
590.467974307
 11
2262.201540006
 21
603.967974307
  0
LINE
  8
1
 62
2
  6
DASHDOT2
 10
2268.201540006
 20
587.425021660
 11
2268.201540006
 21
643.702505800
  0
LINE
  8
1
 62
7
  6
CONTINUOUS
 10
2274.201540006
 20
590.467974307
 11
2288.201540006
 21
590.467974307
  0
LINE
  8
1
 62
7
  6
CONTINUOUS
 10
2274.201540006
 20
591.667974307
 11
2288.201540006
 21
591.667974307
  0
LINE
  8
1
 62
7
  6
CONTINUOUS
 10
2274.201540006
 20
603.967974307
 11
2274.201540006
 21
590.467974307
  0
LINE
  8
1
 62
7
  6
CONTINUOUS
 10
2248.201540006
 20
603.967974307
 11
2248.201540006
 21
590.467974307
  0
LINE
  8
7
 62
2
  6
DASHDOT2
 10
2268.201540006
 20
602.942884867
 11
2268.201540006
 21
707.585924248
  0
LINE
  8
2
 62
7
  6
CONTINUOUS
 10
2200.701540006
 20
994.167974307
 11
2201.201540006
 21
988.167974307
  0
LINE
  8
2
 62
7
  6
CONTINUOUS
 10
2104.201540006
 20
973.167974307
 11
2104.201540006
 21
975.167974307
  0
LINE
  8
2
 62
2
  6
DASHDOT2
 10
2153.201540006
 20
559.605864136
 11
2153.201540006
 21
610.453991646
  0
LINE
  8
2
 62
2
  6
DASHDOT2
 10
1994.839429835
 20
822.967974307
 11
2045.687557344
 21
822.967974307
  0
LINE
  8
1
 62
7
  6
CONTINUOUS
 10
2271.451540006
 20
937.924414056
 11
2271.451540006
 21
942.717974307
  0
LINE
  8
1
 62
1
  6
HIDDEN2
 10
2264.951540006
 20
937.924414056
 11
2264.951540006
 21
937.217974307
  0
LINE
  8
5
 62
7
  6
CONTINUOUS
 10
2262.201540006
 20
955.967974307
 11
2274.201540006
 21
955.967974307
  0
LINE
  8
5
 62
7
  6
CONTINUOUS
 10
2288.201540006
 20
955.967974307
 11
2462.701540006
 21
955.967974307
  0
LINE
  8
1
 62
7
  6
CONTINUOUS
 10
2274.201540006
 20
961.967974307
 11
2262.201540006
 21
961.967974307
  0
LINE
  8
1
 62
1
  6
HIDDEN2
 10
2264.951540006
 20
628.011534557
 11
2264.951540006
 21
628.717974307
  0
LINE
  8
2
 62
7
  6
CONTINUOUS
 10
2099.701540006
 20
618.767974307
 11
2099.701540006
 21
638.467974307
  0
LINE
  8
5
 62
2
  6
DASHDOT2
 10
2478.201540006
 20
899.341565576
 11
2478.201540006
 21
911.054182332
  0
LINE
  8
2
 62
7
  6
CONTINUOUS
 10
2202.201540006
 20
592.767974307
 11
2104.201540006
 21
592.767974307
  0
LINE
  8
2
 62
7
  6
CONTINUOUS
 10
2206.701540006
 20
638.467974307
 11
2206.701540006
 21
618.767974307
  0
LINE
  8
1
 62
7
  6
CONTINUOUS
 10
2271.451540006
 20
628.011534557
 11
2271.451540006
 21
623.217974307
  0
LINE
  8
2
 62
7
  6
CONTINUOUS
 10
2206.701540006
 20
618.767974307
 11
2099.701540006
 21
618.767974307
  0
LINE
  8
2
 62
7
  6
CONTINUOUS
 10
2206.701540006
 20
618.767974307
 11
2202.201540006
 21
612.767974307
  0
LINE
  8
2
 62
7
  6
CONTINUOUS
 10
2202.201540006
 20
612.767974307
 11
2104.201540006
 21
612.767974307
  0
LINE
  8
2
 62
7
  6
CONTINUOUS
 10
2104.201540006
 20
612.767974307
 11
2099.701540006
 21
618.767974307
  0
LINE
  8
2
 62
7
  6
CONTINUOUS
 10
2201.201540006
 20
590.767974307
 11
2201.201540006
 21
577.767974307
  0
LINE
  8
2
 62
7
  6
CONTINUOUS
 10
2105.201540006
 20
577.767974307
 11
2105.201540006
 21
590.767974307
  0
LINE
  8
2
 62
7
  6
CONTINUOUS
 10
2201.201540006
 20
577.767974307
 11
2105.201540006
 21
577.767974307
  0
LINE
  8
2
 62
7
  6
CONTINUOUS
 10
2202.201540006
 20
590.767974307
 11
2104.201540006
 21
590.767974307
  0
LINE
  8
1
 62
7
  6
CONTINUOUS
 10
2262.201540006
 20
961.967974307
 11
2262.201540006
 21
942.967974307
  0
CIRCLE
  8
5
 62
1
  6
HIDDEN2
 10
2060.201540006
 20
822.967974307
 40
2.250000000
  0
LINE
  8
2
 62
7
  6
CONTINUOUS
 10
2104.201540006
 20
590.767974307
 11
2104.201540006
 21
592.767974307
  0
LINE
  8
2
 62
7
  6
CONTINUOUS
 10
2201.201540006
 20
577.767974307
 11
2200.701540006
 21
571.767974307
  0
LINE
  8
2
 62
7
  6
CONTINUOUS
 10
2200.701540006
 20
571.767974307
 11
2105.701540006
 21
571.767974307
  0
LINE
  8
2
 62
7
  6
CONTINUOUS
 10
2104.201540006
 20
592.767974307
 11
2104.201540006
 21
612.767974307
  0
LINE
  8
2
 62
7
  6
CONTINUOUS
 10
2202.201540006
 20
612.767974307
 11
2202.201540006
 21
592.767974307
  0
LINE
  8
2
 62
7
  6
CONTINUOUS
 10
2105.701540006
 20
571.767974307
 11
2105.201540006
 21
577.767974307
  0
LINE
  8
2
 62
7
  6
CONTINUOUS
 10
2202.201540006
 20
592.767974307
 11
2202.201540006
 21
590.767974307
  0
LINE
  8
1
 62
7
  6
CONTINUOUS
 10
2202.201540006
 20
603.967974307
 11
2248.201540006
 21
603.967974307
  0
LINE
  8
1
 62
7
  6
CONTINUOUS
 10
2274.201540006
 20
942.967974307
 11
2274.201540006
 21
961.967974307
  0
ARC
  8
1
 62
7
  6
CONTINUOUS
 10
2268.201540006
 20
942.967974307
 40
6.000000000
 50
180.000000000
 51
0.000000000
  0
LINE
  8
1
 62
7
  6
CONTINUOUS
 10
2248.201540006
 20
927.467974307
 11
2288.201540006
 21
927.467974307
  0
LINE
  8
1
 62
7
  6
CONTINUOUS
 10
2262.201540006
 20
603.967974307
 11
2274.201540006
 21
603.967974307
  0
LINE
  8
5
 62
7
  6
CONTINUOUS
 10
2104.201540006
 20
609.967974307
 11
2073.701540006
 21
609.967974307
  0
LINE
  8
5
 62
7
  6
CONTINUOUS
 10
2073.701540006
 20
955.967974307
 11
2104.201540006
 21
955.967974307
  0
LINE
  8
1
 62
7
  6
CONTINUOUS
 10
2248.201540006
 20
961.967974307
 11
2202.201540006
 21
961.967974307
  0
LINE
  8
5
 62
7
  6
CONTINUOUS
 10
2262.201540006
 20
609.967974307
 11
2274.201540006
 21
609.967974307
  0
LINE
  8
1
 62
7
  6
CONTINUOUS
 10
2248.201540006
 20
961.967974307
 11
2248.201540006
 21
927.467974307
  0
LINE
  8
1
 62
7
  6
CONTINUOUS
 10
2288.201540006
 20
638.467974307
 11
2288.201540006
 21
603.967974307
  0
LINE
  8
1
 62
7
  6
CONTINUOUS
 10
2288.201540006
 20
927.467974307
 11
2288.201540006
 21
961.967974307
  0
LINE
  8
1
 62
7
  6
CONTINUOUS
 10
2248.201540006
 20
603.967974307
 11
2248.201540006
 21
638.467974307
  0
LINE
  8
1
 62
7
  6
CONTINUOUS
 10
2248.201540006
 20
638.467974307
 11
2288.201540006
 21
638.467974307
  0
CIRCLE
  8
5
 62
1
  6
HIDDEN2
 10
2153.201540006
 20
137.349079897
 40
2.500000000
  0
LINE
  8
1
 62
7
  6
CONTINUOUS
 10
2326.101540006
 20
-117.650920103
 11
2326.101540006
 21
-110.650920103
  0
LINE
  8
1
 62
7
  6
CONTINUOUS
 10
2328.601540006
 20
-117.650920103
 11
2328.601540006
 21
-110.650920103
  0
LINE
  8
1
 62
7
  6
CONTINUOUS
 10
2268.201540006
 20
-99.650920103
 11
2487.223540006
 21
-99.650920103
  0
LINE
  8
1
 62
7
  6
CONTINUOUS
 10
2326.101540006
 20
-95.650920103
 11
2326.101540006
 21
-88.650920103
  0
LINE
  8
1
 62
7
  6
CONTINUOUS
 10
2328.601540006
 20
-95.650920103
 11
2328.601540006
 21
-88.650920103
  0
LINE
  8
1
 62
7
  6
CONTINUOUS
 10
2427.477053954
 20
-95.650920103
 11
2427.477053954
 21
-88.650920103
  0
LINE
  8
1
 62
7
  6
CONTINUOUS
 10
2268.201540006
 20
-95.650920103
 11
2487.223540006
 21
-95.650920103
  0
LINE
  8
1
 62
7
  6
CONTINUOUS
 10
2268.201540006
 20
-88.650920103
 11
2487.223540006
 21
-88.650920103
  0
LINE
  8
1
 62
7
  6
CONTINUOUS
 10
2326.101540006
 20
-84.650920103
 11
2326.101540006
 21
-77.650920103
  0
LINE
  8
1
 62
7
  6
CONTINUOUS
 10
2328.601540006
 20
-84.650920103
 11
2328.601540006
 21
-77.650920103
  0
LINE
  8
1
 62
7
  6
CONTINUOUS
 10
2427.477053954
 20
-84.650920103
 11
2427.477053954
 21
-77.650920103
  0
LINE
  8
2
 62
1
  6
HIDDEN2
 10
2105.201540006
 20
-212.350920103
 11
2104.001540006
 21
-212.350920103
  0
LINE
  8
2
 62
1
  6
HIDDEN2
 10
2105.201540006
 20
-226.350920103
 11
2105.201540006
 21
-212.350920103
  0
LINE
  8
2
 62
7
  6
CONTINUOUS
 10
2039.201540006
 20
-11.650920103
 11
2028.001540006
 21
-11.650920103
  0
LINE
  8
2
 62
7
  6
CONTINUOUS
 10
2028.001540006
 20
-11.650920103
 11
2028.001540006
 21
-60.650920103
  0
LINE
  8
2
 62
7
  6
CONTINUOUS
 10
2028.001540006
 20
-12.650920103
 11
2028.001540006
 21
-11.450920103
  0
LINE
  8
2
 62
7
  6
CONTINUOUS
 10
2028.001540006
 20
-11.450920103
 11
2026.001540006
 21
-11.450920103
  0
LINE
  8
2
 62
7
  6
CONTINUOUS
 10
2026.001540006
 20
-11.450920103
 11
2026.001540006
 21
-12.650920103
  0
LINE
  8
2
 62
1
  6
HIDDEN2
 10
2105.901540006
 20
-231.350920103
 11
2105.201540006
 21
-226.350920103
  0
LINE
  8
2
 62
1
  6
HIDDEN2
 10
2104.001540006
 20
-212.350920103
 11
2105.201540006
 21
-212.350920103
  0
LINE
  8
2
 62
1
  6
HIDDEN2
 10
2104.001540006
 20
-210.350920103
 11
2104.001540006
 21
-212.350920103
  0
LINE
  8
2
 62
1
  6
HIDDEN2
 10
2105.201540006
 20
-210.350920103
 11
2104.001540006
 21
-210.350920103
  0
LINE
  8
2
 62
1
  6
HIDDEN2
 10
2104.201540006
 20
-210.350920103
 11
2153.201540006
 21
-210.350920103
  0
LINE
  8
2
 62
7
  6
CONTINUOUS
 10
2007.001540006
 20
-13.350920103
 11
2012.001540006
 21
-12.650920103
  0
LINE
  8
2
 62
7
  6
CONTINUOUS
 10
2012.001540006
 20
-12.650920103
 11
2026.001540006
 21
-12.650920103
  0
LINE
  8
2
 62
7
  6
CONTINUOUS
 10
2026.001540006
 20
-12.650920103
 11
2026.001540006
 21
-11.450920103
  0
LINE
  8
2
 62
7
  6
CONTINUOUS
 10
2026.001540006
 20
-11.450920103
 11
2028.001540006
 21
-11.450920103
  0
LINE
  8
2
 62
7
  6
CONTINUOUS
 10
2028.001540006
 20
-11.450920103
 11
2028.001540006
 21
-12.650920103
  0
LINE
  8
2
 62
1
  6
HIDDEN2
 10
2104.201540006
 20
-199.650920103
 11
2104.201540006
 21
-210.350920103
  0
LINE
  8
2
 62
7
  6
CONTINUOUS
 10
2200.501540006
 20
190.048744791
 11
2105.901540006
 21
190.048744791
  0
LINE
  8
1
 62
1
  6
HIDDEN2
 10
2271.451540006
 20
-174.900920103
 11
2271.451540006
 21
-180.400920103
  0
LINE
  8
2
 62
7
  6
CONTINUOUS
 10
2202.401540006
 20
171.048744791
 11
2201.201540006
 21
171.048744791
  0
LINE
  8
2
 62
7
  6
CONTINUOUS
 10
2202.401540006
 20
169.048744791
 11
2201.201540006
 21
169.048744791
  0
LINE
  8
2
 62
7
  6
CONTINUOUS
 10
2202.401540006
 20
171.048744791
 11
2202.401540006
 21
169.048744791
  0
LINE
  8
2
 62
7
  6
CONTINUOUS
 10
2201.201540006
 20
169.048744791
 11
2202.401540006
 21
169.048744791
  0
LINE
  8
2
 62
7
  6
CONTINUOUS
 10
2201.201540006
 20
171.048744791
 11
2202.401540006
 21
171.048744791
  0
LINE
  8
2
 62
7
  6
CONTINUOUS
 10
2201.201540006
 20
185.048744791
 11
2201.201540006
 21
171.048744791
  0
LINE
  8
2
 62
7
  6
CONTINUOUS
 10
2039.201540006
 20
-109.650920103
 11
2028.001540006
 21
-109.650920103
  0
LINE
  8
2
 62
7
  6
CONTINUOUS
 10
2028.001540006
 20
-109.650920103
 11
2028.001540006
 21
-60.650920103
  0
LINE
  8
2
 62
7
  6
CONTINUOUS
 10
2200.501540006
 20
190.048744791
 11
2201.201540006
 21
185.048744791
  0
LINE
  8
2
 62
7
  6
CONTINUOUS
 10
2105.201540006
 20
171.048744791
 11
2201.201540006
 21
171.048744791
  0
LINE
  8
2
 62
7
  6
CONTINUOUS
 10
2202.401540006
 20
169.048744791
 11
2202.401540006
 21
171.048744791
  0
LINE
  8
2
 62
7
  6
CONTINUOUS
 10
2202.201540006
 20
169.048744791
 11
2153.201540006
 21
169.048744791
  0
LINE
  8
2
 62
7
  6
CONTINUOUS
 10
2202.201540006
 20
158.349079897
 11
2202.201540006
 21
169.048744791
  0
LINE
  8
2
 62
7
  6
CONTINUOUS
 10
2104.001540006
 20
169.048744791
 11
2105.201540006
 21
169.048744791
  0
LINE
  8
2
 62
7
  6
CONTINUOUS
 10
2104.001540006
 20
171.048744791
 11
2104.001540006
 21
169.048744791
  0
LINE
  8
2
 62
7
  6
CONTINUOUS
 10
2105.201540006
 20
171.048744791
 11
2104.001540006
 21
171.048744791
  0
LINE
  8
2
 62
7
  6
CONTINUOUS
 10
2028.001540006
 20
-109.850920103
 11
2026.001540006
 21
-109.850920103
  0
LINE
  8
2
 62
7
  6
CONTINUOUS
 10
2105.201540006
 20
185.048744791
 11
2105.201540006
 21
171.048744791
  0
LINE
  8
2
 62
1
  6
HIDDEN2
 10
2202.201540006
 20
-199.650920103
 11
2202.201540006
 21
-210.350920103
  0
LINE
  8
2
 62
7
  6
CONTINUOUS
 10
2026.001540006
 20
-12.650920103
 11
2026.001540006
 21
-108.650920103
  0
LINE
  8
2
 62
7
  6
CONTINUOUS
 10
2105.901540006
 20
190.048744791
 11
2105.201540006
 21
185.048744791
  0
LINE
  8
2
 62
7
  6
CONTINUOUS
 10
2007.001540006
 20
-107.950920103
 11
2012.001540006
 21
-108.650920103
  0
LINE
  8
2
 62
7
  6
CONTINUOUS
 10
2012.001540006
 20
-108.650920103
 11
2026.001540006
 21
-108.650920103
  0
LINE
  8
2
 62
7
  6
CONTINUOUS
 10
2026.001540006
 20
-108.650920103
 11
2026.001540006
 21
-109.850920103
  0
LINE
  8
2
 62
7
  6
CONTINUOUS
 10
2028.001540006
 20
-108.650920103
 11
2028.001540006
 21
-109.850920103
  0
LINE
  8
2
 62
7
  6
CONTINUOUS
 10
2026.001540006
 20
-109.850920103
 11
2028.001540006
 21
-109.850920103
  0
LINE
  8
2
 62
7
  6
CONTINUOUS
 10
2028.001540006
 20
-109.850920103
 11
2028.001540006
 21
-108.650920103
  0
LINE
  8
2
 62
7
  6
CONTINUOUS
 10
2026.001540006
 20
-109.850920103
 11
2026.001540006
 21
-108.650920103
  0
LINE
  8
2
 62
7
  6
CONTINUOUS
 10
2104.001540006
 20
171.048744791
 11
2105.201540006
 21
171.048744791
  0
LINE
  8
2
 62
7
  6
CONTINUOUS
 10
2104.001540006
 20
169.048744791
 11
2104.001540006
 21
171.048744791
  0
LINE
  8
2
 62
7
  6
CONTINUOUS
 10
2105.201540006
 20
169.048744791
 11
2104.001540006
 21
169.048744791
  0
LINE
  8
1
 62
1
  6
HIDDEN2
 10
2060.951540006
 20
103.599079897
 11
2055.451540006
 21
103.599079897
  0
ARC
  8
1
 62
1
  6
HIDDEN2
 10
2060.951540006
 20
101.349079897
 40
2.250000000
 50
270.000000000
 51
90.000000000
  0
LINE
  8
5
 62
2
  6
DASHDOT2
 10
2051.183057601
 20
101.349079897
 11
2066.232767625
 21
101.349079897
  0
LINE
  8
5
 62
2
  6
DASHDOT2
 10
2273.827948737
 20
136.349079897
 11
2262.115331981
 21
136.349079897
  0
LINE
  8
5
 62
2
  6
DASHDOT2
 10
2058.201540006
 20
106.975488628
 11
2058.201540006
 21
95.262871872
  0
LINE
  8
5
 62
2
  6
DASHDOT2
 10
2268.201540006
 20
142.367562303
 11
2268.201540006
 21
130.317852278
  0
LINE
  8
1
 62
1
  6
HIDDEN2
 10
2297.160088075
 20
-176.650920103
 11
2299.180814040
 21
-173.150920062
  0
CIRCLE
  8
1
 62
1
  6
HIDDEN2
 10
2301.201540006
 20
-176.650920103
 40
2.250000000
  0
CIRCLE
  8
1
 62
1
  6
HIDDEN2
 10
2301.201540006
 20
-176.650920103
 40
5.500000000
  0
ARC
  8
1
 62
1
  6
HIDDEN2
 10
2268.201540006
 20
-174.900920103
 40
3.250000000
 50
0.000000000
 51
180.000000000
  0
LINE
  8
1
 62
1
  6
HIDDEN2
 10
2264.951540006
 20
-180.400920103
 11
2264.951540006
 21
-174.900920103
  0
ARC
  8
1
 62
1
  6
HIDDEN2
 10
2475.451540006
 20
101.349079897
 40
2.250000000
 50
90.000000000
 51
270.000000000
  0
CIRCLE
  8
5
 62
1
  6
HIDDEN2
 10
2153.201540006
 20
-178.650920103
 40
2.500000000
  0
CIRCLE
  8
1
 62
1
  6
HIDDEN2
 10
2301.201540006
 20
135.349079897
 40
5.500000000
  0
CIRCLE
  8
5
 62
1
  6
HIDDEN2
 10
2478.201540006
 20
-20.650920103
 40
2.500000000
  0
LINE
  8
1
 62
1
  6
HIDDEN2
 10
2299.180814040
 20
-180.150920143
 11
2297.160088075
 21
-176.650920103
  0
LINE
  8
1
 62
1
  6
HIDDEN2
 10
2303.222265971
 20
-180.150920143
 11
2299.180814040
 21
-180.150920143
  0
LINE
  8
1
 62
1
  6
HIDDEN2
 10
2305.242991937
 20
-176.650920103
 11
2303.222265971
 21
-180.150920143
  0
LINE
  8
1
 62
1
  6
HIDDEN2
 10
2303.222265971
 20
-173.150920062
 11
2305.242991937
 21
-176.650920103
  0
LINE
  8
1
 62
1
  6
HIDDEN2
 10
2299.180814040
 20
-173.150920062
 11
2303.222265971
 21
-173.150920062
  0
ARC
  8
1
 62
1
  6
HIDDEN2
 10
2268.201540006
 20
-180.400920103
 40
3.250000000
 50
180.000000000
 51
0.000000000
  0
ARC
  8
9
 62
1
  6
HIDDEN
 10
2461.701540006
 20
122.849079897
 40
1.000000000
 50
0.000000000
 51
90.000000000
  0
ARC
  8
1
 62
1
  6
HIDDEN2
 10
2480.951540006
 20
101.349079897
 40
2.250000000
 50
270.000000000
 51
90.000000000
  0
LINE
  8
5
 62
2
  6
DASHDOT2
 10
2268.201540006
 20
-183.669402508
 11
2268.201540006
 21
-171.619692484
  0
LINE
  8
5
 62
2
  6
DASHDOT2
 10
2273.827948737
 20
-177.650920103
 11
2262.115331980
 21
-177.650920103
  0
LINE
  8
5
 62
2
  6
DASHDOT2
 10
2051.183057601
 20
-152.650920103
 11
2066.232767625
 21
-152.650920103
  0
ARC
  8
1
 62
1
  6
HIDDEN2
 10
2060.951540006
 20
-152.650920103
 40
2.250000000
 50
270.000000000
 51
90.000000000
  0
LINE
  8
1
 62
1
  6
HIDDEN2
 10
2060.951540006
 20
-154.900920103
 11
2055.451540006
 21
-154.900920103
  0
ARC
  8
1
 62
1
  6
HIDDEN2
 10
2055.451540006
 20
-152.650920103
 40
2.250000000
 50
90.000000000
 51
270.000000000
  0
LINE
  8
1
 62
1
  6
HIDDEN2
 10
2055.451540006
 20
99.099079897
 11
2060.951540006
 21
99.099079897
  0
LINE
  8
1
 62
1
  6
HIDDEN2
 10
2055.451540006
 20
-150.400920103
 11
2060.951540006
 21
-150.400920103
  0
LINE
  8
5
 62
2
  6
DASHDOT2
 10
2485.220022412
 20
-142.650920103
 11
2470.170312387
 21
-142.650920103
  0
ARC
  8
1
 62
1
  6
HIDDEN2
 10
2475.451540006
 20
-142.650920103
 40
2.250000000
 50
90.000000000
 51
270.000000000
  0
ARC
  8
1
 62
1
  6
HIDDEN2
 10
2055.451540006
 20
101.349079897
 40
2.250000000
 50
90.000000000
 51
270.000000000
  0
LINE
  8
1
 62
1
  6
HIDDEN2
 10
2475.451540006
 20
-144.900920103
 11
2480.951540006
 21
-144.900920103
  0
LINE
  8
7
 62
2
  6
DASHDOT2
 10
2268.201540006
 20
159.374169337
 11
2268.201540006
 21
54.731129956
  0
ARC
  8
1
 62
1
  6
HIDDEN2
 10
2480.951540006
 20
-142.650920103
 40
2.250000000
 50
270.000000000
 51
90.000000000
  0
LINE
  8
1
 62
1
  6
HIDDEN2
 10
2480.951540006
 20
-140.400920103
 11
2475.451540006
 21
-140.400920103
  0
LINE
  8
1
 62
1
  6
HIDDEN2
 10
2480.951540006
 20
99.099079897
 11
2475.451540006
 21
99.099079897
  0
LINE
  8
5
 62
2
  6
DASHDOT2
 10
2478.201540006
 20
106.975488628
 11
2478.201540006
 21
95.262871872
  0
LINE
  8
5
 62
2
  6
DASHDOT2
 10
2485.220022412
 20
101.349079897
 11
2470.170312387
 21
101.349079897
  0
LINE
  8
1
 62
7
  6
CONTINUOUS
 10
2248.201540006
 20
158.349079897
 11
2248.201540006
 21
171.849079897
  0
LINE
  8
1
 62
7
  6
CONTINUOUS
 10
2274.201540006
 20
158.349079897
 11
2274.201540006
 21
171.849079897
  0
LINE
  8
1
 62
1
  6
HIDDEN2
 10
2475.451540006
 20
103.599079897
 11
2480.951540006
 21
103.599079897
  0
LINE
  8
1
 62
7
  6
CONTINUOUS
 10
2274.201540006
 20
170.649079897
 11
2288.201540006
 21
170.649079897
  0
LINE
  8
1
 62
7
  6
CONTINUOUS
 10
2274.201540006
 20
171.849079897
 11
2288.201540006
 21
171.849079897
  0
LINE
  8
1
 62
1
  6
HIDDEN2
 10
2262.201540006
 20
158.349079897
 11
2262.201540006
 21
139.349079897
  0
LINE
  8
1
 62
2
  6
DASHDOT2
 10
2268.201540006
 20
174.892032544
 11
2268.201540006
 21
118.614548404
  0
LINE
  8
1
 62
1
  6
HIDDEN2
 10
2274.201540006
 20
139.349079897
 11
2274.201540006
 21
158.349079897
  0
LINE
  8
1
 62
7
  6
CONTINUOUS
 10
2262.201540006
 20
171.849079897
 11
2262.201540006
 21
158.349079897
  0
ARC
  8
1
 62
1
  6
HIDDEN2
 10
2268.201540006
 20
139.349079897
 40
6.000000000
 50
180.000000000
 51
0.000000000
  0
LINE
  8
1
 62
7
  6
CONTINUOUS
 10
2248.201540006
 20
170.649079897
 11
2262.201540006
 21
170.649079897
  0
LINE
  8
1
 62
7
  6
CONTINUOUS
 10
2288.201540006
 20
-213.150920103
 11
2288.201540006
 21
-199.650920103
  0
LINE
  8
1
 62
7
  6
CONTINUOUS
 10
2248.201540006
 20
-213.150920103
 11
2262.201540006
 21
-213.150920103
  0
LINE
  8
1
 62
1
  6
HIDDEN2
 10
2248.201540006
 20
123.849079897
 11
2288.201540006
 21
123.849079897
  0
LINE
  8
1
 62
1
  6
HIDDEN2
 10
2248.201540006
 20
158.349079897
 11
2248.201540006
 21
123.849079897
  0
LINE
  8
1
 62
1
  6
HIDDEN2
 10
2288.201540006
 20
-165.150920103
 11
2288.201540006
 21
-199.650920103
  0
LINE
  8
1
 62
1
  6
HIDDEN2
 10
2288.201540006
 20
123.849079897
 11
2288.201540006
 21
158.349079897
  0
LINE
  8
1
 62
7
  6
CONTINUOUS
 10
2248.201540006
 20
171.849079897
 11
2262.201540006
 21
171.849079897
  0
LINE
  8
1
 62
7
  6
CONTINUOUS
 10
2288.201540006
 20
171.849079897
 11
2288.201540006
 21
158.349079897
  0
LINE
  8
1
 62
1
  6
HIDDEN2
 10
2248.201540006
 20
-199.650920103
 11
2248.201540006
 21
-165.150920103
  0
LINE
  8
1
 62
7
  6
CONTINUOUS
 10
2248.201540006
 20
158.349079897
 11
2467.201540006
 21
158.349079897
  0
LINE
  8
1
 62
1
  6
HIDDEN2
 10
2248.201540006
 20
-165.150920103
 11
2288.201540006
 21
-165.150920103
  0
LINE
  8
1
 62
7
  6
CONTINUOUS
 10
2248.201540006
 20
-211.950920103
 11
2262.201540006
 21
-211.950920103
  0
ARC
  8
1
 62
1
  6
HIDDEN2
 10
2268.201540006
 20
-180.650920103
 40
6.000000000
 50
0.000000000
 51
180.000000000
  0
LINE
  8
1
 62
7
  6
CONTINUOUS
 10
2262.201540006
 20
-213.150920103
 11
2262.201540006
 21
-199.650920103
  0
LINE
  8
1
 62
1
  6
HIDDEN2
 10
2274.201540006
 20
-180.650920103
 11
2274.201540006
 21
-199.650920103
  0
LINE
  8
1
 62
2
  6
DASHDOT2
 10
2268.201540006
 20
-216.193872749
 11
2268.201540006
 21
-159.916388610
  0
CIRCLE
  8
5
 62
1
  6
HIDDEN2
 10
2060.201540006
 20
-60.650920103
 40
2.250000000
  0
LINE
  8
1
 62
7
  6
CONTINUOUS
 10
2274.201540006
 20
-213.150920103
 11
2288.201540006
 21
-213.150920103
  0
LINE
  8
1
 62
7
  6
CONTINUOUS
 10
2274.201540006
 20
-211.950920103
 11
2288.201540006
 21
-211.950920103
  0
LINE
  8
1
 62
1
  6
HIDDEN2
 10
2262.201540006
 20
-199.650920103
 11
2262.201540006
 21
-180.650920103
  0
LINE
  8
1
 62
7
  6
CONTINUOUS
 10
2274.201540006
 20
-199.650920103
 11
2274.201540006
 21
-213.150920103
  0
LINE
  8
1
 62
7
  6
CONTINUOUS
 10
2248.201540006
 20
-199.650920103
 11
2248.201540006
 21
-213.150920103
  0
LINE
  8
2
 62
1
  6
HIDDEN2
 10
2201.201540006
 20
-212.350920103
 11
2202.401540006
 21
-212.350920103
  0
LINE
  8
2
 62
1
  6
HIDDEN2
 10
2201.201540006
 20
-210.350920103
 11
2202.401540006
 21
-210.350920103
  0
LINE
  8
2
 62
1
  6
HIDDEN2
 10
2202.401540006
 20
-212.350920103
 11
2202.401540006
 21
-210.350920103
  0
LINE
  8
2
 62
1
  6
HIDDEN2
 10
2202.401540006
 20
-210.350920103
 11
2201.201540006
 21
-210.350920103
  0
LINE
  8
2
 62
7
  6
CONTINUOUS
 10
2007.001540006
 20
-107.950920103
 11
2007.001540006
 21
-13.350920103
  0
LINE
  8
5
 62
2
  6
DASHDOT2
 10
2153.201540006
 20
199.017175793
 11
2153.201540006
 21
153.135661042
  0
LINE
  8
2
 62
1
  6
HIDDEN2
 10
2202.401540006
 20
-212.350920103
 11
2201.201540006
 21
-212.350920103
  0
LINE
  8
2
 62
1
  6
HIDDEN2
 10
2200.501540006
 20
-231.350920103
 11
2105.901540006
 21
-231.350920103
  0
LINE
  8
5
 62
2
  6
DASHDOT2
 10
2153.201540006
 20
-239.278975185
 11
2153.201540006
 21
-189.910654221
  0
LINE
  8
2
 62
1
  6
HIDDEN2
 10
2202.401540006
 20
-210.350920103
 11
2202.401540006
 21
-212.350920103
  0
LINE
  8
2
 62
1
  6
HIDDEN2
 10
2105.201540006
 20
-212.350920103
 11
2201.201540006
 21
-212.350920103
  0
LINE
  8
2
 62
1
  6
HIDDEN2
 10
2200.501540006
 20
-231.350920103
 11
2201.201540006
 21
-226.350920103
  0
LINE
  8
2
 62
1
  6
HIDDEN2
 10
2201.201540006
 20
-226.350920103
 11
2201.201540006
 21
-212.350920103
  0
LINE
  8
1
 62
7
  6
CONTINUOUS
 10
2268.201540006
 20
-84.650920103
 11
2487.223540006
 21
-84.650920103
  0
LINE
  8
1
 62
7
  6
CONTINUOUS
 10
2268.201540006
 20
-77.650920103
 11
2487.223540006
 21
-77.650920103
  0
LINE
  8
1
 62
7
  6
CONTINUOUS
 10
2326.101540006
 20
-73.650920103
 11
2326.101540006
 21
-66.650920103
  0
LINE
  8
1
 62
7
  6
CONTINUOUS
 10
2328.601540006
 20
-73.650920103
 11
2328.601540006
 21
-66.650920103
  0
LINE
  8
1
 62
7
  6
CONTINUOUS
 10
2427.477053954
 20
-73.650920103
 11
2427.477053954
 21
-66.650920103
  0
LINE
  8
1
 62
7
  6
CONTINUOUS
 10
2268.201540006
 20
-73.650920103
 11
2487.223540006
 21
-73.650920103
  0
LINE
  8
1
 62
7
  6
CONTINUOUS
 10
2268.201540006
 20
-66.650920103
 11
2487.223540006
 21
-66.650920103
  0
LINE
  8
1
 62
7
  6
CONTINUOUS
 10
2326.101540006
 20
-62.650920103
 11
2326.101540006
 21
-55.650920103
  0
LINE
  8
1
 62
7
  6
CONTINUOUS
 10
2328.601540006
 20
-62.650920103
 11
2328.601540006
 21
-55.650920103
  0
LINE
  8
1
 62
7
  6
CONTINUOUS
 10
2427.477053954
 20
-62.650920103
 11
2427.477053954
 21
-55.650920103
  0
LINE
  8
1
 62
7
  6
CONTINUOUS
 10
2268.201540006
 20
-62.650920103
 11
2487.223540006
 21
-62.650920103
  0
LINE
  8
1
 62
7
  6
CONTINUOUS
 10
2268.201540006
 20
-55.650920103
 11
2487.223540006
 21
-55.650920103
  0
LINE
  8
1
 62
7
  6
CONTINUOUS
 10
2326.101540006
 20
-51.650920103
 11
2326.101540006
 21
-44.650920103
  0
LINE
  8
1
 62
7
  6
CONTINUOUS
 10
2328.601540006
 20
-51.650920103
 11
2328.601540006
 21
-44.650920103
  0
LINE
  8
1
 62
7
  6
CONTINUOUS
 10
2427.477053954
 20
-51.650920103
 11
2427.477053954
 21
-44.650920103
  0
LINE
  8
1
 62
7
  6
CONTINUOUS
 10
2268.201540006
 20
-51.650920103
 11
2487.223540006
 21
-51.650920103
  0
LINE
  8
1
 62
7
  6
CONTINUOUS
 10
2268.201540006
 20
-44.650920103
 11
2487.223540006
 21
-44.650920103
  0
LINE
  8
2
 62
2
  6
DASHDOT2
 10
1994.839429835
 20
-20.650920103
 11
2515.298726149
 21
-20.650920103
  0
LINE
  8
1
 62
7
  6
CONTINUOUS
 10
2108.926026058
 20
109.349079897
 11
2108.926026058
 21
102.349079897
  0
LINE
  8
1
 62
7
  6
CONTINUOUS
 10
2268.201540006
 20
109.349079897
 11
2049.179540006
 21
109.349079897
  0
LINE
  8
1
 62
7
  6
CONTINUOUS
 10
2268.201540006
 20
102.349079897
 11
2049.179540006
 21
102.349079897
  0
LINE
  8
1
 62
7
  6
CONTINUOUS
 10
2108.926026058
 20
98.349079897
 11
2108.926026058
 21
91.349079897
  0
LINE
  8
1
 62
7
  6
CONTINUOUS
 10
2268.201540006
 20
98.349079897
 11
2049.179540006
 21
98.349079897
  0
LINE
  8
1
 62
7
  6
CONTINUOUS
 10
2268.201540006
 20
91.349079897
 11
2049.179540006
 21
91.349079897
  0
ARC
  8
1
 62
7
  6
CONTINUOUS
 10
2467.201540006
 20
128.349079897
 40
30.000000000
 50
0.000000000
 51
90.000000000
  0
ARC
  8
1
 62
7
  6
CONTINUOUS
 10
2069.201540006
 20
128.349079897
 40
30.000000000
 50
90.000000000
 51
180.000000000
  0
ARC
  8
1
 62
7
  6
CONTINUOUS
 10
2467.201540006
 20
-169.650920103
 40
30.000000000
 50
270.000000000
 51
0.000000000
  0
ARC
  8
1
 62
7
  6
CONTINUOUS
 10
2069.201540006
 20
-169.650920103
 40
30.000000000
 50
180.000000000
 51
270.000000000
  0
LINE
  8
1
 62
7
  6
CONTINUOUS
 10
2039.201540006
 20
-169.650920103
 11
2039.201540006
 21
128.349079897
  0
LINE
  8
1
 62
7
  6
CONTINUOUS
 10
2467.201540006
 20
-199.650920103
 11
2069.201540006
 21
-199.650920103
  0
LINE
  8
1
 62
7
  6
CONTINUOUS
 10
2497.201540006
 20
128.349079897
 11
2497.201540006
 21
-169.650920103
  0
LINE
  8
1
 62
7
  6
CONTINUOUS
 10
2268.201540006
 20
-33.650920103
 11
2487.223540006
 21
-33.650920103
  0
LINE
  8
1
 62
7
  6
CONTINUOUS
 10
2069.201540006
 20
158.349079897
 11
2248.201540006
 21
158.349079897
  0
LINE
  8
1
 62
7
  6
CONTINUOUS
 10
2268.201540006
 20
-40.650920103
 11
2487.223540006
 21
-40.650920103
  0
LINE
  8
1
 62
7
  6
CONTINUOUS
 10
2427.477053954
 20
-40.650920103
 11
2427.477053954
 21
-33.650920103
  0
LINE
  8
1
 62
7
  6
CONTINUOUS
 10
2328.601540006
 20
-40.650920103
 11
2328.601540006
 21
-33.650920103
  0
LINE
  8
2
 62
2
  6
DASHDOT2
 10
2268.201540006
 20
170.176033753
 11
2268.201540006
 21
-209.898385471
  0
LINE
  8
1
 62
7
  6
CONTINUOUS
 10
2326.101540006
 20
-40.650920103
 11
2326.101540006
 21
-33.650920103
  0
LINE
  8
1
 62
7
  6
CONTINUOUS
 10
2326.101540006
 20
-29.650920103
 11
2326.101540006
 21
-22.650920103
  0
LINE
  8
1
 62
7
  6
CONTINUOUS
 10
2328.601540006
 20
-29.650920103
 11
2328.601540006
 21
-22.650920103
  0
LINE
  8
1
 62
7
  6
CONTINUOUS
 10
2427.477053954
 20
-29.650920103
 11
2427.477053954
 21
-22.650920103
  0
LINE
  8
1
 62
7
  6
CONTINUOUS
 10
2268.201540006
 20
-18.650920103
 11
2487.223540006
 21
-18.650920103
  0
LINE
  8
1
 62
7
  6
CONTINUOUS
 10
2108.926026058
 20
87.349079897
 11
2108.926026058
 21
80.349079897
  0
LINE
  8
1
 62
7
  6
CONTINUOUS
 10
2268.201540006
 20
87.349079897
 11
2049.179540006
 21
87.349079897
  0
LINE
  8
1
 62
7
  6
CONTINUOUS
 10
2268.201540006
 20
80.349079897
 11
2049.179540006
 21
80.349079897
  0
LINE
  8
1
 62
7
  6
CONTINUOUS
 10
2108.926026058
 20
76.349079897
 11
2108.926026058
 21
69.349079897
  0
LINE
  8
1
 62
7
  6
CONTINUOUS
 10
2268.201540006
 20
76.349079897
 11
2049.179540006
 21
76.349079897
  0
LINE
  8
1
 62
7
  6
CONTINUOUS
 10
2268.201540006
 20
69.349079897
 11
2049.179540006
 21
69.349079897
  0
LINE
  8
1
 62
7
  6
CONTINUOUS
 10
2108.926026058
 20
65.349079897
 11
2108.926026058
 21
58.349079897
  0
LINE
  8
1
 62
7
  6
CONTINUOUS
 10
2268.201540006
 20
65.349079897
 11
2049.179540006
 21
65.349079897
  0
LINE
  8
1
 62
7
  6
CONTINUOUS
 10
2268.201540006
 20
58.349079897
 11
2049.179540006
 21
58.349079897
  0
LINE
  8
1
 62
7
  6
CONTINUOUS
 10
2108.926026058
 20
54.349079897
 11
2108.926026058
 21
47.349079897
  0
LINE
  8
1
 62
7
  6
CONTINUOUS
 10
2268.201540006
 20
54.349079897
 11
2049.179540006
 21
54.349079897
  0
LINE
  8
1
 62
7
  6
CONTINUOUS
 10
2268.201540006
 20
47.349079897
 11
2049.179540006
 21
47.349079897
  0
LINE
  8
1
 62
7
  6
CONTINUOUS
 10
2108.926026058
 20
43.349079897
 11
2108.926026058
 21
36.349079897
  0
LINE
  8
1
 62
7
  6
CONTINUOUS
 10
2268.201540006
 20
43.349079897
 11
2049.179540006
 21
43.349079897
  0
LINE
  8
1
 62
7
  6
CONTINUOUS
 10
2268.201540006
 20
36.349079897
 11
2049.179540006
 21
36.349079897
  0
LINE
  8
1
 62
7
  6
CONTINUOUS
 10
2108.926026058
 20
32.349079897
 11
2108.926026058
 21
25.349079897
  0
LINE
  8
1
 62
7
  6
CONTINUOUS
 10
2268.201540006
 20
32.349079897
 11
2049.179540006
 21
32.349079897
  0
LINE
  8
1
 62
7
  6
CONTINUOUS
 10
2268.201540006
 20
25.349079897
 11
2049.179540006
 21
25.349079897
  0
LINE
  8
1
 62
7
  6
CONTINUOUS
 10
2108.926026058
 20
21.349079897
 11
2108.926026058
 21
14.349079897
  0
LINE
  8
1
 62
7
  6
CONTINUOUS
 10
2268.201540006
 20
21.349079897
 11
2049.179540006
 21
21.349079897
  0
LINE
  8
1
 62
7
  6
CONTINUOUS
 10
2268.201540006
 20
14.349079897
 11
2049.179540006
 21
14.349079897
  0
LINE
  8
1
 62
7
  6
CONTINUOUS
 10
2108.926026058
 20
10.349079897
 11
2108.926026058
 21
3.349079897
  0
LINE
  8
1
 62
7
  6
CONTINUOUS
 10
2268.201540006
 20
10.349079897
 11
2049.179540006
 21
10.349079897
  0
LINE
  8
1
 62
7
  6
CONTINUOUS
 10
2268.201540006
 20
3.349079897
 11
2049.179540006
 21
3.349079897
  0
LINE
  8
1
 62
7
  6
CONTINUOUS
 10
2268.201540006
 20
-7.650920103
 11
2049.179540006
 21
-7.650920103
  0
LINE
  8
1
 62
7
  6
CONTINUOUS
 10
2268.201540006
 20
-0.650920103
 11
2049.179540006
 21
-0.650920103
  0
LINE
  8
1
 62
7
  6
CONTINUOUS
 10
2108.926026058
 20
-0.650920103
 11
2108.926026058
 21
-7.650920103
  0
LINE
  8
1
 62
7
  6
CONTINUOUS
 10
2108.926026058
 20
-11.650920103
 11
2108.926026058
 21
-18.650920103
  0
LINE
  8
1
 62
7
  6
CONTINUOUS
 10
2268.201540006
 20
-11.650920103
 11
2049.179540006
 21
-11.650920103
  0
LINE
  8
1
 62
7
  6
CONTINUOUS
 10
2049.179540006
 20
-22.650920103
 11
2268.201540006
 21
-22.650920103
  0
LINE
  8
1
 62
7
  6
CONTINUOUS
 10
2268.201540006
 20
-18.650920103
 11
2049.179540006
 21
-18.650920103
  0
LINE
  8
1
 62
7
  6
CONTINUOUS
 10
2108.926026058
 20
-150.650920103
 11
2108.926026058
 21
-143.650920103
  0
LINE
  8
1
 62
7
  6
CONTINUOUS
 10
2268.201540006
 20
-150.650920103
 11
2049.179540006
 21
-150.650920103
  0
LINE
  8
1
 62
7
  6
CONTINUOUS
 10
2268.201540006
 20
-143.650920103
 11
2049.179540006
 21
-143.650920103
  0
LINE
  8
1
 62
7
  6
CONTINUOUS
 10
2108.926026058
 20
-139.650920103
 11
2108.926026058
 21
-132.650920103
  0
LINE
  8
1
 62
7
  6
CONTINUOUS
 10
2268.201540006
 20
-139.650920103
 11
2049.179540006
 21
-139.650920103
  0
LINE
  8
1
 62
7
  6
CONTINUOUS
 10
2268.201540006
 20
-132.650920103
 11
2049.179540006
 21
-132.650920103
  0
LINE
  8
1
 62
7
  6
CONTINUOUS
 10
2108.926026058
 20
-128.650920103
 11
2108.926026058
 21
-121.650920103
  0
LINE
  8
1
 62
7
  6
CONTINUOUS
 10
2268.201540006
 20
-128.650920103
 11
2049.179540006
 21
-128.650920103
  0
LINE
  8
1
 62
7
  6
CONTINUOUS
 10
2268.201540006
 20
-121.650920103
 11
2049.179540006
 21
-121.650920103
  0
LINE
  8
1
 62
7
  6
CONTINUOUS
 10
2108.926026058
 20
-117.650920103
 11
2108.926026058
 21
-110.650920103
  0
LINE
  8
1
 62
7
  6
CONTINUOUS
 10
2268.201540006
 20
-117.650920103
 11
2049.179540006
 21
-117.650920103
  0
LINE
  8
1
 62
7
  6
CONTINUOUS
 10
2268.201540006
 20
-110.650920103
 11
2049.179540006
 21
-110.650920103
  0
LINE
  8
1
 62
7
  6
CONTINUOUS
 10
2108.926026058
 20
-106.650920103
 11
2108.926026058
 21
-99.650920103
  0
LINE
  8
1
 62
7
  6
CONTINUOUS
 10
2268.201540006
 20
-106.650920103
 11
2049.179540006
 21
-106.650920103
  0
LINE
  8
1
 62
7
  6
CONTINUOUS
 10
2268.201540006
 20
-99.650920103
 11
2049.179540006
 21
-99.650920103
  0
LINE
  8
1
 62
7
  6
CONTINUOUS
 10
2108.926026058
 20
-95.650920103
 11
2108.926026058
 21
-88.650920103
  0
LINE
  8
1
 62
7
  6
CONTINUOUS
 10
2268.201540006
 20
-95.650920103
 11
2049.179540006
 21
-95.650920103
  0
LINE
  8
1
 62
7
  6
CONTINUOUS
 10
2268.201540006
 20
-88.650920103
 11
2049.179540006
 21
-88.650920103
  0
LINE
  8
1
 62
7
  6
CONTINUOUS
 10
2108.926026058
 20
-84.650920103
 11
2108.926026058
 21
-77.650920103
  0
LINE
  8
1
 62
7
  6
CONTINUOUS
 10
2268.201540006
 20
-84.650920103
 11
2049.179540006
 21
-84.650920103
  0
LINE
  8
1
 62
7
  6
CONTINUOUS
 10
2268.201540006
 20
-77.650920103
 11
2049.179540006
 21
-77.650920103
  0
LINE
  8
1
 62
7
  6
CONTINUOUS
 10
2108.926026058
 20
-73.650920103
 11
2108.926026058
 21
-66.650920103
  0
LINE
  8
1
 62
7
  6
CONTINUOUS
 10
2268.201540006
 20
-73.650920103
 11
2049.179540006
 21
-73.650920103
  0
LINE
  8
1
 62
7
  6
CONTINUOUS
 10
2268.201540006
 20
-66.650920103
 11
2049.179540006
 21
-66.650920103
  0
LINE
  8
1
 62
7
  6
CONTINUOUS
 10
2108.926026058
 20
-62.650920103
 11
2108.926026058
 21
-55.650920103
  0
LINE
  8
1
 62
7
  6
CONTINUOUS
 10
2268.201540006
 20
-62.650920103
 11
2049.179540006
 21
-62.650920103
  0
LINE
  8
1
 62
7
  6
CONTINUOUS
 10
2268.201540006
 20
-55.650920103
 11
2049.179540006
 21
-55.650920103
  0
LINE
  8
1
 62
7
  6
CONTINUOUS
 10
2108.926026058
 20
-51.650920103
 11
2108.926026058
 21
-44.650920103
  0
LINE
  8
1
 62
7
  6
CONTINUOUS
 10
2268.201540006
 20
-51.650920103
 11
2049.179540006
 21
-51.650920103
  0
LINE
  8
1
 62
7
  6
CONTINUOUS
 10
2268.201540006
 20
-44.650920103
 11
2049.179540006
 21
-44.650920103
  0
LINE
  8
1
 62
7
  6
CONTINUOUS
 10
2268.201540006
 20
-33.650920103
 11
2049.179540006
 21
-33.650920103
  0
LINE
  8
1
 62
7
  6
CONTINUOUS
 10
2268.201540006
 20
-40.650920103
 11
2049.179540006
 21
-40.650920103
  0
LINE
  8
1
 62
7
  6
CONTINUOUS
 10
2108.926026058
 20
-40.650920103
 11
2108.926026058
 21
-33.650920103
  0
LINE
  8
1
 62
7
  6
CONTINUOUS
 10
2108.926026058
 20
-29.650920103
 11
2108.926026058
 21
-22.650920103
  0
LINE
  8
1
 62
7
  6
CONTINUOUS
 10
2268.201540006
 20
-29.650920103
 11
2049.179540006
 21
-29.650920103
  0
LINE
  8
1
 62
7
  6
CONTINUOUS
 10
2049.179540006
 20
-18.650920103
 11
2268.201540006
 21
-18.650920103
  0
LINE
  8
1
 62
7
  6
CONTINUOUS
 10
2268.201540006
 20
-22.650920103
 11
2049.179540006
 21
-22.650920103
  0
LINE
  8
1
 62
7
  6
CONTINUOUS
 10
2326.101540006
 20
-150.650920103
 11
2326.101540006
 21
-143.650920103
  0
LINE
  8
1
 62
7
  6
CONTINUOUS
 10
2427.477053954
 20
-150.650920103
 11
2427.477053954
 21
-143.650920103
  0
LINE
  8
1
 62
7
  6
CONTINUOUS
 10
2268.201540006
 20
-150.650920103
 11
2487.223540006
 21
-150.650920103
  0
LINE
  8
1
 62
7
  6
CONTINUOUS
 10
2268.201540006
 20
-143.650920103
 11
2487.223540006
 21
-143.650920103
  0
LINE
  8
1
 62
7
  6
CONTINUOUS
 10
2326.101540006
 20
-139.650920103
 11
2326.101540006
 21
-132.650920103
  0
LINE
  8
1
 62
7
  6
CONTINUOUS
 10
2427.477053954
 20
-139.650920103
 11
2427.477053954
 21
-132.650920103
  0
LINE
  8
1
 62
7
  6
CONTINUOUS
 10
2268.201540006
 20
-139.650920103
 11
2487.223540006
 21
-139.650920103
  0
LINE
  8
1
 62
7
  6
CONTINUOUS
 10
2268.201540006
 20
-132.650920103
 11
2487.223540006
 21
-132.650920103
  0
LINE
  8
1
 62
7
  6
CONTINUOUS
 10
2326.101540006
 20
-128.650920103
 11
2326.101540006
 21
-121.650920103
  0
LINE
  8
1
 62
7
  6
CONTINUOUS
 10
2328.601540006
 20
-128.650920103
 11
2328.601540006
 21
-121.650920103
  0
LINE
  8
1
 62
7
  6
CONTINUOUS
 10
2427.477053954
 20
-128.650920103
 11
2427.477053954
 21
-121.650920103
  0
LINE
  8
1
 62
7
  6
CONTINUOUS
 10
2268.201540006
 20
-128.650920103
 11
2487.223540006
 21
-128.650920103
  0
LINE
  8
1
 62
7
  6
CONTINUOUS
 10
2268.201540006
 20
-121.650920103
 11
2487.223540006
 21
-121.650920103
  0
LINE
  8
1
 62
7
  6
CONTINUOUS
 10
2487.223540006
 20
-22.650920103
 11
2268.201540006
 21
-22.650920103
  0
LINE
  8
1
 62
7
  6
CONTINUOUS
 10
2268.201540006
 20
-29.650920103
 11
2487.223540006
 21
-29.650920103
  0
LINE
  8
1
 62
7
  6
CONTINUOUS
 10
2487.223540006
 20
-18.650920103
 11
2268.201540006
 21
-18.650920103
  0
LINE
  8
1
 62
7
  6
CONTINUOUS
 10
2268.201540006
 20
-11.650920103
 11
2487.223540006
 21
-11.650920103
  0
LINE
  8
1
 62
7
  6
CONTINUOUS
 10
2427.477053954
 20
-11.650920103
 11
2427.477053954
 21
-18.650920103
  0
LINE
  8
1
 62
7
  6
CONTINUOUS
 10
2328.601540006
 20
-11.650920103
 11
2328.601540006
 21
-18.650920103
  0
LINE
  8
1
 62
7
  6
CONTINUOUS
 10
2326.101540006
 20
-11.650920103
 11
2326.101540006
 21
-18.650920103
  0
LINE
  8
2
 62
2
  6
DASHDOT2
 10
1994.839429835
 20
-60.650920103
 11
2045.687557344
 21
-60.650920103
  0
LINE
  8
2
 62
7
  6
CONTINUOUS
 10
2104.201540006
 20
169.048744791
 11
2153.201540006
 21
169.048744791
  0
LINE
  8
2
 62
7
  6
CONTINUOUS
 10
2104.201540006
 20
158.349079897
 11
2104.201540006
 21
169.048744791
  0
LINE
  8
2
 62
1
  6
HIDDEN2
 10
2104.001540006
 20
-212.350920103
 11
2104.001540006
 21
-210.350920103
  0
LINE
  8
2
 62
1
  6
HIDDEN2
 10
2202.201540006
 20
-210.350920103
 11
2153.201540006
 21
-210.350920103
  0
LINE
  8
2
 62
1
  6
HIDDEN2
 10
2104.001540006
 20
-210.350920103
 11
2105.201540006
 21
-210.350920103
  0
LINE
  8
1
 62
7
  6
CONTINUOUS
 10
2326.101540006
 20
-0.650920103
 11
2326.101540006
 21
-7.650920103
  0
LINE
  8
1
 62
7
  6
CONTINUOUS
 10
2328.601540006
 20
-0.650920103
 11
2328.601540006
 21
-7.650920103
  0
LINE
  8
1
 62
7
  6
CONTINUOUS
 10
2427.477053954
 20
-0.650920103
 11
2427.477053954
 21
-7.650920103
  0
LINE
  8
1
 62
7
  6
CONTINUOUS
 10
2268.201540006
 20
-0.650920103
 11
2487.223540006
 21
-0.650920103
  0
LINE
  8
1
 62
7
  6
CONTINUOUS
 10
2268.201540006
 20
-7.650920103
 11
2487.223540006
 21
-7.650920103
  0
LINE
  8
1
 62
7
  6
CONTINUOUS
 10
2268.201540006
 20
3.349079897
 11
2487.223540006
 21
3.349079897
  0
LINE
  8
1
 62
7
  6
CONTINUOUS
 10
2268.201540006
 20
10.349079897
 11
2487.223540006
 21
10.349079897
  0
LINE
  8
1
 62
7
  6
CONTINUOUS
 10
2427.477053954
 20
10.349079897
 11
2427.477053954
 21
3.349079897
  0
LINE
  8
1
 62
7
  6
CONTINUOUS
 10
2328.601540006
 20
10.349079897
 11
2328.601540006
 21
3.349079897
  0
LINE
  8
1
 62
7
  6
CONTINUOUS
 10
2326.101540006
 20
10.349079897
 11
2326.101540006
 21
3.349079897
  0
LINE
  8
1
 62
7
  6
CONTINUOUS
 10
2268.201540006
 20
14.349079897
 11
2487.223540006
 21
14.349079897
  0
LINE
  8
1
 62
7
  6
CONTINUOUS
 10
2268.201540006
 20
21.349079897
 11
2487.223540006
 21
21.349079897
  0
LINE
  8
1
 62
7
  6
CONTINUOUS
 10
2427.477053954
 20
21.349079897
 11
2427.477053954
 21
14.349079897
  0
LINE
  8
1
 62
7
  6
CONTINUOUS
 10
2328.601540006
 20
21.349079897
 11
2328.601540006
 21
14.349079897
  0
LINE
  8
1
 62
7
  6
CONTINUOUS
 10
2326.101540006
 20
21.349079897
 11
2326.101540006
 21
14.349079897
  0
LINE
  8
1
 62
7
  6
CONTINUOUS
 10
2268.201540006
 20
25.349079897
 11
2487.223540006
 21
25.349079897
  0
LINE
  8
1
 62
7
  6
CONTINUOUS
 10
2268.201540006
 20
32.349079897
 11
2487.223540006
 21
32.349079897
  0
LINE
  8
1
 62
7
  6
CONTINUOUS
 10
2427.477053954
 20
32.349079897
 11
2427.477053954
 21
25.349079897
  0
LINE
  8
1
 62
7
  6
CONTINUOUS
 10
2328.601540006
 20
32.349079897
 11
2328.601540006
 21
25.349079897
  0
LINE
  8
1
 62
7
  6
CONTINUOUS
 10
2326.101540006
 20
32.349079897
 11
2326.101540006
 21
25.349079897
  0
LINE
  8
1
 62
7
  6
CONTINUOUS
 10
2268.201540006
 20
36.349079897
 11
2487.223540006
 21
36.349079897
  0
LINE
  8
1
 62
7
  6
CONTINUOUS
 10
2268.201540006
 20
43.349079897
 11
2487.223540006
 21
43.349079897
  0
LINE
  8
1
 62
7
  6
CONTINUOUS
 10
2427.477053954
 20
43.349079897
 11
2427.477053954
 21
36.349079897
  0
LINE
  8
1
 62
7
  6
CONTINUOUS
 10
2328.601540006
 20
43.349079897
 11
2328.601540006
 21
36.349079897
  0
LINE
  8
1
 62
7
  6
CONTINUOUS
 10
2326.101540006
 20
43.349079897
 11
2326.101540006
 21
36.349079897
  0
LINE
  8
1
 62
7
  6
CONTINUOUS
 10
2268.201540006
 20
47.349079897
 11
2487.223540006
 21
47.349079897
  0
LINE
  8
1
 62
7
  6
CONTINUOUS
 10
2268.201540006
 20
54.349079897
 11
2487.223540006
 21
54.349079897
  0
LINE
  8
1
 62
7
  6
CONTINUOUS
 10
2427.477053954
 20
54.349079897
 11
2427.477053954
 21
47.349079897
  0
LINE
  8
1
 62
7
  6
CONTINUOUS
 10
2328.601540006
 20
54.349079897
 11
2328.601540006
 21
47.349079897
  0
LINE
  8
1
 62
7
  6
CONTINUOUS
 10
2326.101540006
 20
54.349079897
 11
2326.101540006
 21
47.349079897
  0
LINE
  8
1
 62
7
  6
CONTINUOUS
 10
2268.201540006
 20
58.349079897
 11
2487.223540006
 21
58.349079897
  0
LINE
  8
1
 62
7
  6
CONTINUOUS
 10
2268.201540006
 20
65.349079897
 11
2487.223540006
 21
65.349079897
  0
LINE
  8
1
 62
7
  6
CONTINUOUS
 10
2427.477053954
 20
65.349079897
 11
2427.477053954
 21
58.349079897
  0
LINE
  8
1
 62
7
  6
CONTINUOUS
 10
2328.601540006
 20
65.349079897
 11
2328.601540006
 21
58.349079897
  0
LINE
  8
1
 62
7
  6
CONTINUOUS
 10
2326.101540006
 20
65.349079897
 11
2326.101540006
 21
58.349079897
  0
LINE
  8
1
 62
7
  6
CONTINUOUS
 10
2268.201540006
 20
69.349079897
 11
2487.223540006
 21
69.349079897
  0
LINE
  8
1
 62
7
  6
CONTINUOUS
 10
2268.201540006
 20
76.349079897
 11
2487.223540006
 21
76.349079897
  0
LINE
  8
1
 62
7
  6
CONTINUOUS
 10
2427.477053954
 20
76.349079897
 11
2427.477053954
 21
69.349079897
  0
LINE
  8
1
 62
7
  6
CONTINUOUS
 10
2328.601540006
 20
76.349079897
 11
2328.601540006
 21
69.349079897
  0
LINE
  8
1
 62
7
  6
CONTINUOUS
 10
2326.101540006
 20
76.349079897
 11
2326.101540006
 21
69.349079897
  0
LINE
  8
1
 62
7
  6
CONTINUOUS
 10
2268.201540006
 20
80.349079897
 11
2487.223540006
 21
80.349079897
  0
LINE
  8
1
 62
7
  6
CONTINUOUS
 10
2268.201540006
 20
87.349079897
 11
2487.223540006
 21
87.349079897
  0
LINE
  8
1
 62
7
  6
CONTINUOUS
 10
2427.477053954
 20
87.349079897
 11
2427.477053954
 21
80.349079897
  0
LINE
  8
1
 62
7
  6
CONTINUOUS
 10
2328.601540006
 20
87.349079897
 11
2328.601540006
 21
80.349079897
  0
LINE
  8
1
 62
7
  6
CONTINUOUS
 10
2326.101540006
 20
87.349079897
 11
2326.101540006
 21
80.349079897
  0
LINE
  8
1
 62
7
  6
CONTINUOUS
 10
2268.201540006
 20
91.349079897
 11
2487.223540006
 21
91.349079897
  0
LINE
  8
1
 62
7
  6
CONTINUOUS
 10
2268.201540006
 20
98.349079897
 11
2487.223540006
 21
98.349079897
  0
LINE
  8
1
 62
7
  6
CONTINUOUS
 10
2427.477053954
 20
98.349079897
 11
2427.477053954
 21
91.349079897
  0
LINE
  8
1
 62
7
  6
CONTINUOUS
 10
2326.101540006
 20
98.349079897
 11
2326.101540006
 21
91.349079897
  0
LINE
  8
1
 62
7
  6
CONTINUOUS
 10
2268.201540006
 20
102.349079897
 11
2487.223540006
 21
102.349079897
  0
LINE
  8
1
 62
7
  6
CONTINUOUS
 10
2268.201540006
 20
109.349079897
 11
2487.223540006
 21
109.349079897
  0
LINE
  8
1
 62
7
  6
CONTINUOUS
 10
2427.477053954
 20
109.349079897
 11
2427.477053954
 21
102.349079897
  0
LINE
  8
1
 62
7
  6
CONTINUOUS
 10
2268.201540006
 20
-22.650920103
 11
2487.223540006
 21
-22.650920103
  0
LINE
  8
1
 62
7
  6
CONTINUOUS
 10
2326.101540006
 20
109.349079897
 11
2326.101540006
 21
102.349079897
  0
LINE
  8
1
 62
7
  6
CONTINUOUS
 10
2268.201540006
 20
-106.650920103
 11
2487.223540006
 21
-106.650920103
  0
LINE
  8
1
 62
7
  6
CONTINUOUS
 10
2427.477053954
 20
-106.650920103
 11
2427.477053954
 21
-99.650920103
  0
LINE
  8
1
 62
7
  6
CONTINUOUS
 10
2328.601540006
 20
-106.650920103
 11
2328.601540006
 21
-99.650920103
  0
LINE
  8
1
 62
7
  6
CONTINUOUS
 10
2326.101540006
 20
-106.650920103
 11
2326.101540006
 21
-99.650920103
  0
LINE
  8
1
 62
7
  6
CONTINUOUS
 10
2268.201540006
 20
-110.650920103
 11
2487.223540006
 21
-110.650920103
  0
LINE
  8
1
 62
7
  6
CONTINUOUS
 10
2268.201540006
 20
-117.650920103
 11
2487.223540006
 21
-117.650920103
  0
LINE
  8
1
 62
7
  6
CONTINUOUS
 10
2427.477053954
 20
-117.650920103
 11
2427.477053954
 21
-110.650920103
  0
CIRCLE
  8
1
 62
1
  6
HIDDEN2
 10
2301.201540006
 20
135.349079897
 40
2.250000000
  0
LINE
  8
1
 62
1
  6
HIDDEN2
 10
2297.160088075
 20
135.349079897
 11
2299.180814040
 21
131.849079856
  0
LINE
  8
1
 62
1
  6
HIDDEN2
 10
2299.180814040
 20
138.849079937
 11
2297.160088075
 21
135.349079897
  0
LINE
  8
1
 62
1
  6
HIDDEN2
 10
2303.222265971
 20
138.849079937
 11
2299.180814040
 21
138.849079937
  0
LINE
  8
1
 62
1
  6
HIDDEN2
 10
2305.242991937
 20
135.349079897
 11
2303.222265971
 21
138.849079937
  0
LINE
  8
1
 62
1
  6
HIDDEN2
 10
2303.222265971
 20
131.849079856
 11
2305.242991937
 21
135.349079897
  0
LINE
  8
1
 62
1
  6
HIDDEN2
 10
2299.180814040
 20
131.849079856
 11
2303.222265971
 21
131.849079856
  0
ARC
  8
1
 62
1
  6
HIDDEN2
 10
2268.201540006
 20
139.099079897
 40
3.250000000
 50
0.000000000
 51
180.000000000
  0
LINE
  8
1
 62
1
  6
HIDDEN2
 10
2271.451540006
 20
133.599079897
 11
2271.451540006
 21
139.099079897
  0
ARC
  8
1
 62
1
  6
HIDDEN2
 10
2268.201540006
 20
133.599079897
 40
3.250000000
 50
180.000000000
 51
0.000000000
  0
LINE
  8
1
 62
1
  6
HIDDEN2
 10
2264.951540006
 20
139.099079897
 11
2264.951540006
 21
133.599079897
  0
ARC
  8
9
 62
1
  6
HIDDEN
 10
2461.701540006
 20
-164.150920103
 40
1.000000000
 50
270.000000000
 51
0.000000000
  0
ARC
  8
9
 62
1
  6
HIDDEN
 10
2074.701540006
 20
-164.150920103
 40
1.000000000
 50
180.000000000
 51
270.000000000
  0
ARC
  8
9
 62
1
  6
HIDDEN
 10
2074.701540006
 20
122.849079897
 40
1.000000000
 50
90.000000000
 51
180.000000000
  0
LINE
  8
9
 62
1
  6
HIDDEN
 10
2461.701540006
 20
123.849079897
 11
2074.701540006
 21
123.849079897
  0
LINE
  8
9
 62
1
  6
HIDDEN
 10
2073.701540006
 20
122.849079897
 11
2073.701540006
 21
-164.150920103
  0
LINE
  8
9
 62
1
  6
HIDDEN
 10
2074.701540006
 20
-165.150920103
 11
2461.701540006
 21
-165.150920103
  0
LINE
  8
9
 62
1
  6
HIDDEN
 10
2462.701540006
 20
-164.150920103
 11
2462.701540006
 21
122.849079897
  0
LINE
  8
6
 62
2
  6
CENTER
 10
1685.287972867
 20
879.790105235
 11
1696.074736725
 21
890.576869093
  0
ARC
  8
2
 62
1
  6
HIDDEN2
 10
1620.676282523
 20
815.178414890
 40
92.994949366
 50
42.000000000
 51
48.000000000
  0
ARC
  8
2
 62
1
  6
HIDDEN2
 10
1554.435732027
 20
888.745999260
 40
2.500000000
 50
312.000000000
 51
132.000000000
  0
ARC
  8
6
 62
2
  6
CENTER
 10
1620.676282523
 20
815.178414890
 40
98.994949366
 50
37.587511977
 51
52.183525022
  0
ARC
  8
2
 62
1
  6
HIDDEN2
 10
1694.243866893
 20
881.418965386
 40
2.500000000
 50
222.000000000
 51
42.000000000
  0
ARC
  8
2
 62
1
  6
HIDDEN2
 10
1620.676282523
 20
815.178414890
 40
101.494949366
 50
42.000000000
 51
48.000000000
  0
LINE
  8
1
 62
7
  6
CONTINUOUS
 10
1561.676282523
 20
852.242592663
 11
1569.676282523
 21
854.790384303
  0
LINE
  8
1
 62
7
  6
CONTINUOUS
 10
1569.676282523
 20
846.790384303
 11
1569.676282523
 21
850.328311121
  0
ARC
  8
2
 62
1
  6
CONTINUOUS
 10
1378.644448885
 20
815.178414890
 40
96.494949366
 50
312.000000000
 51
318.000000000
  0
ARC
  8
2
 62
1
  6
CONTINUOUS
 10
1620.676282523
 20
815.178414890
 40
104.994949366
 50
222.000000000
 51
228.000000000
  0
ARC
  8
2
 62
1
  6
CONTINUOUS
 10
1547.108698153
 20
748.937864394
 40
6.000000000
 50
42.000000000
 51
222.000000000
  0
LINE
  8
6
 62
2
  6
CENTER
 10
1556.064592178
 20
750.566724546
 11
1545.277828320
 21
739.779960688
  0
CIRCLE
  8
2
 62
1
  6
HIDDEN2
 10
1620.676282523
 20
881.928414890
 40
5.500000000
  0
ARC
  8
2
 62
1
  6
CONTINUOUS
 10
1620.676282523
 20
815.178414890
 40
92.994949366
 50
222.000000000
 51
228.000000000
  0
ARC
  8
6
 62
2
  6
CENTER
 10
1620.676282523
 20
815.178414890
 40
98.994949366
 50
217.587511977
 51
232.183525022
  0
ARC
  8
2
 62
1
  6
HIDDEN2
 10
1686.916833019
 20
888.745999260
 40
2.500000000
 50
48.000000000
 51
228.000000000
  0
LINE
  8
1
 62
7
  6
CONTINUOUS
 10
1569.676282523
 20
858.328311121
 11
1569.676282523
 21
854.790384303
  0
LINE
  8
1
 62
7
  6
CONTINUOUS
 10
1561.676282523
 20
828.242592663
 11
1569.676282523
 21
830.790384303
  0
LINE
  8
1
 62
7
  6
CONTINUOUS
 10
1566.676282523
 20
874.178414890
 11
1674.676282523
 21
874.178414890
  0
LINE
  8
1
 62
7
  6
CONTINUOUS
 10
1561.676282523
 20
836.242592663
 11
1569.676282523
 21
838.790384303
  0
LINE
  8
1
 62
7
  6
CONTINUOUS
 10
1569.676282523
 20
758.576310299
 11
1569.676282523
 21
762.328311121
  0
LINE
  8
1
 62
7
  6
CONTINUOUS
 10
1674.676282523
 20
756.178414890
 11
1566.676282523
 21
756.178414890
  0
LINE
  8
1
 62
7
  6
CONTINUOUS
 10
1569.676282523
 20
830.790384303
 11
1569.676282523
 21
834.328311121
  0
LINE
  8
1
 62
7
  6
CONTINUOUS
 10
1679.676282523
 20
770.328311121
 11
1561.676282523
 21
770.328311121
  0
LINE
  8
1
 62
7
  6
CONTINUOUS
 10
1561.676282523
 20
772.242592663
 11
1679.676282523
 21
772.242592663
  0
LINE
  8
1
 62
7
  6
CONTINUOUS
 10
1671.676282523
 20
774.790384303
 11
1569.676282523
 21
774.790384303
  0
LINE
  8
1
 62
7
  6
CONTINUOUS
 10
1679.676282523
 20
778.328311121
 11
1561.676282523
 21
778.328311121
  0
LINE
  8
1
 62
7
  6
CONTINUOUS
 10
1561.676282523
 20
780.242592663
 11
1679.676282523
 21
780.242592663
  0
LINE
  8
1
 62
7
  6
CONTINUOUS
 10
1671.676282523
 20
782.790384303
 11
1569.676282523
 21
782.790384303
  0
LINE
  8
1
 62
7
  6
CONTINUOUS
 10
1679.676282523
 20
786.328311121
 11
1561.676282523
 21
786.328311121
  0
LINE
  8
1
 62
7
  6
CONTINUOUS
 10
1561.676282523
 20
788.242592663
 11
1679.676282523
 21
788.242592663
  0
LINE
  8
1
 62
7
  6
CONTINUOUS
 10
1671.676282523
 20
790.790384303
 11
1569.676282523
 21
790.790384303
  0
ARC
  8
2
 62
1
  6
CONTINUOUS
 10
1311.894448885
 20
815.178414890
 40
5.500000000
 50
180.000000000
 51
0.000000000
  0
ARC
  8
1
 62
7
  6
CONTINUOUS
 10
1848.728225562
 20
772.728088634
 40
100.000000000
 50
189.866524017
 51
205.733149379
  0
LINE
  8
1
 62
7
  6
CONTINUOUS
 10
1750.199869332
 20
874.678414890
 11
1750.199869332
 21
755.678414890
  0
ARC
  8
2
 62
1
  6
CONTINUOUS
 10
1444.884999381
 20
741.610830520
 40
6.000000000
 50
132.000000000
 51
312.000000000
  0
ARC
  8
1
 62
7
  6
CONTINUOUS
 10
1760.447280482
 20
900.178414890
 40
2.000000000
 50
90.000000000
 51
154.266850621
  0
ARC
  8
1
 62
7
  6
CONTINUOUS
 10
1760.447280482
 20
730.178414890
 40
2.000000000
 50
205.733149379
 51
270.000000000
  0
LINE
  8
1
 62
7
  6
CONTINUOUS
 10
1760.447280482
 20
902.178414890
 11
1765.199869332
 21
902.178414890
  0
LINE
  8
1
 62
7
  6
CONTINUOUS
 10
1765.199869332
 20
902.178414890
 11
1765.199869332
 21
728.178414890
  0
LINE
  8
1
 62
7
  6
CONTINUOUS
 10
1679.676282523
 20
794.328311121
 11
1561.676282523
 21
794.328311121
  0
LINE
  8
1
 62
7
  6
CONTINUOUS
 10
1561.676282523
 20
796.242592663
 11
1679.676282523
 21
796.242592663
  0
LINE
  8
1
 62
7
  6
CONTINUOUS
 10
1671.676282523
 20
798.790384303
 11
1569.676282523
 21
798.790384303
  0
LINE
  8
1
 62
7
  6
CONTINUOUS
 10
1679.676282523
 20
802.328311121
 11
1561.676282523
 21
802.328311121
  0
LINE
  8
1
 62
7
  6
CONTINUOUS
 10
1561.676282523
 20
804.242592663
 11
1679.676282523
 21
804.242592663
  0
LINE
  8
1
 62
7
  6
CONTINUOUS
 10
1671.676282523
 20
806.790384303
 11
1569.676282523
 21
806.790384303
  0
LINE
  8
1
 62
7
  6
CONTINUOUS
 10
1679.676282523
 20
810.328311121
 11
1561.676282523
 21
810.328311121
  0
LINE
  8
1
 62
7
  6
CONTINUOUS
 10
1561.676282523
 20
812.242592663
 11
1679.676282523
 21
812.242592663
  0
LINE
  8
1
 62
7
  6
CONTINUOUS
 10
1671.676282523
 20
814.790384303
 11
1569.676282523
 21
814.790384303
  0
LINE
  8
1
 62
7
  6
CONTINUOUS
 10
1679.676282523
 20
818.328311121
 11
1561.676282523
 21
818.328311121
  0
LINE
  8
1
 62
7
  6
CONTINUOUS
 10
1561.676282523
 20
820.242592663
 11
1679.676282523
 21
820.242592663
  0
LINE
  8
1
 62
7
  6
CONTINUOUS
 10
1671.676282523
 20
822.790384303
 11
1569.676282523
 21
822.790384303
  0
LINE
  8
1
 62
7
  6
CONTINUOUS
 10
1679.676282523
 20
826.328311121
 11
1561.676282523
 21
826.328311121
  0
LINE
  8
1
 62
7
  6
CONTINUOUS
 10
1569.676282523
 20
842.328311121
 11
1569.676282523
 21
838.790384303
  0
LINE
  8
1
 62
7
  6
CONTINUOUS
 10
1564.087090006
 20
756.901022915
 11
1569.676282523
 21
758.576310299
  0
LINE
  8
1
 62
7
  6
CONTINUOUS
 10
1679.676282523
 20
860.242592663
 11
1671.676282523
 21
862.790384303
  0
LINE
  8
1
 62
7
  6
CONTINUOUS
 10
1561.676282523
 20
828.242592663
 11
1679.676282523
 21
828.242592663
  0
LINE
  8
1
 62
7
  6
CONTINUOUS
 10
1671.676282523
 20
830.790384303
 11
1569.676282523
 21
830.790384303
  0
LINE
  8
1
 62
7
  6
CONTINUOUS
 10
1679.676282523
 20
834.328311121
 11
1561.676282523
 21
834.328311121
  0
LINE
  8
1
 62
7
  6
CONTINUOUS
 10
1561.676282523
 20
836.242592663
 11
1679.676282523
 21
836.242592663
  0
LINE
  8
1
 62
7
  6
CONTINUOUS
 10
1671.676282523
 20
838.790384303
 11
1569.676282523
 21
838.790384303
  0
LINE
  8
1
 62
7
  6
CONTINUOUS
 10
1679.676282523
 20
842.328311121
 11
1561.676282523
 21
842.328311121
  0
LINE
  8
1
 62
7
  6
CONTINUOUS
 10
1671.676282523
 20
766.790384303
 11
1569.676282523
 21
766.790384303
  0
LINE
  8
1
 62
7
  6
CONTINUOUS
 10
1561.676282523
 20
844.242592663
 11
1679.676282523
 21
844.242592663
  0
ARC
  8
2
 62
1
  6
CONTINUOUS
 10
1547.108698153
 20
748.937864394
 40
2.500000000
 50
42.000000000
 51
222.000000000
  0
LINE
  8
1
 62
7
  6
CONTINUOUS
 10
1561.676282523
 20
764.242592663
 11
1679.676282523
 21
764.242592663
  0
LINE
  8
1
 62
7
  6
CONTINUOUS
 10
1569.676282523
 20
782.790384303
 11
1569.676282523
 21
786.328311121
  0
LINE
  8
1
 62
7
  6
CONTINUOUS
 10
1679.676282523
 20
762.328311121
 11
1561.676282523
 21
762.328311121
  0
LINE
  8
1
 62
7
  6
CONTINUOUS
 10
1671.676282523
 20
846.790384303
 11
1569.676282523
 21
846.790384303
  0
ARC
  8
6
 62
2
  6
CENTER
 10
1620.676282523
 20
815.178414890
 40
98.994949366
 50
307.816474978
 51
322.412488023
  0
LINE
  8
1
 62
7
  6
CONTINUOUS
 10
1561.676282523
 20
812.242592663
 11
1569.676282523
 21
814.790384303
  0
LINE
  8
1
 62
7
  6
CONTINUOUS
 10
1679.676282523
 20
850.328311121
 11
1561.676282523
 21
850.328311121
  0
LINE
  8
1
 62
7
  6
CONTINUOUS
 10
1561.676282523
 20
852.242592663
 11
1679.676282523
 21
852.242592663
  0
LINE
  8
1
 62
7
  6
CONTINUOUS
 10
1671.676282523
 20
854.790384303
 11
1569.676282523
 21
854.790384303
  0
LINE
  8
1
 62
7
  6
CONTINUOUS
 10
1679.676282523
 20
858.328311121
 11
1561.676282523
 21
858.328311121
  0
LINE
  8
1
 62
7
  6
CONTINUOUS
 10
1561.676282523
 20
860.242592663
 11
1679.676282523
 21
860.242592663
  0
LINE
  8
1
 62
7
  6
CONTINUOUS
 10
1671.676282523
 20
862.790384303
 11
1569.676282523
 21
862.790384303
  0
LINE
  8
1
 62
7
  6
CONTINUOUS
 10
1679.676282523
 20
866.328311121
 11
1561.676282523
 21
866.328311121
  0
LINE
  8
1
 62
7
  6
CONTINUOUS
 10
1561.676282523
 20
868.242592663
 11
1679.676282523
 21
868.242592663
  0
LINE
  8
1
 62
7
  6
CONTINUOUS
 10
1671.676282523
 20
870.790384303
 11
1569.676282523
 21
870.790384303
  0
ARC
  8
2
 62
1
  6
CONTINUOUS
 10
1620.676282523
 20
815.178414890
 40
101.494949366
 50
222.000000000
 51
228.000000000
  0
LINE
  8
1
 62
7
  6
CONTINUOUS
 10
1677.265475039
 20
756.901022915
 11
1671.676282523
 21
758.576310299
  0
LINE
  8
1
 62
7
  6
CONTINUOUS
 10
1679.676282523
 20
764.242592663
 11
1671.676282523
 21
766.790384303
  0
LINE
  8
1
 62
7
  6
CONTINUOUS
 10
1679.676282523
 20
772.242592663
 11
1671.676282523
 21
774.790384303
  0
LINE
  8
1
 62
7
  6
CONTINUOUS
 10
1671.676282523
 20
758.576310299
 11
1671.676282523
 21
762.328311121
  0
LINE
  8
1
 62
7
  6
CONTINUOUS
 10
1671.676282523
 20
766.790384303
 11
1671.676282523
 21
770.328311121
  0
LINE
  8
1
 62
7
  6
CONTINUOUS
 10
1671.676282523
 20
778.328311121
 11
1671.676282523
 21
774.790384303
  0
LINE
  8
1
 62
7
  6
CONTINUOUS
 10
1671.676282523
 20
794.328311121
 11
1671.676282523
 21
790.790384303
  0
LINE
  8
1
 62
7
  6
CONTINUOUS
 10
1561.676282523
 20
820.242592663
 11
1569.676282523
 21
822.790384303
  0
LINE
  8
1
 62
7
  6
CONTINUOUS
 10
1671.676282523
 20
782.790384303
 11
1671.676282523
 21
786.328311121
  0
LINE
  8
1
 62
7
  6
CONTINUOUS
 10
1679.676282523
 20
788.242592663
 11
1671.676282523
 21
790.790384303
  0
LINE
  8
1
 62
7
  6
CONTINUOUS
 10
1569.676282523
 20
814.790384303
 11
1569.676282523
 21
818.328311121
  0
LINE
  8
1
 62
7
  6
CONTINUOUS
 10
1569.676282523
 20
826.328311121
 11
1569.676282523
 21
822.790384303
  0
LINE
  8
1
 62
7
  6
CONTINUOUS
 10
1671.676282523
 20
758.576310299
 11
1569.676282523
 21
758.576310299
  0
LINE
  8
1
 62
7
  6
CONTINUOUS
 10
1561.676282523
 20
796.242592663
 11
1569.676282523
 21
798.790384303
  0
LINE
  8
1
 62
7
  6
CONTINUOUS
 10
1679.676282523
 20
780.242592663
 11
1671.676282523
 21
782.790384303
  0
LINE
  8
1
 62
7
  6
CONTINUOUS
 10
1671.676282523
 20
810.328311121
 11
1671.676282523
 21
806.790384303
  0
LINE
  8
1
 62
7
  6
CONTINUOUS
 10
1561.676282523
 20
804.242592663
 11
1569.676282523
 21
806.790384303
  0
ARC
  8
2
 62
1
  6
HIDDEN2
 10
1553.926282523
 20
815.178414890
 40
5.500000000
 50
0.000000000
 51
180.000000000
  0
ARC
  8
2
 62
1
  6
CONTINUOUS
 10
1554.435732027
 20
741.610830520
 40
2.500000000
 50
228.000000000
 51
48.000000000
  0
ARC
  8
2
 62
1
  6
HIDDEN2
 10
1553.926282523
 20
815.178414890
 40
2.500000000
 50
0.000000000
 51
180.000000000
  0
LINE
  8
1
 62
7
  6
CONTINUOUS
 10
1569.676282523
 20
798.790384303
 11
1569.676282523
 21
802.328311121
  0
LINE
  8
1
 62
7
  6
CONTINUOUS
 10
1569.676282523
 20
810.328311121
 11
1569.676282523
 21
806.790384303
  0
LINE
  8
1
 62
7
  6
CONTINUOUS
 10
1569.676282523
 20
862.790384303
 11
1569.676282523
 21
866.328311121
  0
LINE
  8
1
 62
7
  6
CONTINUOUS
 10
1561.676282523
 20
780.242592663
 11
1569.676282523
 21
782.790384303
  0
LINE
  8
1
 62
7
  6
CONTINUOUS
 10
1561.676282523
 20
788.242592663
 11
1569.676282523
 21
790.790384303
  0
LINE
  8
1
 62
7
  6
CONTINUOUS
 10
1671.676282523
 20
798.790384303
 11
1671.676282523
 21
802.328311121
  0
LINE
  8
1
 62
7
  6
CONTINUOUS
 10
1679.676282523
 20
804.242592663
 11
1671.676282523
 21
806.790384303
  0
LINE
  8
6
 62
2
  6
CENTER
 10
1553.926282523
 20
805.767187580
 11
1553.926282523
 21
823.913315346
  0
LINE
  8
1
 62
7
  6
CONTINUOUS
 10
1679.676282523
 20
796.242592663
 11
1671.676282523
 21
798.790384303
  0
LINE
  8
1
 62
7
  6
CONTINUOUS
 10
1671.676282523
 20
826.328311121
 11
1671.676282523
 21
822.790384303
  0
ARC
  8
2
 62
1
  6
HIDDEN2
 10
1620.676282523
 20
815.178414890
 40
101.494949366
 50
132.000000000
 51
138.000000000
  0
ARC
  8
2
 62
1
  6
HIDDEN2
 10
1547.108698153
 20
881.418965386
 40
2.500000000
 50
138.000000000
 51
318.000000000
  0
ARC
  8
6
 62
2
  6
CENTER
 10
1620.676282523
 20
815.178414890
 40
98.994949366
 50
127.816474978
 51
142.412488023
  0
ARC
  8
2
 62
1
  6
HIDDEN2
 10
1620.676282523
 20
815.178414890
 40
92.994949366
 50
132.000000000
 51
138.000000000
  0
LINE
  8
6
 62
2
  6
CENTER
 10
1556.064592178
 20
879.790105235
 11
1545.277828320
 21
890.576869093
  0
ARC
  8
2
 62
1
  6
HIDDEN2
 10
1547.108698153
 20
881.418965386
 40
6.000000000
 50
138.000000000
 51
318.000000000
  0
ARC
  8
2
 62
1
  6
HIDDEN2
 10
1620.676282523
 20
815.178414890
 40
104.994949366
 50
132.000000000
 51
138.000000000
  0
ARC
  8
2
 62
1
  6
HIDDEN2
 10
1554.435732027
 20
888.745999260
 40
6.000000000
 50
312.000000000
 51
132.000000000
  0
ARC
  8
2
 62
1
  6
HIDDEN2
 10
1620.676282523
 20
815.178414890
 40
96.494949366
 50
132.000000000
 51
138.000000000
  0
ARC
  8
2
 62
1
  6
CONTINUOUS
 10
1686.916833019
 20
741.610830520
 40
2.500000000
 50
132.000000000
 51
312.000000000
  0
ARC
  8
2
 62
1
  6
CONTINUOUS
 10
1687.426282523
 20
815.178414890
 40
5.500000000
 50
180.000000000
 51
0.000000000
  0
ARC
  8
2
 62
1
  6
CONTINUOUS
 10
1620.676282523
 20
815.178414890
 40
101.494949366
 50
312.000000000
 51
318.000000000
  0
ARC
  8
2
 62
1
  6
CONTINUOUS
 10
1694.243866893
 20
748.937864394
 40
2.500000000
 50
318.000000000
 51
138.000000000
  0
ARC
  8
1
 62
7
  6
CONTINUOUS
 10
1848.728225562
 20
857.628741146
 40
100.000000000
 50
154.266850621
 51
170.133475983
  0
LINE
  8
1
 62
7
  6
CONTINUOUS
 10
1671.676282523
 20
814.790384303
 11
1671.676282523
 21
818.328311121
  0
LINE
  8
1
 62
7
  6
CONTINUOUS
 10
1679.676282523
 20
820.242592663
 11
1671.676282523
 21
822.790384303
  0
ARC
  8
2
 62
1
  6
CONTINUOUS
 10
1378.644448885
 20
815.178414890
 40
104.994949366
 50
312.000000000
 51
318.000000000
  0
ARC
  8
2
 62
1
  6
CONTINUOUS
 10
1620.676282523
 20
815.178414890
 40
92.994949366
 50
312.000000000
 51
318.000000000
  0
LINE
  8
6
 62
2
  6
CENTER
 10
1685.287972867
 20
750.566724546
 11
1696.074736725
 21
739.779960688
  0
ARC
  8
2
 62
1
  6
CONTINUOUS
 10
1694.243866893
 20
748.937864394
 40
6.000000000
 50
318.000000000
 51
138.000000000
  0
ARC
  8
2
 62
1
  6
CONTINUOUS
 10
1620.676282523
 20
815.178414890
 40
104.994949366
 50
312.000000000
 51
318.000000000
  0
LINE
  8
1
 62
7
  6
CONTINUOUS
 10
1679.676282523
 20
812.242592663
 11
1671.676282523
 21
814.790384303
  0
ARC
  8
1
 62
7
  6
CONTINUOUS
 10
1566.676282523
 20
869.178414890
 40
5.000000000
 50
90.000000000
 51
180.000000000
  0
ARC
  8
2
 62
1
  6
CONTINUOUS
 10
1452.212033255
 20
748.937864394
 40
6.000000000
 50
318.000000000
 51
138.000000000
  0
LINE
  8
6
 62
2
  6
CENTER
 10
1443.256139230
 20
750.566724546
 11
1454.042903088
 21
739.779960688
  0
ARC
  8
2
 62
1
  6
CONTINUOUS
 10
1378.644448885
 20
815.178414890
 40
92.994949366
 50
312.000000000
 51
318.000000000
  0
ARC
  8
2
 62
1
  6
CONTINUOUS
 10
1452.212033255
 20
748.937864394
 40
2.500000000
 50
318.000000000
 51
138.000000000
  0
ARC
  8
2
 62
1
  6
CONTINUOUS
 10
1378.644448885
 20
815.178414890
 40
101.494949366
 50
312.000000000
 51
318.000000000
  0
ARC
  8
2
 62
1
  6
CONTINUOUS
 10
1445.394448885
 20
815.178414890
 40
5.500000000
 50
180.000000000
 51
0.000000000
  0
ARC
  8
2
 62
1
  6
CONTINUOUS
 10
1444.884999381
 20
741.610830520
 40
2.500000000
 50
132.000000000
 51
312.000000000
  0
ARC
  8
2
 62
1
  6
CONTINUOUS
 10
1312.403898390
 20
888.745999260
 40
2.500000000
 50
312.000000000
 51
132.000000000
  0
ARC
  8
2
 62
1
  6
CONTINUOUS
 10
1378.644448885
 20
815.178414890
 40
96.494949366
 50
132.000000000
 51
138.000000000
  0
ARC
  8
2
 62
1
  6
CONTINUOUS
 10
1312.403898390
 20
888.745999260
 40
6.000000000
 50
312.000000000
 51
132.000000000
  0
ARC
  8
2
 62
1
  6
CONTINUOUS
 10
1378.644448885
 20
815.178414890
 40
104.994949366
 50
132.000000000
 51
138.000000000
  0
ARC
  8
2
 62
1
  6
CONTINUOUS
 10
1305.076864516
 20
881.418965386
 40
6.000000000
 50
138.000000000
 51
318.000000000
  0
LINE
  8
6
 62
2
  6
CENTER
 10
1314.032758541
 20
879.790105235
 11
1303.245994683
 21
890.576869093
  0
ARC
  8
2
 62
1
  6
CONTINUOUS
 10
1378.644448885
 20
815.178414890
 40
92.994949366
 50
132.000000000
 51
138.000000000
  0
ARC
  8
6
 62
2
  6
CENTER
 10
1378.644448885
 20
815.178414890
 40
98.994949366
 50
127.816474978
 51
142.412488023
  0
LINE
  8
6
 62
2
  6
CENTER
 10
1746.439419070
 20
815.178414890
 11
1823.320443868
 21
815.178414890
  0
ARC
  8
2
 62
1
  6
CONTINUOUS
 10
1305.076864516
 20
881.418965386
 40
2.500000000
 50
138.000000000
 51
318.000000000
  0
ARC
  8
2
 62
1
  6
CONTINUOUS
 10
1819.699869332
 20
766.678414890
 40
0.500000000
 50
270.000000000
 51
0.000000000
  0
ARC
  8
2
 62
1
  6
CONTINUOUS
 10
1819.699869332
 20
863.678414890
 40
0.500000000
 50
0.000000000
 51
90.000000000
  0
ARC
  8
2
 62
1
  6
CONTINUOUS
 10
1445.394448885
 20
815.178414890
 40
2.500000000
 50
180.000000000
 51
0.000000000
  0
LINE
  8
6
 62
2
  6
CENTER
 10
1388.055676196
 20
748.428414890
 11
1369.909548430
 21
748.428414890
  0
CIRCLE
  8
2
 62
1
  6
CONTINUOUS
 10
1378.644448885
 20
748.428414890
 40
2.500000000
  0
CIRCLE
  8
2
 62
1
  6
CONTINUOUS
 10
1378.644448885
 20
748.428414890
 40
5.500000000
  0
LINE
  8
6
 62
2
  6
CENTER
 10
1445.394448885
 20
824.589642201
 11
1445.394448885
 21
806.443514435
  0
ARC
  8
2
 62
1
  6
CONTINUOUS
 10
1445.394448885
 20
815.178414890
 40
2.500000000
 50
0.000000000
 51
180.000000000
  0
ARC
  8
2
 62
1
  6
CONTINUOUS
 10
1445.394448885
 20
815.178414890
 40
5.500000000
 50
0.000000000
 51
180.000000000
  0
LINE
  8
6
 62
2
  6
CENTER
 10
1369.233221575
 20
881.928414890
 11
1387.379349341
 21
881.928414890
  0
CIRCLE
  8
2
 62
1
  6
CONTINUOUS
 10
1378.644448885
 20
881.928414890
 40
2.500000000
  0
ARC
  8
2
 62
1
  6
CONTINUOUS
 10
1378.644448885
 20
815.178414890
 40
96.494949366
 50
222.000000000
 51
228.000000000
  0
ARC
  8
2
 62
1
  6
CONTINUOUS
 10
1311.894448885
 20
815.178414890
 40
2.500000000
 50
180.000000000
 51
0.000000000
  0
ARC
  8
2
 62
1
  6
CONTINUOUS
 10
1378.644448885
 20
815.178414890
 40
96.494949366
 50
42.000000000
 51
48.000000000
  0
ARC
  8
2
 62
1
  6
CONTINUOUS
 10
1444.884999381
 20
888.745999260
 40
6.000000000
 50
48.000000000
 51
228.000000000
  0
ARC
  8
2
 62
1
  6
CONTINUOUS
 10
1312.403898390
 20
741.610830520
 40
6.000000000
 50
228.000000000
 51
48.000000000
  0
ARC
  8
2
 62
1
  6
CONTINUOUS
 10
1378.644448885
 20
815.178414890
 40
104.994949366
 50
42.000000000
 51
48.000000000
  0
LINE
  8
2
 62
1
  6
CONTINUOUS
 10
1765.199869332
 20
766.178414890
 11
1819.699869332
 21
766.178414890
  0
LINE
  8
2
 62
1
  6
CONTINUOUS
 10
1820.199869332
 20
766.678414890
 11
1820.199869332
 21
863.678414890
  0
LINE
  8
2
 62
1
  6
CONTINUOUS
 10
1819.699869332
 20
864.178414890
 11
1765.199869332
 21
864.178414890
  0
ARC
  8
2
 62
1
  6
CONTINUOUS
 10
1452.212033255
 20
881.418965386
 40
6.000000000
 50
222.000000000
 51
42.000000000
  0
ARC
  8
6
 62
2
  6
CENTER
 10
1378.644448885
 20
815.178414890
 40
98.994949366
 50
37.587511977
 51
52.183525022
  0
CIRCLE
  8
1
 62
1
  6
CONTINUOUS
 10
1378.644448885
 20
815.178414890
 40
49.000000000
  0
LINE
  8
1
 62
7
  6
CONTINUOUS
 10
1460.644448885
 20
902.178414890
 11
1296.644448885
 21
902.178414890
  0
ARC
  8
2
 62
1
  6
CONTINUOUS
 10
1452.212033255
 20
881.418965386
 40
2.500000000
 50
222.000000000
 51
42.000000000
  0
LINE
  8
1
 62
7
  6
CONTINUOUS
 10
1291.644448885
 20
897.178414890
 11
1291.644448885
 21
733.178414890
  0
ARC
  8
2
 62
1
  6
CONTINUOUS
 10
1686.916833019
 20
741.610830520
 40
6.000000000
 50
132.000000000
 51
312.000000000
  0
ARC
  8
2
 62
1
  6
CONTINUOUS
 10
1553.926282523
 20
815.178414890
 40
5.500000000
 50
180.000000000
 51
0.000000000
  0
ARC
  8
2
 62
1
  6
CONTINUOUS
 10
1620.676282523
 20
815.178414890
 40
96.494949366
 50
312.000000000
 51
318.000000000
  0
LINE
  8
1
 62
7
  6
CONTINUOUS
 10
1296.644448885
 20
728.178414890
 11
1460.644448885
 21
728.178414890
  0
LINE
  8
1
 62
7
  6
CONTINUOUS
 10
1465.644448885
 20
733.178414890
 11
1465.644448885
 21
897.178414890
  0
ARC
  8
1
 62
7
  6
CONTINUOUS
 10
1460.644448885
 20
897.178414890
 40
5.000000000
 50
0.000000000
 51
90.000000000
  0
ARC
  8
1
 62
7
  6
CONTINUOUS
 10
1296.644448885
 20
897.178414890
 40
5.000000000
 50
90.000000000
 51
180.000000000
  0
ARC
  8
1
 62
7
  6
CONTINUOUS
 10
1296.644448885
 20
733.178414890
 40
5.000000000
 50
180.000000000
 51
270.000000000
  0
ARC
  8
1
 62
7
  6
CONTINUOUS
 10
1460.644448885
 20
733.178414890
 40
5.000000000
 50
270.000000000
 51
0.000000000
  0
LINE
  8
6
 62
2
  6
CENTER
 10
1378.644448885
 20
903.907397617
 11
1378.644448885
 21
725.485285365
  0
ARC
  8
2
 62
1
  6
CONTINUOUS
 10
1378.644448885
 20
815.178414890
 40
101.494949366
 50
132.000000000
 51
138.000000000
  0
LINE
  8
6
 62
2
  6
CENTER
 10
1311.894448885
 20
805.767187580
 11
1311.894448885
 21
823.913315346
  0
ARC
  8
2
 62
1
  6
CONTINUOUS
 10
1311.894448885
 20
815.178414890
 40
2.500000000
 50
0.000000000
 51
180.000000000
  0
ARC
  8
2
 62
1
  6
CONTINUOUS
 10
1312.403898390
 20
741.610830520
 40
2.500000000
 50
228.000000000
 51
48.000000000
  0
ARC
  8
1
 62
7
  6
CONTINUOUS
 10
1750.699869332
 20
874.678414890
 40
0.500000000
 50
170.133475983
 51
180.000000000
  0
ARC
  8
2
 62
1
  6
CONTINUOUS
 10
1311.894448885
 20
815.178414890
 40
5.500000000
 50
0.000000000
 51
180.000000000
  0
ARC
  8
2
 62
1
  6
CONTINUOUS
 10
1378.644448885
 20
815.178414890
 40
101.494949366
 50
222.000000000
 51
228.000000000
  0
ARC
  8
6
 62
2
  6
CENTER
 10
1378.644448885
 20
815.178414890
 40
98.994949366
 50
307.816474978
 51
322.412488023
  0
ARC
  8
2
 62
1
  6
CONTINUOUS
 10
1305.076864516
 20
748.937864394
 40
2.500000000
 50
42.000000000
 51
222.000000000
  0
ARC
  8
2
 62
1
  6
CONTINUOUS
 10
1444.884999381
 20
888.745999260
 40
2.500000000
 50
48.000000000
 51
228.000000000
  0
ARC
  8
6
 62
2
  6
CENTER
 10
1378.644448885
 20
815.178414890
 40
98.994949366
 50
217.587511977
 51
232.183525022
  0
ARC
  8
2
 62
1
  6
CONTINUOUS
 10
1378.644448885
 20
815.178414890
 40
92.994949366
 50
222.000000000
 51
228.000000000
  0
CIRCLE
  8
2
 62
1
  6
CONTINUOUS
 10
1378.644448885
 20
881.928414890
 40
5.500000000
  0
LINE
  8
6
 62
2
  6
CENTER
 10
1314.032758541
 20
750.566724546
 11
1303.245994683
 21
739.779960688
  0
LINE
  8
1
 62
7
  6
CONTINUOUS
 10
1760.447280482
 20
728.178414890
 11
1765.199869332
 21
728.178414890
  0
ARC
  8
2
 62
1
  6
CONTINUOUS
 10
1305.076864516
 20
748.937864394
 40
6.000000000
 50
42.000000000
 51
222.000000000
  0
ARC
  8
2
 62
1
  6
CONTINUOUS
 10
1378.644448885
 20
815.178414890
 40
104.994949366
 50
222.000000000
 51
228.000000000
  0
ARC
  8
2
 62
1
  6
CONTINUOUS
 10
1378.644448885
 20
815.178414890
 40
101.494949366
 50
42.000000000
 51
48.000000000
  0
LINE
  8
6
 62
2
  6
CENTER
 10
1287.952201001
 20
815.178414890
 11
1468.921680264
 21
815.178414890
  0
LINE
  8
1
 62
7
  6
CONTINUOUS
 10
1679.676282523
 20
761.178414890
 11
1679.676282523
 21
762.328311121
  0
LINE
  8
1
 62
7
  6
CONTINUOUS
 10
1569.676282523
 20
874.178414890
 11
1569.676282523
 21
870.790384303
  0
LINE
  8
1
 62
7
  6
CONTINUOUS
 10
1561.676282523
 20
844.242592663
 11
1569.676282523
 21
846.790384303
  0
LINE
  8
1
 62
7
  6
CONTINUOUS
 10
1561.676282523
 20
764.242592663
 11
1569.676282523
 21
766.790384303
  0
ARC
  8
2
 62
1
  6
HIDDEN2
 10
1694.243866893
 20
881.418965386
 40
6.000000000
 50
222.000000000
 51
42.000000000
  0
ARC
  8
2
 62
1
  6
HIDDEN2
 10
1620.676282523
 20
815.178414890
 40
104.994949366
 50
42.000000000
 51
48.000000000
  0
ARC
  8
2
 62
1
  6
CONTINUOUS
 10
1554.435732027
 20
741.610830520
 40
6.000000000
 50
228.000000000
 51
48.000000000
  0
ARC
  8
2
 62
1
  6
HIDDEN2
 10
1686.916833019
 20
888.745999260
 40
6.000000000
 50
48.000000000
 51
228.000000000
  0
ARC
  8
2
 62
1
  6
HIDDEN2
 10
1620.676282523
 20
815.178414890
 40
96.494949366
 50
42.000000000
 51
48.000000000
  0
ARC
  8
2
 62
1
  6
CONTINUOUS
 10
1553.926282523
 20
815.178414890
 40
2.500000000
 50
180.000000000
 51
0.000000000
  0
ARC
  8
1
 62
7
  6
CONTINUOUS
 10
1674.676282523
 20
761.178414890
 40
5.000000000
 50
270.000000000
 51
0.000000000
  0
LINE
  8
1
 62
7
  6
CONTINUOUS
 10
1671.676282523
 20
842.328311121
 11
1671.676282523
 21
838.790384303
  0
LINE
  8
1
 62
7
  6
CONTINUOUS
 10
1671.676282523
 20
830.790384303
 11
1671.676282523
 21
834.328311121
  0
LINE
  8
1
 62
7
  6
CONTINUOUS
 10
1679.676282523
 20
836.242592663
 11
1671.676282523
 21
838.790384303
  0
LINE
  8
1
 62
7
  6
CONTINUOUS
 10
1679.676282523
 20
828.242592663
 11
1671.676282523
 21
830.790384303
  0
ARC
  8
2
 62
1
  6
CONTINUOUS
 10
1620.676282523
 20
815.178414890
 40
96.494949366
 50
222.000000000
 51
228.000000000
  0
LINE
  8
1
 62
7
  6
CONTINUOUS
 10
1671.676282523
 20
858.328311121
 11
1671.676282523
 21
854.790384303
  0
CIRCLE
  8
2
 62
1
  6
HIDDEN2
 10
1620.676282523
 20
881.928414890
 40
2.500000000
  0
LINE
  8
6
 62
2
  6
CENTER
 10
1611.265055212
 20
881.928414890
 11
1629.411182979
 21
881.928414890
  0
ARC
  8
1
 62
7
  6
CONTINUOUS
 10
1566.676282523
 20
761.178414890
 40
5.000000000
 50
180.000000000
 51
270.000000000
  0
ARC
  8
2
 62
1
  6
HIDDEN2
 10
1687.426282523
 20
815.178414890
 40
5.500000000
 50
0.000000000
 51
180.000000000
  0
LINE
  8
1
 62
7
  6
CONTINUOUS
 10
1671.676282523
 20
846.790384303
 11
1671.676282523
 21
850.328311121
  0
ARC
  8
2
 62
1
  6
HIDDEN2
 10
1687.426282523
 20
815.178414890
 40
2.500000000
 50
0.000000000
 51
180.000000000
  0
LINE
  8
6
 62
2
  6
CENTER
 10
1687.426282523
 20
824.589642201
 11
1687.426282523
 21
806.443514435
  0
CIRCLE
  8
2
 62
1
  6
CONTINUOUS
 10
1620.676282523
 20
748.428414890
 40
5.500000000
  0
CIRCLE
  8
2
 62
1
  6
CONTINUOUS
 10
1620.676282523
 20
748.428414890
 40
2.500000000
  0
LINE
  8
6
 62
2
  6
CENTER
 10
1630.087509833
 20
748.428414890
 11
1611.941382067
 21
748.428414890
  0
LINE
  8
1
 62
7
  6
CONTINUOUS
 10
1561.676282523
 20
761.178414890
 11
1561.676282523
 21
762.328311121
  0
ARC
  8
2
 62
1
  6
CONTINUOUS
 10
1687.426282523
 20
815.178414890
 40
2.500000000
 50
180.000000000
 51
0.000000000
  0
LINE
  8
6
 62
2
  6
CENTER
 10
1529.984034639
 20
815.178414890
 11
1710.953513902
 21
815.178414890
  0
LINE
  8
6
 62
2
  6
CENTER
 10
1620.676282523
 20
903.907397617
 11
1620.676282523
 21
725.485285365
  0
LINE
  8
1
 62
7
  6
CONTINUOUS
 10
1679.676282523
 20
780.242592663
 11
1679.676282523
 21
786.328311121
  0
LINE
  8
1
 62
7
  6
CONTINUOUS
 10
1679.676282523
 20
788.242592663
 11
1679.676282523
 21
794.328311121
  0
LINE
  8
1
 62
7
  6
CONTINUOUS
 10
1671.676282523
 20
862.790384303
 11
1671.676282523
 21
866.328311121
  0
ARC
  8
1
 62
7
  6
CONTINUOUS
 10
1674.676282523
 20
869.178414890
 40
5.000000000
 50
0.000000000
 51
90.000000000
  0
LINE
  8
1
 62
7
  6
CONTINUOUS
 10
1561.676282523
 20
772.242592663
 11
1569.676282523
 21
774.790384303
  0
LINE
  8
1
 62
7
  6
CONTINUOUS
 10
1679.676282523
 20
868.242592663
 11
1671.676282523
 21
870.790384303
  0
LINE
  8
1
 62
7
  6
CONTINUOUS
 10
1679.676282523
 20
860.242592663
 11
1679.676282523
 21
866.328311121
  0
LINE
  8
1
 62
7
  6
CONTINUOUS
 10
1561.676282523
 20
860.242592663
 11
1569.676282523
 21
862.790384303
  0
LINE
  8
1
 62
7
  6
CONTINUOUS
 10
1561.676282523
 20
868.242592663
 11
1569.676282523
 21
870.790384303
  0
LINE
  8
1
 62
7
  6
CONTINUOUS
 10
1569.676282523
 20
794.328311121
 11
1569.676282523
 21
790.790384303
  0
LINE
  8
1
 62
7
  6
CONTINUOUS
 10
1679.676282523
 20
852.242592663
 11
1679.676282523
 21
858.328311121
  0
ARC
  8
1
 62
7
  6
CONTINUOUS
 10
1566.676282523
 20
761.178414890
 40
5.000000000
 50
180.000000000
 51
270.000000000
  0
LINE
  8
1
 62
7
  6
CONTINUOUS
 10
1679.676282523
 20
796.242592663
 11
1679.676282523
 21
802.328311121
  0
LINE
  8
1
 62
7
  6
CONTINUOUS
 10
1679.676282523
 20
868.242592663
 11
1679.676282523
 21
869.178414890
  0
LINE
  8
1
 62
7
  6
CONTINUOUS
 10
1671.676282523
 20
874.178414890
 11
1671.676282523
 21
870.790384303
  0
LINE
  8
1
 62
7
  6
CONTINUOUS
 10
1679.676282523
 20
762.114237118
 11
1561.676282523
 21
762.114237118
  0
LINE
  8
1
 62
7
  6
CONTINUOUS
 10
1561.676282523
 20
762.114237118
 11
1561.676282523
 21
761.178414890
  0
LINE
  8
1
 62
7
  6
CONTINUOUS
 10
1679.676282523
 20
852.242592663
 11
1671.676282523
 21
854.790384303
  0
LINE
  8
1
 62
7
  6
CONTINUOUS
 10
1679.676282523
 20
844.242592663
 11
1671.676282523
 21
846.790384303
  0
LINE
  8
1
 62
7
  6
CONTINUOUS
 10
1679.676282523
 20
762.114237118
 11
1679.676282523
 21
761.178414890
  0
LINE
  8
1
 62
7
  6
CONTINUOUS
 10
1674.676282523
 20
756.178414890
 11
1566.676282523
 21
756.178414890
  0
ARC
  8
1
 62
7
  6
CONTINUOUS
 10
1674.676282523
 20
761.178414890
 40
5.000000000
 50
270.000000000
 51
0.000000000
  0
LINE
  8
1
 62
7
  6
CONTINUOUS
 10
1679.676282523
 20
844.242592663
 11
1679.676282523
 21
850.328311121
  0
LINE
  8
1
 62
7
  6
CONTINUOUS
 10
1679.676282523
 20
836.242592663
 11
1679.676282523
 21
842.328311121
  0
LINE
  8
1
 62
7
  6
CONTINUOUS
 10
1679.676282523
 20
828.242592663
 11
1679.676282523
 21
834.328311121
  0
LINE
  8
1
 62
7
  6
CONTINUOUS
 10
1679.676282523
 20
820.242592663
 11
1679.676282523
 21
826.328311121
  0
LINE
  8
1
 62
7
  6
CONTINUOUS
 10
1679.676282523
 20
812.242592663
 11
1679.676282523
 21
818.328311121
  0
LINE
  8
1
 62
7
  6
CONTINUOUS
 10
1679.676282523
 20
804.242592663
 11
1679.676282523
 21
810.328311121
  0
LINE
  8
1
 62
7
  6
CONTINUOUS
 10
1679.676282523
 20
772.242592663
 11
1679.676282523
 21
778.328311121
  0
LINE
  8
1
 62
7
  6
CONTINUOUS
 10
1679.676282523
 20
764.242592663
 11
1679.676282523
 21
770.328311121
  0
LINE
  8
1
 62
7
  6
CONTINUOUS
 10
1561.676282523
 20
868.242592663
 11
1561.676282523
 21
869.178414890
  0
LINE
  8
1
 62
7
  6
CONTINUOUS
 10
1561.676282523
 20
860.242592663
 11
1561.676282523
 21
866.328311121
  0
LINE
  8
1
 62
7
  6
CONTINUOUS
 10
1561.676282523
 20
852.242592663
 11
1561.676282523
 21
858.328311121
  0
LINE
  8
1
 62
7
  6
CONTINUOUS
 10
1561.676282523
 20
844.242592663
 11
1561.676282523
 21
850.328311121
  0
LINE
  8
1
 62
7
  6
CONTINUOUS
 10
1561.676282523
 20
836.242592663
 11
1561.676282523
 21
842.328311121
  0
LINE
  8
1
 62
7
  6
CONTINUOUS
 10
1561.676282523
 20
828.242592663
 11
1561.676282523
 21
834.328311121
  0
LINE
  8
1
 62
7
  6
CONTINUOUS
 10
1561.676282523
 20
820.242592663
 11
1561.676282523
 21
826.328311121
  0
LINE
  8
1
 62
7
  6
CONTINUOUS
 10
1561.676282523
 20
812.242592663
 11
1561.676282523
 21
818.328311121
  0
LINE
  8
1
 62
7
  6
CONTINUOUS
 10
1561.676282523
 20
804.242592663
 11
1561.676282523
 21
810.328311121
  0
LINE
  8
1
 62
7
  6
CONTINUOUS
 10
1561.676282523
 20
796.242592663
 11
1561.676282523
 21
802.328311121
  0
LINE
  8
1
 62
7
  6
CONTINUOUS
 10
1561.676282523
 20
788.242592663
 11
1561.676282523
 21
794.328311121
  0
LINE
  8
1
 62
7
  6
CONTINUOUS
 10
1561.676282523
 20
780.242592663
 11
1561.676282523
 21
786.328311121
  0
LINE
  8
1
 62
7
  6
CONTINUOUS
 10
1561.676282523
 20
772.242592663
 11
1561.676282523
 21
778.328311121
  0
LINE
  8
1
 62
7
  6
CONTINUOUS
 10
1561.676282523
 20
764.242592663
 11
1561.676282523
 21
770.328311121
  0
LINE
  8
1
 62
7
  6
CONTINUOUS
 10
1569.676282523
 20
778.328311121
 11
1569.676282523
 21
774.790384303
  0
ARC
  8
2
 62
1
  6
CONTINUOUS
 10
1378.644448885
 20
815.178414890
 40
92.994949366
 50
42.000000000
 51
48.000000000
  0
LINE
  8
6
 62
2
  6
CENTER
 10
1443.256139230
 20
879.790105235
 11
1454.042903088
 21
890.576869093
  0
LINE
  8
1
 62
7
  6
CONTINUOUS
 10
1569.676282523
 20
766.790384303
 11
1569.676282523
 21
770.328311121
  0
ARC
  8
1
 62
7
  6
CONTINUOUS
 10
1702.676282523
 20
733.178414890
 40
5.000000000
 50
270.000000000
 51
0.000000000
  0
ARC
  8
1
 62
7
  6
CONTINUOUS
 10
1538.676282523
 20
733.178414890
 40
5.000000000
 50
180.000000000
 51
270.000000000
  0
ARC
  8
1
 62
7
  6
CONTINUOUS
 10
1538.676282523
 20
897.178414890
 40
5.000000000
 50
90.000000000
 51
180.000000000
  0
ARC
  8
1
 62
7
  6
CONTINUOUS
 10
1702.676282523
 20
897.178414890
 40
5.000000000
 50
0.000000000
 51
90.000000000
  0
LINE
  8
1
 62
7
  6
CONTINUOUS
 10
1707.676282523
 20
733.178414890
 11
1707.676282523
 21
897.178414890
  0
LINE
  8
1
 62
7
  6
CONTINUOUS
 10
1538.676282523
 20
728.178414890
 11
1702.676282523
 21
728.178414890
  0
LINE
  8
1
 62
7
  6
CONTINUOUS
 10
1533.676282523
 20
897.178414890
 11
1533.676282523
 21
733.178414890
  0
LINE
  8
1
 62
7
  6
CONTINUOUS
 10
1702.676282523
 20
902.178414890
 11
1538.676282523
 21
902.178414890
  0
ENDSEC
  0
EOF
