  0
SECTION
  2
HEADER
  9
$ACADVER
  1
AC1009
  9
$INSBASE
 10
0.000000000
 20
0.000000000
  9
$EXTMIN
 10
-12742.518291972
 20
-15234.599293784
  9
$EXTMAX
 10
12091.481708028
 20
16221.683469081
  9
$LIMMIN
 10
-12742.518291972
 20
-15234.599293784
  9
$LIMMAX
 10
12091.481708028
 20
16221.683469081
  9
$SNAPBASE
 10
0.000000000
 20
0.000000000
  9
$SNAPANG
 50
0.000000000
  9
$SNAPSTYLE
 70
0
  9
$GRIDMODE
 70
0
  9
$GRIDUNIT
 10
0.000000000
 20
0.000000000
  9
$DIMEXO
 40
0.000000000
  9
$DIMDLI
 40
8.000000000
  9
$DIMDLE
 40
0.000000000
  9
$DIMEXE
 40
1.000000000
  9
$DIMTIH
 70
1
  9
$DIMTOH
 70
1
  9
$DIMTAD
 70
2
  9
$DIMZIN
 70
0
  9
$FILLETRAD
 40
1.000000000
  9
$CHAMFERA
 40
1.000000000
  9
$CHAMFERB
 40
1.000000000
  9
$TDCREATE
 40
2453237.351469907
  9
$TDUPDATE
 40
2453237.351469907
  9
$ANGBASE
 50
0.000000000
  9
$ANGDIR
 70
0
  0
ENDSEC
  0
SECTION
  2
TABLES
  0
TABLE
  2
LTYPE
 70
5
  0
LTYPE
  2
CENTER
 70
64
  3
___ _ ___ _ __
 72
65
 73
4
 40
13.000000000
 49
8.500000000
 49
-1.500000000
 49
1.500000000
 49
-1.500000000
  0
LTYPE
  2
CONTINUOUS
 70
64
  3
______________
 72
65
 73
0
 40
0.000000000
  0
LTYPE
  2
DASHDOT2
 70
64
  3
_ . _ . _ . _ 
 72
65
 73
4
 40
10.000000000
 49
5.000000000
 49
-2.500000000
 49
0.000000000
 49
-2.500000000
  0
LTYPE
  2
DIVIDE
 70
64
  3
___ . . ___ . 
 72
65
 73
6
 40
12.999999523
 49
5.199999809
 49
-2.599999905
 49
0.000000000
 49
-2.599999905
 49
0.000000000
 49
-2.599999905
  0
LTYPE
  2
HIDDEN2
 70
64
  3
_ _ _ _ _ _ _ 
 72
65
 73
2
 40
2.000000000
 49
1.399999976
 49
-0.600000024
  0
ENDTAB
  0
TABLE
  2
LAYER
 70
9
  0
LAYER
  2
1
 70
0
 62
7
  6
CONTINUOUS
999
1
  0
LAYER
  2
2
 70
0
 62
7
  6
CONTINUOUS
999
2
  0
LAYER
  2
3
 70
0
 62
7
  6
CONTINUOUS
999
3
  0
LAYER
  2
4
 70
0
 62
7
  6
CONTINUOUS
999
4
  0
LAYER
  2
5
 70
0
 62
1
  6
CONTINUOUS
999
5
  0
LAYER
  2
6
 70
0
 62
7
  6
CONTINUOUS
999
6
  0
LAYER
  2
7
 70
0
 62
7
  6
CONTINUOUS
999
7
  0
LAYER
  2
8
 70
0
 62
7
  6
CONTINUOUS
999
8
  0
LAYER
  2
9
 70
0
 62
7
  6
CONTINUOUS
999
9
  0
LAYER
  2
_CONSTR
 70
0
 62
5
  6
CONTINUOUS
  0
ENDTAB
  0
TABLE
  2
STYLE
 70
1
  0
STYLE
  2
STANDARD
 70
64
 40
0.000000000
 41
1.000000000
 50
0.000000000
 71
0
 42
3.200000000
  3
TXT
  4
EXTFONT
  0
ENDTAB
  0
TABLE
  2
VIEW
 70
0
  0
ENDTAB
  0
ENDSEC
  0
SECTION
  2
BLOCKS
  0
ENDSEC
  0
SECTION
  2
ENTITIES
  0
LINE
  8
1
 62
7
  6
CONTINUOUS
 10
-146.018291972
 20
362.090936455
 11
-146.018291972
 21
369.090936455
  0
LINE
  8
1
 62
7
  6
CONTINUOUS
 10
-537.175773379
 20
274.590936455
 11
-113.762535962
 21
274.590936455
  0
LINE
  8
1
 62
7
  6
CONTINUOUS
 10
-537.175773379
 20
243.090936455
 11
-113.762535962
 21
243.090936455
  0
LINE
  8
1
 62
7
  6
CONTINUOUS
 10
-537.175773379
 20
141.590936455
 11
-113.762535962
 21
141.590936455
  0
LINE
  8
5
 62
2
  6
CENTER
 10
-76.418311862
 20
276.340936455
 11
-572.867730689
 21
276.340936455
  0
LINE
  8
1
 62
7
  6
CONTINUOUS
 10
-501.218291972
 20
316.590936455
 11
-501.218291972
 21
309.590936455
  0
LINE
  8
1
 62
7
  6
CONTINUOUS
 10
-501.218291972
 20
306.090936455
 11
-501.218291972
 21
299.090936455
  0
LINE
  8
1
 62
7
  6
CONTINUOUS
 10
-256.018291972
 20
400.590936455
 11
-256.018291972
 21
393.590936455
  0
LINE
  8
1
 62
7
  6
CONTINUOUS
 10
-501.218291972
 20
327.090936455
 11
-501.218291972
 21
320.090936455
  0
LINE
  8
1
 62
7
  6
CONTINUOUS
 10
-256.018291972
 20
369.090936455
 11
-256.018291972
 21
362.090936455
  0
LINE
  8
1
 62
7
  6
CONTINUOUS
 10
-256.018291972
 20
358.590936455
 11
-256.018291972
 21
351.590936455
  0
LINE
  8
1
 62
7
  6
CONTINUOUS
 10
-256.018291972
 20
348.090936455
 11
-256.018291972
 21
341.090936455
  0
LINE
  8
1
 62
7
  6
CONTINUOUS
 10
-256.018291972
 20
337.590936455
 11
-256.018291972
 21
330.590936455
  0
LINE
  8
1
 62
7
  6
CONTINUOUS
 10
-256.018291972
 20
327.090936455
 11
-256.018291972
 21
320.090936455
  0
LINE
  8
1
 62
7
  6
CONTINUOUS
 10
-256.018291972
 20
316.590936455
 11
-256.018291972
 21
309.590936455
  0
LINE
  8
1
 62
7
  6
CONTINUOUS
 10
-256.018291972
 20
306.090936455
 11
-256.018291972
 21
299.090936455
  0
LINE
  8
1
 62
7
  6
CONTINUOUS
 10
-146.018291972
 20
309.590936455
 11
-146.018291972
 21
316.590936455
  0
LINE
  8
1
 62
7
  6
CONTINUOUS
 10
-146.018291972
 20
320.090936455
 11
-146.018291972
 21
327.090936455
  0
LINE
  8
1
 62
7
  6
CONTINUOUS
 10
-146.018291972
 20
330.590936455
 11
-146.018291972
 21
337.590936455
  0
LINE
  8
1
 62
7
  6
CONTINUOUS
 10
-135.518291972
 20
243.090936455
 11
-135.518291972
 21
236.090936455
  0
LINE
  8
1
 62
7
  6
CONTINUOUS
 10
-135.518291972
 20
148.590936455
 11
-135.518291972
 21
141.590936455
  0
LINE
  8
1
 62
7
  6
CONTINUOUS
 10
-135.518291972
 20
159.090936455
 11
-135.518291972
 21
152.090936455
  0
LINE
  8
1
 62
7
  6
CONTINUOUS
 10
-135.518291972
 20
169.590936455
 11
-135.518291972
 21
162.590936455
  0
LINE
  8
1
 62
7
  6
CONTINUOUS
 10
-135.518291972
 20
180.090936455
 11
-135.518291972
 21
173.090936455
  0
LINE
  8
1
 62
7
  6
CONTINUOUS
 10
-256.018291972
 20
390.090936455
 11
-256.018291972
 21
383.090936455
  0
LINE
  8
1
 62
7
  6
CONTINUOUS
 10
-537.175773379
 20
253.590936455
 11
-113.762535962
 21
253.590936455
  0
LINE
  8
7
 62
1
  6
CONTINUOUS
 10
166.669965175
 20
395.439012665
 11
165.169965175
 21
392.840936455
  0
LINE
  8
1
 62
7
  6
CONTINUOUS
 10
3.669965175
 20
180.090936455
 11
17.669965175
 21
180.090936455
  0
LINE
  8
1
 62
7
  6
CONTINUOUS
 10
3.669965175
 20
183.590936455
 11
17.669965175
 21
183.590936455
  0
LINE
  8
1
 62
7
  6
CONTINUOUS
 10
-256.018291972
 20
379.590936455
 11
-256.018291972
 21
372.590936455
  0
LINE
  8
1
 62
7
  6
CONTINUOUS
 10
-135.518291972
 20
190.590936455
 11
-135.518291972
 21
183.590936455
  0
LINE
  8
1
 62
7
  6
CONTINUOUS
 10
-135.518291972
 20
201.090936455
 11
-135.518291972
 21
194.090936455
  0
LINE
  8
1
 62
7
  6
CONTINUOUS
 10
-135.518291972
 20
211.590936455
 11
-135.518291972
 21
204.590936455
  0
LINE
  8
1
 62
7
  6
CONTINUOUS
 10
-537.175773379
 20
257.090936455
 11
-113.762535962
 21
257.090936455
  0
ARC
  8
2
 62
7
  6
CONTINUOUS
 10
-111.762026375
 20
-50.255290052
 40
18.000000000
 50
5.000000000
 51
90.000000000
  0
LINE
  8
1
 62
7
  6
CONTINUOUS
 10
-537.175773379
 20
278.090936455
 11
-113.762535962
 21
278.090936455
  0
LINE
  8
1
 62
7
  6
CONTINUOUS
 10
-351.718291972
 20
348.090936455
 11
-351.718291972
 21
341.090936455
  0
LINE
  8
1
 62
7
  6
CONTINUOUS
 10
-135.518291972
 20
222.090936455
 11
-135.518291972
 21
215.090936455
  0
LINE
  8
1
 62
7
  6
CONTINUOUS
 10
-135.518291972
 20
232.590936455
 11
-135.518291972
 21
225.590936455
  0
LINE
  8
1
 62
7
  6
CONTINUOUS
 10
-537.175773379
 20
306.090936455
 11
-113.762535962
 21
306.090936455
  0
LINE
  8
1
 62
7
  6
CONTINUOUS
 10
-537.175773379
 20
246.590936455
 11
-113.762535962
 21
246.590936455
  0
LINE
  8
1
 62
7
  6
CONTINUOUS
 10
-537.175773379
 20
393.590936455
 11
-113.762535962
 21
393.590936455
  0
LINE
  8
1
 62
7
  6
CONTINUOUS
 10
-537.175773379
 20
390.090936455
 11
-113.762535962
 21
390.090936455
  0
LINE
  8
1
 62
7
  6
CONTINUOUS
 10
-537.175773379
 20
383.090936455
 11
-113.762535962
 21
383.090936455
  0
LINE
  8
1
 62
7
  6
CONTINUOUS
 10
-537.175773379
 20
379.590936455
 11
-113.762535962
 21
379.590936455
  0
LINE
  8
1
 62
7
  6
CONTINUOUS
 10
-537.175773379
 20
372.590936455
 11
-113.762535962
 21
372.590936455
  0
LINE
  8
1
 62
7
  6
CONTINUOUS
 10
-537.175773379
 20
369.090936455
 11
-113.762535962
 21
369.090936455
  0
LINE
  8
1
 62
7
  6
CONTINUOUS
 10
-537.175773379
 20
320.090936455
 11
-113.762535962
 21
320.090936455
  0
LINE
  8
1
 62
7
  6
CONTINUOUS
 10
-537.175773379
 20
316.590936455
 11
-113.762535962
 21
316.590936455
  0
LINE
  8
1
 62
7
  6
CONTINUOUS
 10
-537.175773379
 20
330.590936455
 11
-113.762535962
 21
330.590936455
  0
LINE
  8
1
 62
7
  6
CONTINUOUS
 10
-537.175773379
 20
327.090936455
 11
-113.762535962
 21
327.090936455
  0
LINE
  8
1
 62
7
  6
CONTINUOUS
 10
-537.175773379
 20
341.090936455
 11
-113.762535962
 21
341.090936455
  0
LINE
  8
1
 62
7
  6
CONTINUOUS
 10
-537.175773379
 20
337.590936455
 11
-113.762535962
 21
337.590936455
  0
LINE
  8
1
 62
7
  6
CONTINUOUS
 10
-537.175773379
 20
288.590936455
 11
-113.762535962
 21
288.590936455
  0
LINE
  8
1
 62
7
  6
CONTINUOUS
 10
-537.175773379
 20
285.090936455
 11
-113.762535962
 21
285.090936455
  0
LINE
  8
1
 62
7
  6
CONTINUOUS
 10
-537.175773379
 20
351.590936455
 11
-113.762535962
 21
351.590936455
  0
ARC
  8
1
 62
7
  6
CONTINUOUS
 10
3.669965175
 20
172.090936455
 40
1.000000000
 50
90.000000000
 51
180.000000000
  0
ARC
  8
1
 62
7
  6
CONTINUOUS
 10
3.669965175
 20
181.090936455
 40
1.000000000
 50
180.000000000
 51
270.000000000
  0
ARC
  8
1
 62
7
  6
CONTINUOUS
 10
3.669965175
 20
151.090936455
 40
1.000000000
 50
90.000000000
 51
180.000000000
  0
LINE
  8
1
 62
7
  6
CONTINUOUS
 10
-537.175773379
 20
348.090936455
 11
-113.762535962
 21
348.090936455
  0
LINE
  8
1
 62
7
  6
CONTINUOUS
 10
-537.175773379
 20
362.090936455
 11
-113.762535962
 21
362.090936455
  0
LINE
  8
1
 62
7
  6
CONTINUOUS
 10
-537.175773379
 20
358.590936455
 11
-113.762535962
 21
358.590936455
  0
LINE
  8
1
 62
7
  6
CONTINUOUS
 10
-537.175773379
 20
404.090936455
 11
-113.762535962
 21
404.090936455
  0
LINE
  8
1
 62
7
  6
CONTINUOUS
 10
-537.175773379
 20
400.590936455
 11
-113.762535962
 21
400.590936455
  0
LINE
  8
1
 62
7
  6
CONTINUOUS
 10
-537.175773379
 20
148.590936455
 11
-113.762535962
 21
148.590936455
  0
LINE
  8
1
 62
7
  6
CONTINUOUS
 10
-537.175773379
 20
183.590936455
 11
-113.762535962
 21
183.590936455
  0
LINE
  8
1
 62
7
  6
CONTINUOUS
 10
-537.175773379
 20
211.590936455
 11
-113.762535962
 21
211.590936455
  0
LINE
  8
1
 62
7
  6
CONTINUOUS
 10
-537.175773379
 20
225.590936455
 11
-113.762535962
 21
225.590936455
  0
LINE
  8
1
 62
7
  6
CONTINUOUS
 10
-537.175773379
 20
264.090936455
 11
-113.762535962
 21
264.090936455
  0
LINE
  8
1
 62
7
  6
CONTINUOUS
 10
-537.175773379
 20
204.590936455
 11
-113.762535962
 21
204.590936455
  0
LINE
  8
1
 62
7
  6
CONTINUOUS
 10
-537.175773379
 20
190.590936455
 11
-113.762535962
 21
190.590936455
  0
LINE
  8
1
 62
7
  6
CONTINUOUS
 10
-537.175773379
 20
267.590936455
 11
-113.762535962
 21
267.590936455
  0
LINE
  8
1
 62
7
  6
CONTINUOUS
 10
-537.175773379
 20
215.090936455
 11
-113.762535962
 21
215.090936455
  0
LINE
  8
1
 62
7
  6
CONTINUOUS
 10
-537.175773379
 20
180.090936455
 11
-113.762535962
 21
180.090936455
  0
LINE
  8
1
 62
7
  6
CONTINUOUS
 10
-537.175773379
 20
152.090936455
 11
-113.762535962
 21
152.090936455
  0
LINE
  8
1
 62
7
  6
CONTINUOUS
 10
-537.175773379
 20
222.090936455
 11
-113.762535962
 21
222.090936455
  0
LINE
  8
1
 62
7
  6
CONTINUOUS
 10
-537.175773379
 20
232.590936455
 11
-113.762535962
 21
232.590936455
  0
LINE
  8
1
 62
7
  6
CONTINUOUS
 10
-537.175773379
 20
201.090936455
 11
-113.762535962
 21
201.090936455
  0
LINE
  8
1
 62
7
  6
CONTINUOUS
 10
-537.175773379
 20
194.090936455
 11
-113.762535962
 21
194.090936455
  0
LINE
  8
1
 62
7
  6
CONTINUOUS
 10
-537.175773379
 20
236.090936455
 11
-113.762535962
 21
236.090936455
  0
LINE
  8
1
 62
7
  6
CONTINUOUS
 10
-537.175773379
 20
169.590936455
 11
-113.762535962
 21
169.590936455
  0
LINE
  8
1
 62
7
  6
CONTINUOUS
 10
2.669965175
 20
277.090936455
 11
2.669965175
 21
276.340936455
  0
LINE
  8
1
 62
7
  6
CONTINUOUS
 10
3.669965175
 20
159.090936455
 11
17.669965175
 21
159.090936455
  0
ARC
  8
1
 62
7
  6
CONTINUOUS
 10
-128.018291972
 20
131.340936455
 40
32.500000000
 50
271.740497422
 51
358.419526995
  0
ARC
  8
1
 62
7
  6
CONTINUOUS
 10
-523.018291972
 20
131.340936455
 40
32.500000000
 50
181.580473005
 51
268.259502578
  0
ARC
  8
1
 62
7
  6
CONTINUOUS
 10
-523.018291972
 20
421.340936455
 40
32.500000000
 50
91.740497422
 51
178.419526995
  0
ARC
  8
1
 62
7
  6
CONTINUOUS
 10
-128.018291972
 20
421.340936455
 40
32.500000000
 50
1.580473005
 51
88.259502578
  0
LINE
  8
1
 62
7
  6
CONTINUOUS
 10
-537.175773379
 20
162.590936455
 11
-113.762535962
 21
162.590936455
  0
ARC
  8
1
 62
7
  6
CONTINUOUS
 10
-325.518291972
 20
-6078.200730212
 40
6535.041666667
 50
88.259502578
 51
91.740497422
  0
LINE
  8
1
 62
7
  6
CONTINUOUS
 10
-537.175773379
 20
411.090936455
 11
-113.762535962
 21
411.090936455
  0
LINE
  8
1
 62
7
  6
CONTINUOUS
 10
-537.175773379
 20
173.090936455
 11
-113.762535962
 21
173.090936455
  0
LINE
  8
1
 62
7
  6
CONTINUOUS
 10
-537.175773379
 20
159.090936455
 11
-113.762535962
 21
159.090936455
  0
ARC
  8
1
 62
7
  6
CONTINUOUS
 10
4732.231708028
 20
276.340936455
 40
5289.750000000
 50
178.419526995
 51
181.580473005
  0
ARC
  8
1
 62
7
  6
CONTINUOUS
 10
-325.518291972
 20
6630.882603122
 40
6535.041666667
 50
268.259502578
 51
271.740497422
  0
ARC
  8
1
 62
7
  6
CONTINUOUS
 10
-5383.268291972
 20
276.340936455
 40
5289.750000000
 50
358.419526995
 51
1.580473005
  0
LINE
  8
1
 62
7
  6
CONTINUOUS
 10
-146.018291972
 20
341.090936455
 11
-146.018291972
 21
348.090936455
  0
LINE
  8
1
 62
7
  6
CONTINUOUS
 10
-146.018291972
 20
351.590936455
 11
-146.018291972
 21
358.590936455
  0
LINE
  8
1
 62
7
  6
CONTINUOUS
 10
-501.218291972
 20
215.090936455
 11
-501.218291972
 21
222.090936455
  0
LINE
  8
1
 62
7
  6
CONTINUOUS
 10
-351.718291972
 20
327.090936455
 11
-351.718291972
 21
320.090936455
  0
LINE
  8
1
 62
7
  6
CONTINUOUS
 10
-501.218291972
 20
285.090936455
 11
-501.218291972
 21
278.090936455
  0
LINE
  8
1
 62
7
  6
CONTINUOUS
 10
-501.218291972
 20
162.590936455
 11
-501.218291972
 21
169.590936455
  0
LINE
  8
1
 62
1
  6
CONTINUOUS
 10
-351.718291972
 20
236.090936455
 11
-351.718291972
 21
243.090936455
  0
LINE
  8
1
 62
1
  6
CONTINUOUS
 10
-351.718291972
 20
225.590936455
 11
-351.718291972
 21
232.590936455
  0
LINE
  8
1
 62
7
  6
CONTINUOUS
 10
-501.218291972
 20
264.090936455
 11
-501.218291972
 21
257.090936455
  0
LINE
  8
1
 62
7
  6
CONTINUOUS
 10
-501.218291972
 20
246.590936455
 11
-501.218291972
 21
253.590936455
  0
LINE
  8
1
 62
7
  6
CONTINUOUS
 10
-501.218291972
 20
236.090936455
 11
-501.218291972
 21
243.090936455
  0
LINE
  8
1
 62
7
  6
CONTINUOUS
 10
-501.218291972
 20
152.090936455
 11
-501.218291972
 21
159.090936455
  0
LINE
  8
1
 62
7
  6
CONTINUOUS
 10
-501.218291972
 20
295.590936455
 11
-501.218291972
 21
288.590936455
  0
LINE
  8
1
 62
1
  6
CONTINUOUS
 10
-349.218291972
 20
236.090936455
 11
-349.218291972
 21
243.090936455
  0
LINE
  8
1
 62
1
  6
CONTINUOUS
 10
-349.218291972
 20
225.590936455
 11
-349.218291972
 21
232.590936455
  0
LINE
  8
1
 62
1
  6
CONTINUOUS
 10
-349.218291972
 20
215.090936455
 11
-349.218291972
 21
222.090936455
  0
LINE
  8
1
 62
1
  6
CONTINUOUS
 10
-349.218291972
 20
204.590936455
 11
-349.218291972
 21
211.590936455
  0
LINE
  8
1
 62
1
  6
CONTINUOUS
 10
-349.218291972
 20
194.090936455
 11
-349.218291972
 21
201.090936455
  0
LINE
  8
1
 62
1
  6
CONTINUOUS
 10
-349.218291972
 20
183.590936455
 11
-349.218291972
 21
190.590936455
  0
LINE
  8
1
 62
1
  6
CONTINUOUS
 10
-349.218291972
 20
173.090936455
 11
-349.218291972
 21
180.090936455
  0
LINE
  8
1
 62
1
  6
CONTINUOUS
 10
-349.218291972
 20
162.590936455
 11
-349.218291972
 21
169.590936455
  0
LINE
  8
1
 62
1
  6
CONTINUOUS
 10
-349.218291972
 20
152.090936455
 11
-349.218291972
 21
159.090936455
  0
LINE
  8
1
 62
1
  6
CONTINUOUS
 10
-351.718291972
 20
152.090936455
 11
-351.718291972
 21
159.090936455
  0
LINE
  8
1
 62
1
  6
CONTINUOUS
 10
-351.718291972
 20
173.090936455
 11
-351.718291972
 21
180.090936455
  0
LINE
  8
1
 62
7
  6
CONTINUOUS
 10
-501.218291972
 20
348.090936455
 11
-501.218291972
 21
341.090936455
  0
LINE
  8
1
 62
7
  6
CONTINUOUS
 10
-351.718291972
 20
358.590936455
 11
-351.718291972
 21
351.590936455
  0
LINE
  8
1
 62
7
  6
CONTINUOUS
 10
-351.718291972
 20
264.090936455
 11
-351.718291972
 21
257.090936455
  0
LINE
  8
1
 62
7
  6
CONTINUOUS
 10
-351.718291972
 20
274.590936455
 11
-351.718291972
 21
267.590936455
  0
LINE
  8
1
 62
1
  6
CONTINUOUS
 10
-351.718291972
 20
183.590936455
 11
-351.718291972
 21
190.590936455
  0
LINE
  8
1
 62
7
  6
CONTINUOUS
 10
-501.218291972
 20
141.590936455
 11
-501.218291972
 21
148.590936455
  0
LINE
  8
1
 62
7
  6
CONTINUOUS
 10
-501.218291972
 20
358.590936455
 11
-501.218291972
 21
351.590936455
  0
LINE
  8
1
 62
1
  6
CONTINUOUS
 10
-351.718291972
 20
141.390936455
 11
-351.718291972
 21
148.590936455
  0
LINE
  8
1
 62
7
  6
CONTINUOUS
 10
-501.218291972
 20
337.590936455
 11
-501.218291972
 21
330.590936455
  0
LINE
  8
1
 62
1
  6
CONTINUOUS
 10
-351.718291972
 20
162.590936455
 11
-351.718291972
 21
169.590936455
  0
LINE
  8
1
 62
1
  6
CONTINUOUS
 10
-351.718291972
 20
194.090936455
 11
-351.718291972
 21
201.090936455
  0
LINE
  8
1
 62
7
  6
CONTINUOUS
 10
-351.718291972
 20
253.590936455
 11
-351.718291972
 21
246.590936455
  0
LINE
  8
1
 62
7
  6
CONTINUOUS
 10
-501.218291972
 20
274.590936455
 11
-501.218291972
 21
267.590936455
  0
LINE
  8
1
 62
1
  6
CONTINUOUS
 10
-349.218291972
 20
141.390936455
 11
-349.218291972
 21
148.590936455
  0
LINE
  8
1
 62
7
  6
CONTINUOUS
 10
-351.718291972
 20
285.090936455
 11
-351.718291972
 21
278.090936455
  0
LINE
  8
1
 62
7
  6
CONTINUOUS
 10
-501.218291972
 20
173.090936455
 11
-501.218291972
 21
180.090936455
  0
LINE
  8
1
 62
7
  6
CONTINUOUS
 10
-351.718291972
 20
337.590936455
 11
-351.718291972
 21
330.590936455
  0
LINE
  8
1
 62
7
  6
CONTINUOUS
 10
-501.218291972
 20
183.590936455
 11
-501.218291972
 21
190.590936455
  0
LINE
  8
1
 62
1
  6
CONTINUOUS
 10
-351.718291972
 20
215.090936455
 11
-351.718291972
 21
222.090936455
  0
LINE
  8
1
 62
1
  6
CONTINUOUS
 10
-351.718291972
 20
204.590936455
 11
-351.718291972
 21
211.590936455
  0
LINE
  8
1
 62
7
  6
CONTINUOUS
 10
-351.718291972
 20
316.590936455
 11
-351.718291972
 21
309.590936455
  0
LINE
  8
1
 62
7
  6
CONTINUOUS
 10
-351.718291972
 20
306.090936455
 11
-351.718291972
 21
299.090936455
  0
LINE
  8
1
 62
7
  6
CONTINUOUS
 10
-351.718291972
 20
295.590936455
 11
-351.718291972
 21
288.590936455
  0
LINE
  8
1
 62
7
  6
CONTINUOUS
 10
-501.218291972
 20
204.590936455
 11
-501.218291972
 21
211.590936455
  0
LINE
  8
1
 62
7
  6
CONTINUOUS
 10
-501.218291972
 20
194.090936455
 11
-501.218291972
 21
201.090936455
  0
LINE
  8
1
 62
7
  6
CONTINUOUS
 10
-501.218291972
 20
225.590936455
 11
-501.218291972
 21
232.590936455
  0
LINE
  8
1
 62
7
  6
CONTINUOUS
 10
-146.018291972
 20
372.590936455
 11
-146.018291972
 21
379.590936455
  0
LINE
  8
1
 62
7
  6
CONTINUOUS
 10
-146.018291972
 20
383.090936455
 11
-146.018291972
 21
390.090936455
  0
LINE
  8
1
 62
7
  6
CONTINUOUS
 10
-146.018291972
 20
393.590936455
 11
-146.018291972
 21
400.590936455
  0
LINE
  8
1
 62
7
  6
CONTINUOUS
 10
-146.018291972
 20
404.090936455
 11
-146.018291972
 21
411.090936455
  0
LINE
  8
1
 62
7
  6
CONTINUOUS
 10
-146.018291972
 20
411.090936455
 11
-256.018291972
 21
411.090936455
  0
LINE
  8
1
 62
7
  6
CONTINUOUS
 10
-146.018291972
 20
299.090936455
 11
-146.018291972
 21
306.090936455
  0
LINE
  8
1
 62
7
  6
CONTINUOUS
 10
-256.018291972
 20
299.090936455
 11
-146.018291972
 21
299.090936455
  0
LINE
  8
1
 62
7
  6
CONTINUOUS
 10
-256.018291972
 20
411.090936455
 11
-256.018291972
 21
404.090936455
  0
LINE
  8
1
 62
7
  6
CONTINUOUS
 10
-537.175773379
 20
309.590936455
 11
-113.762535962
 21
309.590936455
  0
LINE
  8
1
 62
7
  6
CONTINUOUS
 10
-537.175773379
 20
295.590936455
 11
-113.762535962
 21
295.590936455
  0
LINE
  8
1
 62
7
  6
CONTINUOUS
 10
-537.175773379
 20
299.090936455
 11
-113.762535962
 21
299.090936455
  0
LINE
  8
1
 62
7
  6
CONTINUOUS
 10
2.669965175
 20
382.090936455
 11
2.669965175
 21
380.590936455
  0
LINE
  8
1
 62
7
  6
CONTINUOUS
 10
3.669965175
 20
379.590936455
 11
17.669965175
 21
379.590936455
  0
LINE
  8
1
 62
7
  6
CONTINUOUS
 10
3.669965175
 20
383.090936455
 11
17.669965175
 21
383.090936455
  0
ARC
  8
1
 62
7
  6
CONTINUOUS
 10
3.669965175
 20
391.090936455
 40
1.000000000
 50
180.000000000
 51
270.000000000
  0
ARC
  8
1
 62
7
  6
CONTINUOUS
 10
3.669965175
 20
392.590936455
 40
1.000000000
 50
90.000000000
 51
180.000000000
  0
LINE
  8
1
 62
7
  6
CONTINUOUS
 10
3.669965175
 20
358.590936455
 11
17.669965175
 21
358.590936455
  0
LINE
  8
1
 62
7
  6
CONTINUOUS
 10
3.669965175
 20
362.090936455
 11
17.669965175
 21
362.090936455
  0
LINE
  8
1
 62
7
  6
CONTINUOUS
 10
2.669965175
 20
371.590936455
 11
2.669965175
 21
370.090936455
  0
LINE
  8
1
 62
7
  6
CONTINUOUS
 10
2.669965175
 20
392.590936455
 11
2.669965175
 21
391.090936455
  0
ARC
  8
1
 62
7
  6
CONTINUOUS
 10
3.669965175
 20
370.090936455
 40
1.000000000
 50
180.000000000
 51
270.000000000
  0
ARC
  8
1
 62
7
  6
CONTINUOUS
 10
3.669965175
 20
382.090936455
 40
1.000000000
 50
90.000000000
 51
180.000000000
  0
LINE
  8
1
 62
7
  6
CONTINUOUS
 10
3.669965175
 20
390.090936455
 11
17.669965175
 21
390.090936455
  0
ARC
  8
1
 62
7
  6
CONTINUOUS
 10
3.669965175
 20
403.090936455
 40
1.000000000
 50
90.000000000
 51
180.000000000
  0
LINE
  8
1
 62
7
  6
CONTINUOUS
 10
2.669965175
 20
403.090936455
 11
2.669965175
 21
401.590936455
  0
LINE
  8
1
 62
7
  6
CONTINUOUS
 10
3.669965175
 20
400.590936455
 11
17.669965175
 21
400.590936455
  0
LINE
  8
5
 62
2
  6
CENTER
 10
-325.518291972
 20
-5.806812448
 11
-325.518291972
 21
-234.862742312
  0
LINE
  8
3
 62
7
  6
CONTINUOUS
 10
-347.547996972
 20
-180.905290052
 11
-404.018291972
 21
-180.905290052
  0
ARC
  8
6
 62
7
  6
CONTINUOUS
 10
185.369965175
 20
215.690936455
 40
2.500000000
 50
0.000000000
 51
90.000000000
  0
ARC
  8
6
 62
7
  6
CONTINUOUS
 10
180.869965175
 20
234.940936455
 40
4.000000000
 50
0.000000000
 51
90.000000000
  0
LINE
  8
4
 62
7
  6
CONTINUOUS
 10
-128.018291972
 20
-172.255290052
 11
-128.018291972
 21
-52.255290052
  0
LINE
  8
4
 62
7
  6
CONTINUOUS
 10
-523.018291972
 20
-172.255290052
 11
-273.018291972
 21
-172.255290052
  0
LINE
  8
4
 62
7
  6
CONTINUOUS
 10
-523.018291972
 20
-52.255290052
 11
-523.018291972
 21
-172.255290052
  0
LINE
  8
1
 62
7
  6
CONTINUOUS
 10
3.669965175
 20
404.090936455
 11
17.669965175
 21
404.090936455
  0
ARC
  8
1
 62
7
  6
CONTINUOUS
 10
3.669965175
 20
412.090936455
 40
1.000000000
 50
180.000000000
 51
270.000000000
  0
LINE
  8
1
 62
7
  6
CONTINUOUS
 10
6.169965175
 20
390.090936455
 11
6.169965175
 21
383.090936455
  0
LINE
  8
1
 62
7
  6
CONTINUOUS
 10
6.169965175
 20
400.590936455
 11
6.169965175
 21
393.590936455
  0
LINE
  8
1
 62
7
  6
CONTINUOUS
 10
3.669965175
 20
411.090936455
 11
17.669965175
 21
411.090936455
  0
ARC
  8
1
 62
7
  6
CONTINUOUS
 10
57.669965175
 20
412.090936455
 40
55.000000000
 50
142.263848056
 51
180.000000000
  0
ARC
  8
1
 62
7
  6
CONTINUOUS
 10
36.317352135
 20
428.615642695
 40
28.000000000
 50
95.000000000
 51
142.263848056
  0
LINE
  8
1
 62
7
  6
CONTINUOUS
 10
6.169965175
 20
379.590936455
 11
6.169965175
 21
372.590936455
  0
LINE
  8
1
 62
7
  6
CONTINUOUS
 10
6.169965175
 20
411.090936455
 11
6.169965175
 21
404.090936455
  0
ARC
  8
2
 62
7
  6
CONTINUOUS
 10
35.669965175
 20
438.597202052
 40
18.000000000
 50
95.000000000
 51
180.000000000
  0
LINE
  8
1
 62
7
  6
CONTINUOUS
 10
6.169965175
 20
369.090936455
 11
6.169965175
 21
362.090936455
  0
LINE
  8
1
 62
7
  6
CONTINUOUS
 10
6.169965175
 20
358.590936455
 11
6.169965175
 21
351.590936455
  0
LINE
  8
1
 62
7
  6
CONTINUOUS
 10
6.169965175
 20
348.090936455
 11
6.169965175
 21
341.090936455
  0
LINE
  8
1
 62
7
  6
CONTINUOUS
 10
6.169965175
 20
337.590936455
 11
6.169965175
 21
330.590936455
  0
LINE
  8
1
 62
7
  6
CONTINUOUS
 10
6.169965175
 20
327.090936455
 11
6.169965175
 21
320.090936455
  0
LINE
  8
1
 62
7
  6
CONTINUOUS
 10
6.169965175
 20
316.590936455
 11
6.169965175
 21
309.590936455
  0
LINE
  8
1
 62
7
  6
CONTINUOUS
 10
6.169965175
 20
306.090936455
 11
6.169965175
 21
299.090936455
  0
LINE
  8
1
 62
7
  6
CONTINUOUS
 10
6.169965175
 20
295.590936455
 11
6.169965175
 21
288.590936455
  0
ARC
  8
1
 62
7
  6
CONTINUOUS
 10
3.669965175
 20
193.090936455
 40
1.000000000
 50
90.000000000
 51
180.000000000
  0
LINE
  8
1
 62
7
  6
CONTINUOUS
 10
3.669965175
 20
201.090936455
 11
17.669965175
 21
201.090936455
  0
LINE
  8
1
 62
7
  6
CONTINUOUS
 10
3.669965175
 20
204.590936455
 11
17.669965175
 21
204.590936455
  0
LINE
  8
1
 62
7
  6
CONTINUOUS
 10
2.669965175
 20
202.090936455
 11
2.669965175
 21
203.590936455
  0
ARC
  8
1
 62
7
  6
CONTINUOUS
 10
3.669965175
 20
202.090936455
 40
1.000000000
 50
180.000000000
 51
270.000000000
  0
ARC
  8
1
 62
7
  6
CONTINUOUS
 10
3.669965175
 20
203.590936455
 40
1.000000000
 50
90.000000000
 51
180.000000000
  0
LINE
  8
1
 62
7
  6
CONTINUOUS
 10
3.669965175
 20
211.590936455
 11
17.669965175
 21
211.590936455
  0
LINE
  8
1
 62
7
  6
CONTINUOUS
 10
3.669965175
 20
215.090936455
 11
17.669965175
 21
215.090936455
  0
LINE
  8
1
 62
7
  6
CONTINUOUS
 10
2.669965175
 20
212.590936455
 11
2.669965175
 21
214.090936455
  0
ARC
  8
1
 62
7
  6
CONTINUOUS
 10
3.669965175
 20
212.590936455
 40
1.000000000
 50
180.000000000
 51
270.000000000
  0
ARC
  8
1
 62
7
  6
CONTINUOUS
 10
3.669965175
 20
214.090936455
 40
1.000000000
 50
90.000000000
 51
180.000000000
  0
LINE
  8
1
 62
7
  6
CONTINUOUS
 10
3.669965175
 20
222.090936455
 11
17.669965175
 21
222.090936455
  0
LINE
  8
1
 62
7
  6
CONTINUOUS
 10
3.669965175
 20
225.590936455
 11
17.669965175
 21
225.590936455
  0
LINE
  8
1
 62
7
  6
CONTINUOUS
 10
2.669965175
 20
223.090936455
 11
2.669965175
 21
224.590936455
  0
ARC
  8
1
 62
7
  6
CONTINUOUS
 10
3.669965175
 20
223.090936455
 40
1.000000000
 50
180.000000000
 51
270.000000000
  0
ARC
  8
1
 62
7
  6
CONTINUOUS
 10
3.669965175
 20
224.590936455
 40
1.000000000
 50
90.000000000
 51
180.000000000
  0
LINE
  8
1
 62
7
  6
CONTINUOUS
 10
3.669965175
 20
232.590936455
 11
17.669965175
 21
232.590936455
  0
LINE
  8
1
 62
7
  6
CONTINUOUS
 10
3.669965175
 20
236.090936455
 11
17.669965175
 21
236.090936455
  0
LINE
  8
1
 62
7
  6
CONTINUOUS
 10
2.669965175
 20
233.590936455
 11
2.669965175
 21
235.090936455
  0
ARC
  8
1
 62
7
  6
CONTINUOUS
 10
3.669965175
 20
233.590936455
 40
1.000000000
 50
180.000000000
 51
270.000000000
  0
ARC
  8
1
 62
7
  6
CONTINUOUS
 10
3.669965175
 20
235.090936455
 40
1.000000000
 50
90.000000000
 51
180.000000000
  0
LINE
  8
1
 62
7
  6
CONTINUOUS
 10
3.669965175
 20
243.090936455
 11
17.669965175
 21
243.090936455
  0
LINE
  8
1
 62
7
  6
CONTINUOUS
 10
3.669965175
 20
246.590936455
 11
17.669965175
 21
246.590936455
  0
LINE
  8
1
 62
7
  6
CONTINUOUS
 10
2.669965175
 20
244.090936455
 11
2.669965175
 21
245.590936455
  0
ARC
  8
1
 62
7
  6
CONTINUOUS
 10
3.669965175
 20
244.090936455
 40
1.000000000
 50
180.000000000
 51
270.000000000
  0
ARC
  8
1
 62
7
  6
CONTINUOUS
 10
3.669965175
 20
245.590936455
 40
1.000000000
 50
90.000000000
 51
180.000000000
  0
LINE
  8
1
 62
7
  6
CONTINUOUS
 10
3.669965175
 20
253.590936455
 11
17.669965175
 21
253.590936455
  0
LINE
  8
1
 62
7
  6
CONTINUOUS
 10
3.669965175
 20
257.090936455
 11
17.669965175
 21
257.090936455
  0
LINE
  8
1
 62
7
  6
CONTINUOUS
 10
2.669965175
 20
254.590936455
 11
2.669965175
 21
256.090936455
  0
ARC
  8
1
 62
7
  6
CONTINUOUS
 10
3.669965175
 20
254.590936455
 40
1.000000000
 50
180.000000000
 51
270.000000000
  0
ARC
  8
1
 62
7
  6
CONTINUOUS
 10
3.669965175
 20
256.090936455
 40
1.000000000
 50
90.000000000
 51
180.000000000
  0
LINE
  8
1
 62
7
  6
CONTINUOUS
 10
6.169965175
 20
285.090936455
 11
6.169965175
 21
278.090936455
  0
LINE
  8
1
 62
7
  6
CONTINUOUS
 10
2.669965175
 20
277.090936455
 11
2.669965175
 21
276.340936455
  0
LINE
  8
1
 62
7
  6
CONTINUOUS
 10
3.669965175
 20
278.090936455
 11
17.669965175
 21
278.090936455
  0
LINE
  8
1
 62
7
  6
CONTINUOUS
 10
2.669965175
 20
277.090936455
 11
2.669965175
 21
276.340936455
  0
ARC
  8
1
 62
7
  6
CONTINUOUS
 10
3.669965175
 20
277.090936455
 40
1.000000000
 50
90.000000000
 51
180.000000000
  0
LINE
  8
1
 62
7
  6
CONTINUOUS
 10
3.669965175
 20
288.590936455
 11
17.669965175
 21
288.590936455
  0
LINE
  8
1
 62
7
  6
CONTINUOUS
 10
2.669965175
 20
275.590936455
 11
2.669965175
 21
276.340936455
  0
LINE
  8
1
 62
7
  6
CONTINUOUS
 10
3.669965175
 20
285.090936455
 11
17.669965175
 21
285.090936455
  0
LINE
  8
1
 62
7
  6
CONTINUOUS
 10
2.669965175
 20
287.590936455
 11
2.669965175
 21
286.090936455
  0
ARC
  8
1
 62
7
  6
CONTINUOUS
 10
3.669965175
 20
287.590936455
 40
1.000000000
 50
90.000000000
 51
180.000000000
  0
ARC
  8
1
 62
7
  6
CONTINUOUS
 10
3.669965175
 20
286.090936455
 40
1.000000000
 50
180.000000000
 51
270.000000000
  0
LINE
  8
1
 62
7
  6
CONTINUOUS
 10
17.669965175
 20
438.597202052
 11
17.669965175
 21
276.340936455
  0
LINE
  8
2
 62
7
  6
CONTINUOUS
 10
37.669965175
 20
456.840936455
 11
33.876991338
 21
456.509094242
  0
LINE
  8
1
 62
7
  6
CONTINUOUS
 10
37.669965175
 20
276.340936455
 11
37.669965175
 21
456.840936455
  0
ARC
  8
1
 62
7
  6
CONTINUOUS
 10
3.669965175
 20
296.590936455
 40
1.000000000
 50
180.000000000
 51
270.000000000
  0
ARC
  8
1
 62
7
  6
CONTINUOUS
 10
3.669965175
 20
298.090936455
 40
1.000000000
 50
90.000000000
 51
180.000000000
  0
LINE
  8
1
 62
7
  6
CONTINUOUS
 10
2.669965175
 20
298.090936455
 11
2.669965175
 21
296.590936455
  0
LINE
  8
1
 62
7
  6
CONTINUOUS
 10
3.669965175
 20
295.590936455
 11
17.669965175
 21
295.590936455
  0
LINE
  8
1
 62
7
  6
CONTINUOUS
 10
37.669965175
 20
276.340936455
 11
37.669965175
 21
95.840936455
  0
LINE
  8
2
 62
7
  6
CONTINUOUS
 10
37.669965175
 20
95.840936455
 11
33.876991338
 21
96.172778665
  0
LINE
  8
1
 62
7
  6
CONTINUOUS
 10
17.669965175
 20
114.084670858
 11
17.669965175
 21
276.340936455
  0
ARC
  8
1
 62
7
  6
CONTINUOUS
 10
3.669965175
 20
266.590936455
 40
1.000000000
 50
90.000000000
 51
180.000000000
  0
ARC
  8
1
 62
7
  6
CONTINUOUS
 10
3.669965175
 20
265.090936455
 40
1.000000000
 50
180.000000000
 51
270.000000000
  0
LINE
  8
1
 62
7
  6
CONTINUOUS
 10
2.669965175
 20
265.090936455
 11
2.669965175
 21
266.590936455
  0
LINE
  8
1
 62
7
  6
CONTINUOUS
 10
3.669965175
 20
267.590936455
 11
17.669965175
 21
267.590936455
  0
LINE
  8
1
 62
7
  6
CONTINUOUS
 10
2.669965175
 20
277.090936455
 11
2.669965175
 21
276.340936455
  0
LINE
  8
1
 62
7
  6
CONTINUOUS
 10
3.669965175
 20
264.090936455
 11
17.669965175
 21
264.090936455
  0
ARC
  8
1
 62
7
  6
CONTINUOUS
 10
3.669965175
 20
275.590936455
 40
1.000000000
 50
180.000000000
 51
270.000000000
  0
LINE
  8
1
 62
7
  6
CONTINUOUS
 10
2.669965175
 20
275.590936455
 11
2.669965175
 21
276.340936455
  0
LINE
  8
1
 62
7
  6
CONTINUOUS
 10
3.669965175
 20
274.590936455
 11
17.669965175
 21
274.590936455
  0
LINE
  8
1
 62
7
  6
CONTINUOUS
 10
2.669965175
 20
275.590936455
 11
2.669965175
 21
276.340936455
  0
LINE
  8
1
 62
7
  6
CONTINUOUS
 10
6.169965175
 20
267.590936455
 11
6.169965175
 21
274.590936455
  0
LINE
  8
1
 62
7
  6
CONTINUOUS
 10
6.169965175
 20
257.090936455
 11
6.169965175
 21
264.090936455
  0
LINE
  8
1
 62
7
  6
CONTINUOUS
 10
6.169965175
 20
246.590936455
 11
6.169965175
 21
253.590936455
  0
LINE
  8
1
 62
1
  6
HIDDEN2
 10
-108.518291972
 20
395.840936455
 11
-117.518291972
 21
395.840936455
  0
LINE
  8
1
 62
7
  6
CONTINUOUS
 10
6.169965175
 20
236.090936455
 11
6.169965175
 21
243.090936455
  0
LINE
  8
1
 62
7
  6
CONTINUOUS
 10
6.169965175
 20
225.590936455
 11
6.169965175
 21
232.590936455
  0
LINE
  8
1
 62
7
  6
CONTINUOUS
 10
6.169965175
 20
215.090936455
 11
6.169965175
 21
222.090936455
  0
LINE
  8
1
 62
7
  6
CONTINUOUS
 10
6.169965175
 20
204.590936455
 11
6.169965175
 21
211.590936455
  0
LINE
  8
1
 62
7
  6
CONTINUOUS
 10
6.169965175
 20
194.090936455
 11
6.169965175
 21
201.090936455
  0
LINE
  8
1
 62
7
  6
CONTINUOUS
 10
6.169965175
 20
183.590936455
 11
6.169965175
 21
190.590936455
  0
ARC
  8
2
 62
7
  6
CONTINUOUS
 10
35.669965175
 20
114.084670858
 40
18.000000000
 50
180.000000000
 51
265.000000000
  0
LINE
  8
1
 62
7
  6
CONTINUOUS
 10
6.169965175
 20
141.590936455
 11
6.169965175
 21
148.590936455
  0
LINE
  8
1
 62
7
  6
CONTINUOUS
 10
6.169965175
 20
173.090936455
 11
6.169965175
 21
180.090936455
  0
ARC
  8
1
 62
7
  6
CONTINUOUS
 10
36.317352135
 20
124.066230215
 40
28.000000000
 50
217.736151944
 51
265.000000000
  0
ARC
  8
1
 62
7
  6
CONTINUOUS
 10
57.669965175
 20
140.590936455
 40
55.000000000
 50
180.000000000
 51
217.736151944
  0
LINE
  8
1
 62
7
  6
CONTINUOUS
 10
3.669965175
 20
141.590936455
 11
17.669965175
 21
141.590936455
  0
LINE
  8
1
 62
7
  6
CONTINUOUS
 10
6.169965175
 20
152.090936455
 11
6.169965175
 21
159.090936455
  0
LINE
  8
1
 62
7
  6
CONTINUOUS
 10
6.169965175
 20
162.590936455
 11
6.169965175
 21
169.590936455
  0
ARC
  8
1
 62
7
  6
CONTINUOUS
 10
3.669965175
 20
140.590936455
 40
1.000000000
 50
90.000000000
 51
180.000000000
  0
LINE
  8
1
 62
7
  6
CONTINUOUS
 10
3.669965175
 20
148.590936455
 11
17.669965175
 21
148.590936455
  0
LINE
  8
1
 62
7
  6
CONTINUOUS
 10
3.669965175
 20
152.090936455
 11
17.669965175
 21
152.090936455
  0
LINE
  8
1
 62
7
  6
CONTINUOUS
 10
2.669965175
 20
149.590936455
 11
2.669965175
 21
151.090936455
  0
ARC
  8
1
 62
7
  6
CONTINUOUS
 10
3.669965175
 20
149.590936455
 40
1.000000000
 50
180.000000000
 51
270.000000000
  0
LINE
  8
1
 62
7
  6
CONTINUOUS
 10
3.669965175
 20
162.590936455
 11
17.669965175
 21
162.590936455
  0
ARC
  8
1
 62
7
  6
CONTINUOUS
 10
3.669965175
 20
170.590936455
 40
1.000000000
 50
180.000000000
 51
270.000000000
  0
ARC
  8
1
 62
7
  6
CONTINUOUS
 10
3.669965175
 20
182.590936455
 40
1.000000000
 50
90.000000000
 51
180.000000000
  0
LINE
  8
1
 62
7
  6
CONTINUOUS
 10
2.669965175
 20
160.090936455
 11
2.669965175
 21
161.590936455
  0
LINE
  8
1
 62
7
  6
CONTINUOUS
 10
2.669965175
 20
181.090936455
 11
2.669965175
 21
182.590936455
  0
LINE
  8
1
 62
7
  6
CONTINUOUS
 10
-325.518291972
 20
-52.255290052
 11
-93.518291972
 21
-52.255290052
  0
LINE
  8
1
 62
7
  6
CONTINUOUS
 10
3.669965175
 20
299.090936455
 11
17.669965175
 21
299.090936455
  0
LINE
  8
1
 62
7
  6
CONTINUOUS
 10
-325.518291972
 20
-52.255290052
 11
-557.518291972
 21
-52.255290052
  0
LINE
  8
2
 62
7
  6
CONTINUOUS
 10
-557.518291972
 20
-52.255290052
 11
-557.206062135
 21
-48.686486682
  0
LINE
  8
2
 62
7
  6
CONTINUOUS
 10
-93.518291972
 20
-52.255290052
 11
-93.830521809
 21
-48.686486683
  0
ARC
  8
2
 62
7
  6
CONTINUOUS
 10
-539.274557569
 20
-50.255290052
 40
18.000000000
 50
90.000000000
 51
175.000000000
  0
ARC
  8
1
 62
7
  6
CONTINUOUS
 10
-325.518291972
 20
-1565.813326118
 40
1548.558036067
 50
81.971883166
 51
98.028116834
  0
LINE
  8
1
 62
7
  6
CONTINUOUS
 10
3.669965175
 20
190.590936455
 11
17.669965175
 21
190.590936455
  0
LINE
  8
1
 62
7
  6
CONTINUOUS
 10
3.669965175
 20
194.090936455
 11
17.669965175
 21
194.090936455
  0
ARC
  8
1
 62
7
  6
CONTINUOUS
 10
3.669965175
 20
160.090936455
 40
1.000000000
 50
180.000000000
 51
270.000000000
  0
ARC
  8
1
 62
7
  6
CONTINUOUS
 10
3.669965175
 20
161.590936455
 40
1.000000000
 50
90.000000000
 51
180.000000000
  0
LINE
  8
1
 62
7
  6
CONTINUOUS
 10
3.669965175
 20
169.590936455
 11
17.669965175
 21
169.590936455
  0
LINE
  8
1
 62
7
  6
CONTINUOUS
 10
3.669965175
 20
173.090936455
 11
17.669965175
 21
173.090936455
  0
LINE
  8
5
 62
2
  6
CENTER
 10
221.973834491
 20
276.340936455
 11
-6.558241405
 21
276.340936455
  0
LINE
  8
9
 62
7
  6
CONTINUOUS
 10
202.669965175
 20
281.340936455
 11
157.669965175
 21
281.340936455
  0
ARC
  8
9
 62
7
  6
CONTINUOUS
 10
158.669965175
 20
415.340936455
 40
1.000000000
 50
90.000000000
 51
180.000000000
  0
LINE
  8
3
 62
7
  6
CONTINUOUS
 10
166.319965175
 20
281.340936455
 11
166.319965175
 21
261.340936455
  0
ARC
  8
4
 62
7
  6
CONTINUOUS
 10
-469.405359972
 20
-176.255290052
 40
4.000000000
 50
15.000000000
 51
90.000000000
  0
LINE
  8
4
 62
7
  6
CONTINUOUS
 10
-465.541657972
 20
-175.220014052
 11
-464.931845972
 21
-177.495858052
  0
ARC
  8
4
 62
7
  6
CONTINUOUS
 10
-460.488587972
 20
-176.305290052
 40
4.600000000
 50
195.000000000
 51
270.000000000
  0
LINE
  8
4
 62
7
  6
CONTINUOUS
 10
-460.488587972
 20
-180.905290052
 11
-404.018291972
 21
-180.905290052
  0
LINE
  8
4
 62
7
  6
CONTINUOUS
 10
-347.547995972
 20
-180.905290052
 11
-404.018291972
 21
-180.905290052
  0
ARC
  8
4
 62
7
  6
CONTINUOUS
 10
-347.547995972
 20
-176.305290052
 40
4.600000000
 50
270.000000000
 51
345.000000000
  0
LINE
  8
4
 62
7
  6
CONTINUOUS
 10
-342.494925972
 20
-175.220014052
 11
-343.104737972
 21
-177.495858052
  0
ARC
  8
4
 62
7
  6
CONTINUOUS
 10
-338.631223972
 20
-176.255290052
 40
4.000000000
 50
90.000000000
 51
165.000000000
  0
LINE
  8
4
 62
7
  6
CONTINUOUS
 10
157.669965175
 20
136.340936455
 11
157.669965175
 21
281.340936455
  0
ARC
  8
1
 62
7
  6
CONTINUOUS
 10
3.669965175
 20
307.090936455
 40
1.000000000
 50
180.000000000
 51
270.000000000
  0
LINE
  8
1
 62
7
  6
CONTINUOUS
 10
2.669965175
 20
170.590936455
 11
2.669965175
 21
172.090936455
  0
LINE
  8
9
 62
7
  6
CONTINUOUS
 10
207.669965175
 20
411.340936455
 11
207.669965175
 21
405.281603442
  0
LINE
  8
1
 62
7
  6
CONTINUOUS
 10
-249.518291972
 20
89.140936455
 11
-151.518291972
 21
89.140936455
  0
LINE
  8
7
 62
1
  6
CONTINUOUS
 10
165.169965175
 20
392.840936455
 11
165.169965175
 21
380.840936455
  0
LINE
  8
7
 62
1
  6
CONTINUOUS
 10
165.169965175
 20
380.840936455
 11
166.669965175
 21
378.242860245
  0
LINE
  8
9
 62
7
  6
CONTINUOUS
 10
158.669965175
 20
359.340936455
 11
202.669965175
 21
359.340936455
  0
LINE
  8
4
 62
7
  6
CONTINUOUS
 10
157.669965175
 20
416.340936455
 11
157.669965175
 21
281.340936455
  0
LINE
  8
4
 62
7
  6
CONTINUOUS
 10
37.669965175
 20
416.340936455
 11
157.669965175
 21
416.340936455
  0
ARC
  8
1
 62
7
  6
CONTINUOUS
 10
3.669965175
 20
361.090936455
 40
1.000000000
 50
90.000000000
 51
180.000000000
  0
LINE
  8
1
 62
7
  6
CONTINUOUS
 10
2.669965175
 20
361.090936455
 11
2.669965175
 21
359.590936455
  0
ARC
  8
9
 62
7
  6
CONTINUOUS
 10
202.669965175
 20
354.340936455
 40
5.000000000
 50
0.000000000
 51
90.000000000
  0
LINE
  8
1
 62
7
  6
CONTINUOUS
 10
-248.518291972
 20
89.140936455
 11
-248.518291972
 21
76.140936455
  0
ARC
  8
1
 62
1
  6
HIDDEN2
 10
-325.518291972
 20
120.840936455
 40
2.500000000
 50
0.000000000
 51
180.000000000
  0
ARC
  8
1
 62
1
  6
HIDDEN2
 10
-325.518291972
 20
111.840936455
 40
2.500000000
 50
180.000000000
 51
0.000000000
  0
LINE
  8
3
 62
1
  6
HIDDEN2
 10
-548.018291972
 20
131.340936455
 11
-548.018291972
 21
421.340936455
  0
LINE
  8
1
 62
1
  6
HIDDEN2
 10
-323.018291972
 20
120.840936455
 11
-323.018291972
 21
111.840936455
  0
ARC
  8
1
 62
1
  6
HIDDEN2
 10
-117.518291972
 20
398.340936455
 40
2.500000000
 50
90.000000000
 51
270.000000000
  0
ARC
  8
1
 62
7
  6
CONTINUOUS
 10
3.669965175
 20
308.590936455
 40
1.000000000
 50
90.000000000
 51
180.000000000
  0
LINE
  8
1
 62
7
  6
CONTINUOUS
 10
2.669965175
 20
308.590936455
 11
2.669965175
 21
307.090936455
  0
ARC
  8
3
 62
1
  6
HIDDEN2
 10
-523.018291972
 20
131.340936455
 40
25.000000000
 50
180.000000000
 51
270.000000000
  0
ARC
  8
3
 62
1
  6
HIDDEN2
 10
-128.018291972
 20
421.340936455
 40
25.000000000
 50
0.000000000
 51
90.000000000
  0
CIRCLE
  8
1
 62
1
  6
HIDDEN2
 10
-174.018291972
 20
432.340936455
 40
2.500000000
  0
CIRCLE
  8
1
 62
1
  6
HIDDEN2
 10
-200.518291972
 20
116.340936455
 40
6.000000000
  0
ARC
  8
1
 62
1
  6
HIDDEN2
 10
-117.518291972
 20
154.340936455
 40
2.500000000
 50
90.000000000
 51
270.000000000
  0
LINE
  8
1
 62
1
  6
HIDDEN2
 10
-117.518291972
 20
151.840936455
 11
-108.518291972
 21
151.840936455
  0
ARC
  8
1
 62
1
  6
HIDDEN2
 10
-533.518291972
 20
398.340936455
 40
2.500000000
 50
270.000000000
 51
90.000000000
  0
LINE
  8
1
 62
1
  6
HIDDEN2
 10
-533.518291972
 20
400.840936455
 11
-542.518291972
 21
400.840936455
  0
ARC
  8
1
 62
1
  6
HIDDEN2
 10
-542.518291972
 20
398.340936455
 40
2.500000000
 50
90.000000000
 51
270.000000000
  0
LINE
  8
1
 62
7
  6
CONTINUOUS
 10
3.669965175
 20
306.090936455
 11
17.669965175
 21
306.090936455
  0
LINE
  8
1
 62
7
  6
CONTINUOUS
 10
3.669965175
 20
309.590936455
 11
17.669965175
 21
309.590936455
  0
ARC
  8
1
 62
7
  6
CONTINUOUS
 10
3.669965175
 20
317.590936455
 40
1.000000000
 50
180.000000000
 51
270.000000000
  0
ARC
  8
1
 62
7
  6
CONTINUOUS
 10
3.669965175
 20
319.090936455
 40
1.000000000
 50
90.000000000
 51
180.000000000
  0
LINE
  8
1
 62
7
  6
CONTINUOUS
 10
2.669965175
 20
319.090936455
 11
2.669965175
 21
317.590936455
  0
LINE
  8
1
 62
7
  6
CONTINUOUS
 10
3.669965175
 20
316.590936455
 11
17.669965175
 21
316.590936455
  0
LINE
  8
1
 62
7
  6
CONTINUOUS
 10
3.669965175
 20
320.090936455
 11
17.669965175
 21
320.090936455
  0
ARC
  8
1
 62
7
  6
CONTINUOUS
 10
3.669965175
 20
328.090936455
 40
1.000000000
 50
180.000000000
 51
270.000000000
  0
ARC
  8
1
 62
7
  6
CONTINUOUS
 10
3.669965175
 20
329.590936455
 40
1.000000000
 50
90.000000000
 51
180.000000000
  0
LINE
  8
1
 62
7
  6
CONTINUOUS
 10
2.669965175
 20
329.590936455
 11
2.669965175
 21
328.090936455
  0
LINE
  8
1
 62
7
  6
CONTINUOUS
 10
3.669965175
 20
327.090936455
 11
17.669965175
 21
327.090936455
  0
LINE
  8
1
 62
7
  6
CONTINUOUS
 10
3.669965175
 20
330.590936455
 11
17.669965175
 21
330.590936455
  0
ARC
  8
1
 62
7
  6
CONTINUOUS
 10
3.669965175
 20
338.590936455
 40
1.000000000
 50
180.000000000
 51
270.000000000
  0
ARC
  8
1
 62
7
  6
CONTINUOUS
 10
3.669965175
 20
340.090936455
 40
1.000000000
 50
90.000000000
 51
180.000000000
  0
LINE
  8
1
 62
7
  6
CONTINUOUS
 10
2.669965175
 20
340.090936455
 11
2.669965175
 21
338.590936455
  0
LINE
  8
1
 62
7
  6
CONTINUOUS
 10
3.669965175
 20
337.590936455
 11
17.669965175
 21
337.590936455
  0
LINE
  8
1
 62
7
  6
CONTINUOUS
 10
3.669965175
 20
341.090936455
 11
17.669965175
 21
341.090936455
  0
ARC
  8
1
 62
7
  6
CONTINUOUS
 10
3.669965175
 20
349.090936455
 40
1.000000000
 50
180.000000000
 51
270.000000000
  0
ARC
  8
1
 62
7
  6
CONTINUOUS
 10
3.669965175
 20
350.590936455
 40
1.000000000
 50
90.000000000
 51
180.000000000
  0
LINE
  8
1
 62
2
  6
CENTER
 10
-200.518291972
 20
103.604834616
 11
-200.518291972
 21
63.392765039
  0
CIRCLE
  8
1
 62
1
  6
HIDDEN2
 10
-174.018291972
 20
120.340936455
 40
2.500000000
  0
LINE
  8
1
 62
1
  6
HIDDEN2
 10
-542.518291972
 20
156.840936455
 11
-533.518291972
 21
156.840936455
  0
CIRCLE
  8
1
 62
1
  6
HIDDEN2
 10
-477.018291972
 20
120.340936455
 40
2.500000000
  0
LINE
  8
1
 62
1
  6
HIDDEN2
 10
-328.018291972
 20
111.840936455
 11
-328.018291972
 21
120.840936455
  0
ARC
  8
1
 62
1
  6
HIDDEN2
 10
-542.518291972
 20
154.340936455
 40
2.500000000
 50
90.000000000
 51
270.000000000
  0
LINE
  8
1
 62
1
  6
HIDDEN2
 10
-533.518291972
 20
151.840936455
 11
-542.518291972
 21
151.840936455
  0
ARC
  8
1
 62
1
  6
HIDDEN2
 10
-533.518291972
 20
154.340936455
 40
2.500000000
 50
270.000000000
 51
90.000000000
  0
LINE
  8
3
 62
1
  6
HIDDEN2
 10
-128.018291972
 20
106.340936455
 11
-523.018291972
 21
106.340936455
  0
LINE
  8
3
 62
1
  6
HIDDEN2
 10
-103.018291972
 20
421.340936455
 11
-103.018291972
 21
131.340936455
  0
LINE
  8
3
 62
1
  6
HIDDEN2
 10
-523.018291972
 20
446.340936455
 11
-128.018291972
 21
446.340936455
  0
ARC
  8
1
 62
1
  6
HIDDEN2
 10
-108.518291972
 20
398.340936455
 40
2.500000000
 50
270.000000000
 51
90.000000000
  0
ARC
  8
1
 62
1
  6
HIDDEN2
 10
-325.518291972
 20
431.840936455
 40
2.500000000
 50
180.000000000
 51
0.000000000
  0
ARC
  8
1
 62
1
  6
HIDDEN2
 10
-108.518291972
 20
154.340936455
 40
2.500000000
 50
270.000000000
 51
90.000000000
  0
LINE
  8
1
 62
1
  6
HIDDEN2
 10
-108.518291972
 20
156.840936455
 11
-117.518291972
 21
156.840936455
  0
LINE
  8
4
 62
1
  6
HIDDEN2
 10
-128.618291972
 20
136.940936455
 11
-522.418291972
 21
136.940936455
  0
LINE
  8
4
 62
1
  6
HIDDEN2
 10
-128.618291972
 20
415.740936455
 11
-128.618291972
 21
136.940936455
  0
LINE
  8
4
 62
1
  6
HIDDEN2
 10
-522.418291972
 20
415.740936455
 11
-128.618291972
 21
415.740936455
  0
LINE
  8
4
 62
1
  6
HIDDEN2
 10
-522.418291972
 20
136.940936455
 11
-522.418291972
 21
415.740936455
  0
ARC
  8
3
 62
1
  6
HIDDEN2
 10
-523.018291972
 20
421.340936455
 40
25.000000000
 50
90.000000000
 51
180.000000000
  0
LINE
  8
1
 62
1
  6
HIDDEN2
 10
-117.518291972
 20
400.840936455
 11
-108.518291972
 21
400.840936455
  0
CIRCLE
  8
1
 62
1
  6
HIDDEN2
 10
-477.018291972
 20
432.340936455
 40
2.500000000
  0
LINE
  8
1
 62
1
  6
HIDDEN2
 10
-542.518291972
 20
395.840936455
 11
-533.518291972
 21
395.840936455
  0
LINE
  8
1
 62
7
  6
CONTINUOUS
 10
2.669965175
 20
350.590936455
 11
2.669965175
 21
349.090936455
  0
ARC
  8
3
 62
1
  6
HIDDEN2
 10
-128.018291972
 20
131.340936455
 40
25.000000000
 50
270.000000000
 51
0.000000000
  0
LINE
  8
1
 62
7
  6
CONTINUOUS
 10
3.669965175
 20
348.090936455
 11
17.669965175
 21
348.090936455
  0
LINE
  8
1
 62
7
  6
CONTINUOUS
 10
3.669965175
 20
351.590936455
 11
17.669965175
 21
351.590936455
  0
ARC
  8
1
 62
7
  6
CONTINUOUS
 10
3.669965175
 20
359.590936455
 40
1.000000000
 50
180.000000000
 51
270.000000000
  0
LINE
  8
1
 62
7
  6
CONTINUOUS
 10
3.669965175
 20
393.590936455
 11
17.669965175
 21
393.590936455
  0
LINE
  8
1
 62
7
  6
CONTINUOUS
 10
2.669965175
 20
191.590936455
 11
2.669965175
 21
193.090936455
  0
ARC
  8
1
 62
7
  6
CONTINUOUS
 10
3.669965175
 20
191.590936455
 40
1.000000000
 50
180.000000000
 51
270.000000000
  0
LINE
  8
1
 62
7
  6
CONTINUOUS
 10
2.669965175
 20
275.590936455
 11
2.669965175
 21
276.340936455
  0
LINE
  8
1
 62
7
  6
CONTINUOUS
 10
37.669965175
 20
276.340936455
 11
37.669965175
 21
456.840936455
  0
LINE
  8
1
 62
7
  6
CONTINUOUS
 10
-152.518291972
 20
76.140936455
 11
-152.518291972
 21
89.140936455
  0
ARC
  8
1
 62
7
  6
CONTINUOUS
 10
3.669965175
 20
401.590936455
 40
1.000000000
 50
180.000000000
 51
270.000000000
  0
ARC
  8
1
 62
7
  6
CONTINUOUS
 10
3.669965175
 20
371.590936455
 40
1.000000000
 50
90.000000000
 51
180.000000000
  0
ARC
  8
1
 62
7
  6
CONTINUOUS
 10
3.669965175
 20
380.590936455
 40
1.000000000
 50
180.000000000
 51
270.000000000
  0
LINE
  8
1
 62
1
  6
HIDDEN2
 10
-328.018291972
 20
440.840936455
 11
-328.018291972
 21
431.840936455
  0
ARC
  8
1
 62
1
  6
HIDDEN2
 10
-325.518291972
 20
440.840936455
 40
2.500000000
 50
0.000000000
 51
180.000000000
  0
LINE
  8
1
 62
1
  6
HIDDEN2
 10
-323.018291972
 20
431.840936455
 11
-323.018291972
 21
440.840936455
  0
LINE
  8
1
 62
7
  6
CONTINUOUS
 10
3.669965175
 20
369.090936455
 11
17.669965175
 21
369.090936455
  0
LINE
  8
1
 62
7
  6
CONTINUOUS
 10
3.669965175
 20
372.590936455
 11
17.669965175
 21
372.590936455
  0
LINE
  8
9
 62
7
  6
CONTINUOUS
 10
187.669965175
 20
359.340936455
 11
187.669965175
 21
281.340936455
  0
POLYLINE
  8
1
 62
7
  6
CONTINUOUS
 66
1
  0
VERTEX
  8
1
 10
185.766109471
 20
359.673637408
  0
VERTEX
  8
1
 10
185.537990858
 20
363.483875468
  0
VERTEX
  8
1
 10
185.625969545
 20
366.021903652
  0
VERTEX
  8
1
 10
185.784519598
 20
368.556502075
  0
VERTEX
  8
1
 10
186.013518295
 20
371.085708848
  0
VERTEX
  8
1
 10
186.499435635
 20
373.581401705
  0
VERTEX
  8
1
 10
187.050829568
 20
376.063449898
  0
VERTEX
  8
1
 10
187.667318538
 20
378.530135905
  0
VERTEX
  8
1
 10
188.527614315
 20
380.926265835
  0
VERTEX
  8
1
 10
189.447989518
 20
383.299966948
  0
VERTEX
  8
1
 10
190.427860165
 20
385.649733105
  0
VERTEX
  8
1
 10
191.642934498
 20
387.881808538
  0
VERTEX
  8
1
 10
192.914279621
 20
390.082319375
  0
VERTEX
  8
1
 10
194.241076115
 20
392.249847332
  0
VERTEX
  8
1
 10
195.792735428
 20
394.253833812
  0
VERTEX
  8
1
 10
197.397094488
 20
396.215883875
  0
VERTEX
  8
1
 10
199.053020401
 20
398.134612052
  0
VERTEX
  8
1
 10
200.903170321
 20
399.872392635
  0
VERTEX
  8
1
 10
202.799753535
 20
401.559374612
  0
VERTEX
  8
1
 10
204.741375765
 20
403.194317785
  0
VERTEX
  8
1
 10
206.833200435
 20
404.647879835
  0
VERTEX
  8
1
 10
208.960101478
 20
406.049616265
  0
VERTEX
  8
1
 10
211.120795185
 20
407.398681038
  0
VERTEX
  8
1
 10
213.391402101
 20
408.555640615
  0
VERTEX
  8
1
 10
215.687498221
 20
409.661151278
  0
VERTEX
  8
1
 10
218.007917971
 20
410.714651825
  0
VERTEX
  8
1
 10
220.400138108
 20
411.557745765
  0
VERTEX
  8
1
 10
222.810246215
 20
412.348254142
  0
VERTEX
  8
1
 10
225.237086515
 20
413.085797862
  0
VERTEX
  8
1
 10
226.461798445
 20
413.383736955
  0
VERTEX
  8
1
 10
227.692832361
 20
413.654370508
  0
VERTEX
  8
1
 10
228.929579548
 20
413.897564698
  0
SEQEND
  8
1
  0
LINE
  8
9
 62
7
  6
CONTINUOUS
 10
207.669965175
 20
399.176416145
 11
207.669965175
 21
286.340936455
  0
POLYLINE
  8
1
 62
7
  6
CONTINUOUS
 66
1
  0
VERTEX
  8
1
 10
190.835033155
 20
359.340963538
  0
VERTEX
  8
1
 10
190.550790391
 20
362.840656952
  0
VERTEX
  8
1
 10
190.591180791
 20
365.165080792
  0
VERTEX
  8
1
 10
190.698962741
 20
367.487355672
  0
VERTEX
  8
1
 10
190.874045575
 20
369.805528135
  0
VERTEX
  8
1
 10
191.291639321
 20
372.087318468
  0
VERTEX
  8
1
 10
191.771509988
 20
374.356828505
  0
VERTEX
  8
1
 10
192.313298255
 20
376.612358852
  0
VERTEX
  8
1
 10
193.080051091
 20
378.804260935
  0
VERTEX
  8
1
 10
193.903285631
 20
380.975580705
  0
VERTEX
  8
1
 10
194.782450165
 20
383.124863002
  0
VERTEX
  8
1
 10
195.875704535
 20
385.172365752
  0
VERTEX
  8
1
 10
197.020449648
 20
387.191531728
  0
VERTEX
  8
1
 10
198.215951535
 20
389.181066315
  0
VERTEX
  8
1
 10
199.617359271
 20
391.025379672
  0
VERTEX
  8
1
 10
201.066783091
 20
392.832201742
  0
VERTEX
  8
1
 10
202.563220465
 20
394.600282792
  0
VERTEX
  8
1
 10
204.247632695
 20
396.193459912
  0
VERTEX
  8
1
 10
205.975998808
 20
397.738842872
  0
VERTEX
  8
1
 10
207.746963161
 20
399.235219552
  0
VERTEX
  8
1
 10
209.663751761
 20
400.558774365
  0
VERTEX
  8
1
 10
211.614152515
 20
401.832278505
  0
VERTEX
  8
1
 10
213.596858825
 20
403.054878835
  0
VERTEX
  8
1
 10
215.682110035
 20
404.103068312
  0
VERTEX
  8
1
 10
217.791068808
 20
405.102701572
  0
VERTEX
  8
1
 10
219.922604685
 20
406.053242778
  0
VERTEX
  8
1
 10
222.111173415
 20
406.823203785
  0
VERTEX
  8
1
 10
224.315562738
 20
407.546626722
  0
VERTEX
  8
1
 10
226.534783188
 20
408.223186872
  0
VERTEX
  8
1
 10
227.648683911
 20
408.502004518
  0
VERTEX
  8
1
 10
228.768044225
 20
408.758025208
  0
VERTEX
  8
1
 10
229.892397618
 20
408.991142238
  0
SEQEND
  8
1
  0
LINE
  8
1
 62
7
  6
CONTINUOUS
 10
-248.518291972
 20
76.140936455
 11
-152.518291972
 21
76.140936455
  0
CIRCLE
  8
1
 62
1
  6
HIDDEN2
 10
-200.518291972
 20
116.340936455
 40
2.500000000
  0
LINE
  8
3
 62
7
  6
CONTINUOUS
 10
-460.488587972
 20
-180.905290052
 11
-404.018291972
 21
-180.905290052
  0
ARC
  8
8
 62
7
  6
CONTINUOUS
 10
-366.018291972
 20
-209.105290052
 40
3.000000000
 50
270.000000000
 51
0.000000000
  0
ARC
  8
8
 62
7
  6
CONTINUOUS
 10
-442.018291972
 20
-209.105290052
 40
3.000000000
 50
180.000000000
 51
270.000000000
  0
LINE
  8
8
 62
7
  6
CONTINUOUS
 10
-353.018291972
 20
-180.905290052
 11
-455.018291972
 21
-180.905290052
  0
LINE
  8
8
 62
7
  6
CONTINUOUS
 10
-353.018291972
 20
-183.305290052
 11
-353.018291972
 21
-180.905290052
  0
ARC
  8
1
 62
7
  6
CONTINUOUS
 10
-133.018291972
 20
-57.255290052
 40
5.000000000
 50
0.000000000
 51
90.000000000
  0
ARC
  8
1
 62
7
  6
CONTINUOUS
 10
-268.018291972
 20
-57.255290052
 40
5.000000000
 50
90.000000000
 51
180.000000000
  0
LINE
  8
1
 62
7
  6
CONTINUOUS
 10
-250.018291972
 20
-52.255290052
 11
-133.018291972
 21
-52.255290052
  0
LINE
  8
8
 62
7
  6
CONTINUOUS
 10
-455.018291972
 20
-183.305290052
 11
-353.018291972
 21
-183.305290052
  0
LINE
  8
8
 62
7
  6
CONTINUOUS
 10
-455.018291972
 20
-180.905290052
 11
-455.018291972
 21
-183.305290052
  0
LINE
  8
8
 62
7
  6
CONTINUOUS
 10
-363.018291972
 20
-209.105290052
 11
-363.018291972
 21
-183.305290052
  0
LINE
  8
8
 62
7
  6
CONTINUOUS
 10
-442.018291972
 20
-212.105290052
 11
-366.018291972
 21
-212.105290052
  0
LINE
  8
8
 62
7
  6
CONTINUOUS
 10
-445.018291972
 20
-183.305290052
 11
-445.018291972
 21
-209.105290052
  0
LINE
  8
1
 62
2
  6
DASHDOT2
 10
-200.518291972
 20
-238.012193405
 11
-200.518291972
 21
-68.819583275
  0
LINE
  8
1
 62
7
  6
CONTINUOUS
 10
-128.018291972
 20
-57.255290052
 11
-128.018291972
 21
-222.255290052
  0
LINE
  8
1
 62
7
  6
CONTINUOUS
 10
-268.018291972
 20
-52.255290052
 11
-250.518291972
 21
-52.255290052
  0
LINE
  8
1
 62
7
  6
CONTINUOUS
 10
-273.018291972
 20
-222.255290052
 11
-273.018291972
 21
-57.255290052
  0
LINE
  8
1
 62
7
  6
CONTINUOUS
 10
-128.018291972
 20
-222.255290052
 11
-273.018291972
 21
-222.255290052
  0
ARC
  8
6
 62
7
  6
CONTINUOUS
 10
185.369965175
 20
200.190936455
 40
2.500000000
 50
270.000000000
 51
0.000000000
  0
LINE
  8
1
 62
7
  6
CONTINUOUS
 10
-232.743669622
 20
-175.405290052
 11
-226.718291972
 21
-175.405290052
  0
ARC
  8
1
 62
7
  6
CONTINUOUS
 10
-200.518291972
 20
-146.255290052
 40
43.500000000
 50
220.066640716
 51
220.066640716
  0
LINE
  8
1
 62
7
  6
CONTINUOUS
 10
-233.711923483
 20
-174.655258971
 11
-243.952529140
 21
-134.988303564
  0
ARC
  8
1
 62
7
  6
CONTINUOUS
 10
-226.718291972
 20
-176.405290052
 40
1.000000000
 50
0.000000000
 51
90.000000000
  0
ARC
  8
1
 62
7
  6
CONTINUOUS
 10
-200.518291972
 20
-146.255290052
 40
40.500000000
 50
90.000000000
 51
163.540822256
  0
ARC
  8
1
 62
7
  6
CONTINUOUS
 10
-242.984275279
 20
-134.738334645
 40
1.000000000
 50
164.826133844
 51
194.475672986
  0
ARC
  8
1
 62
7
  6
CONTINUOUS
 10
-200.518291972
 20
-146.255290052
 40
35.000000000
 50
90.000000000
 51
161.133099752
  0
ARC
  8
1
 62
7
  6
CONTINUOUS
 10
-229.518291972
 20
-179.242908445
 40
1.500000000
 50
90.000000000
 51
180.000000000
  0
LINE
  8
1
 62
7
  6
CONTINUOUS
 10
-200.518291972
 20
-180.742908445
 11
-229.518291972
 21
-180.742908445
  0
LINE
  8
1
 62
7
  6
CONTINUOUS
 10
-229.518291972
 20
-177.742908445
 11
-200.518291972
 21
-177.742908445
  0
ARC
  8
1
 62
7
  6
CONTINUOUS
 10
-200.518291972
 20
-146.255290052
 40
45.000000000
 50
90.000000000
 51
164.826133844
  0
LINE
  8
1
 62
7
  6
CONTINUOUS
 10
-225.718291972
 20
-177.742908445
 11
-225.718291972
 21
-176.405290052
  0
LINE
  8
1
 62
2
  6
CENTER
 10
131.669965175
 20
142.343718754
 11
131.669965175
 21
63.392765039
  0
ARC
  8
1
 62
7
  6
CONTINUOUS
 10
-232.743669622
 20
-174.405290052
 40
1.000000000
 50
194.475672986
 51
270.000000000
  0
LINE
  8
1
 62
7
  6
CONTINUOUS
 10
-225.552628522
 20
-166.255290052
 11
-233.637823449
 21
-134.937311667
  0
ARC
  8
1
 62
7
  6
CONTINUOUS
 10
-229.518291972
 20
-179.242908445
 40
1.500000000
 50
180.000000000
 51
270.000000000
  0
ARC
  8
1
 62
7
  6
CONTINUOUS
 10
-200.518291972
 20
-146.255290052
 40
45.000000000
 50
15.173866156
 51
90.000000000
  0
LINE
  8
1
 62
7
  6
CONTINUOUS
 10
-200.518291972
 20
-166.255290052
 11
-175.483955419
 21
-166.255290052
  0
LINE
  8
1
 62
7
  6
CONTINUOUS
 10
-200.518291972
 20
-171.755290052
 11
-171.223532495
 21
-171.755290052
  0
LINE
  8
1
 62
7
  6
CONTINUOUS
 10
-171.223532495
 20
-171.755290052
 11
-161.677907147
 21
-134.780338782
  0
ARC
  8
1
 62
7
  6
CONTINUOUS
 10
-200.518291972
 20
-146.255290052
 40
40.500000000
 50
16.459177744
 51
90.000000000
  0
CIRCLE
  8
1
 62
7
  6
CONTINUOUS
 10
-200.518291972
 20
-146.255290052
 40
63.500000000
  0
CIRCLE
  8
1
 62
7
  6
CONTINUOUS
 10
-200.518291972
 20
-146.255290052
 40
47.500000000
  0
LINE
  8
1
 62
2
  6
CENTER
 10
-123.211510030
 20
-146.255290052
 11
-278.534617453
 21
-146.255290052
  0
CIRCLE
  8
1
 62
7
  6
CONTINUOUS
 10
-200.518291972
 20
-146.255290052
 40
49.000000000
  0
CIRCLE
  8
1
 62
7
  6
CONTINUOUS
 10
-200.518291972
 20
-146.255290052
 40
53.500000000
  0
ARC
  8
1
 62
7
  6
CONTINUOUS
 10
-200.518291972
 20
-146.255290052
 40
43.500000000
 50
319.933359284
 51
319.933359284
  0
LINE
  8
1
 62
7
  6
CONTINUOUS
 10
-167.324660461
 20
-174.655258971
 11
-157.084054804
 21
-134.988303564
  0
ARC
  8
1
 62
7
  6
CONTINUOUS
 10
-174.318291972
 20
-176.405290052
 40
1.000000000
 50
90.000000000
 51
180.000000000
  0
ARC
  8
1
 62
7
  6
CONTINUOUS
 10
-158.052308665
 20
-134.738334645
 40
1.000000000
 50
345.524327014
 51
15.173866156
  0
ARC
  8
1
 62
7
  6
CONTINUOUS
 10
-200.518291972
 20
-146.255290052
 40
35.000000000
 50
18.866900248
 51
90.000000000
  0
LINE
  8
1
 62
7
  6
CONTINUOUS
 10
195.169965175
 20
135.140936455
 11
195.169965175
 21
135.740936455
  0
LINE
  8
1
 62
7
  6
CONTINUOUS
 10
68.169965175
 20
135.140936455
 11
68.169965175
 21
135.740936455
  0
ARC
  8
1
 62
7
  6
CONTINUOUS
 10
-171.518291972
 20
-179.242908445
 40
1.500000000
 50
0.000000000
 51
90.000000000
  0
ARC
  8
1
 62
7
  6
CONTINUOUS
 10
-171.518291972
 20
-179.242908445
 40
1.500000000
 50
270.000000000
 51
0.000000000
  0
LINE
  8
1
 62
7
  6
CONTINUOUS
 10
-175.318291972
 20
-177.742908445
 11
-175.318291972
 21
-176.405290052
  0
LINE
  8
1
 62
7
  6
CONTINUOUS
 10
-171.518291972
 20
-177.742908445
 11
-200.518291972
 21
-177.742908445
  0
ARC
  8
1
 62
7
  6
CONTINUOUS
 10
-168.292914322
 20
-174.405290052
 40
1.000000000
 50
270.000000000
 51
345.524327014
  0
LINE
  8
1
 62
7
  6
CONTINUOUS
 10
-200.518291972
 20
-180.742908445
 11
-171.518291972
 21
-180.742908445
  0
LINE
  8
1
 62
7
  6
CONTINUOUS
 10
-175.483955419
 20
-166.255290052
 11
-167.398760495
 21
-134.937311667
  0
LINE
  8
1
 62
7
  6
CONTINUOUS
 10
-168.292914322
 20
-175.405290052
 11
-174.318291972
 21
-175.405290052
  0
LINE
  8
1
 62
7
  6
CONTINUOUS
 10
-200.518291972
 20
-166.255290052
 11
-225.552628522
 21
-166.255290052
  0
LINE
  8
1
 62
7
  6
CONTINUOUS
 10
-200.518291972
 20
-171.755290052
 11
-229.813051445
 21
-171.755290052
  0
LINE
  8
1
 62
7
  6
CONTINUOUS
 10
-229.813051445
 20
-171.755290052
 11
-239.358676797
 21
-134.780338782
  0
LINE
  8
1
 62
7
  6
CONTINUOUS
 10
206.169965175
 20
136.340936455
 11
37.669965175
 21
136.340936455
  0
LINE
  8
1
 62
7
  6
CONTINUOUS
 10
185.169965175
 20
117.140936455
 11
185.169965175
 21
135.140936455
  0
LINE
  8
1
 62
7
  6
CONTINUOUS
 10
78.169965175
 20
135.140936455
 11
78.169965175
 21
117.140936455
  0
LINE
  8
1
 62
7
  6
CONTINUOUS
 10
78.169965175
 20
117.140936455
 11
185.169965175
 21
117.140936455
  0
LINE
  8
1
 62
7
  6
CONTINUOUS
 10
78.169965175
 20
117.140936455
 11
82.669965175
 21
111.140936455
  0
LINE
  8
1
 62
7
  6
CONTINUOUS
 10
-414.018291972
 20
-212.105290052
 11
-414.018291972
 21
-213.105290052
  0
LINE
  8
1
 62
7
  6
CONTINUOUS
 10
-412.018291972
 20
-215.105290052
 11
-396.018291972
 21
-215.105290052
  0
LINE
  8
1
 62
7
  6
CONTINUOUS
 10
-394.018291972
 20
-213.105290052
 11
-394.018291972
 21
-212.105290052
  0
ARC
  8
1
 62
7
  6
CONTINUOUS
 10
-412.018291972
 20
-213.105290052
 40
2.000000000
 50
180.000000000
 51
270.000000000
  0
ARC
  8
1
 62
7
  6
CONTINUOUS
 10
-396.018291972
 20
-213.105290052
 40
2.000000000
 50
270.000000000
 51
0.000000000
  0
ARC
  8
6
 62
7
  6
CONTINUOUS
 10
180.869965175
 20
180.940936455
 40
4.000000000
 50
270.000000000
 51
0.000000000
  0
LINE
  8
6
 62
7
  6
CONTINUOUS
 10
180.869965175
 20
238.940936455
 11
160.069965175
 21
238.940936455
  0
LINE
  8
6
 62
7
  6
CONTINUOUS
 10
180.869965175
 20
176.940936455
 11
160.069965175
 21
176.940936455
  0
LINE
  8
6
 62
7
  6
CONTINUOUS
 10
184.869965175
 20
180.940936455
 11
184.869965175
 21
234.940936455
  0
LINE
  8
6
 62
7
  6
CONTINUOUS
 10
185.369965175
 20
218.190936455
 11
184.869965175
 21
218.190936455
  0
LINE
  8
6
 62
7
  6
CONTINUOUS
 10
187.869965175
 20
200.190936455
 11
187.869965175
 21
215.690936455
  0
LINE
  8
6
 62
7
  6
CONTINUOUS
 10
184.869965175
 20
197.690936455
 11
185.369965175
 21
197.690936455
  0
LINE
  8
6
 62
7
  6
CONTINUOUS
 10
157.669965175
 20
170.297790455
 11
160.069965175
 21
170.297790455
  0
LINE
  8
6
 62
7
  6
CONTINUOUS
 10
160.069965175
 20
170.297790455
 11
160.069965175
 21
245.584081455
  0
LINE
  8
6
 62
7
  6
CONTINUOUS
 10
160.069965175
 20
245.584081455
 11
157.669965175
 21
245.584081455
  0
LINE
  8
6
 62
7
  6
CONTINUOUS
 10
157.669965175
 20
245.584081455
 11
157.669965175
 21
170.297790455
  0
LINE
  8
4
 62
7
  6
CONTINUOUS
 10
166.319965175
 20
238.940936455
 11
166.319965175
 21
261.340936455
  0
LINE
  8
9
 62
7
  6
CONTINUOUS
 10
157.669965175
 20
415.340936455
 11
157.669965175
 21
282.340936455
  0
LINE
  8
7
 62
1
  6
CONTINUOUS
 10
160.669965175
 20
361.840936455
 11
166.669965175
 21
361.840936455
  0
ARC
  8
8
 62
7
  6
CONTINUOUS
 10
194.519965175
 20
223.340936455
 40
3.000000000
 50
270.000000000
 51
0.000000000
  0
ARC
  8
9
 62
7
  6
CONTINUOUS
 10
158.669965175
 20
358.340936455
 40
1.000000000
 50
90.000000000
 51
180.000000000
  0
LINE
  8
1
 62
7
  6
CONTINUOUS
 10
160.669965175
 20
416.340936455
 11
160.669965175
 21
359.340936455
  0
LINE
  8
8
 62
7
  6
CONTINUOUS
 10
168.719965175
 20
238.940936455
 11
168.719965175
 21
281.340936455
  0
LINE
  8
9
 62
7
  6
CONTINUOUS
 10
158.669965175
 20
416.340936455
 11
202.669965175
 21
416.340936455
  0
LINE
  8
1
 62
7
  6
CONTINUOUS
 10
82.669965175
 20
111.140936455
 11
180.669965175
 21
111.140936455
  0
LINE
  8
1
 62
7
  6
CONTINUOUS
 10
180.669965175
 20
111.140936455
 11
185.169965175
 21
117.140936455
  0
LINE
  8
1
 62
7
  6
CONTINUOUS
 10
83.669965175
 20
89.140936455
 11
83.669965175
 21
76.140936455
  0
LINE
  8
1
 62
7
  6
CONTINUOUS
 10
179.669965175
 20
76.140936455
 11
179.669965175
 21
89.140936455
  0
LINE
  8
1
 62
7
  6
CONTINUOUS
 10
83.669965175
 20
76.140936455
 11
179.669965175
 21
76.140936455
  0
LINE
  8
8
 62
7
  6
CONTINUOUS
 10
197.519965175
 20
223.340936455
 11
197.519965175
 21
281.340936455
  0
LINE
  8
8
 62
7
  6
CONTINUOUS
 10
184.869965175
 20
220.340936455
 11
194.519965175
 21
220.340936455
  0
LINE
  8
1
 62
7
  6
CONTINUOUS
 10
197.519965175
 20
251.340936455
 11
198.519965175
 21
251.340936455
  0
LINE
  8
1
 62
7
  6
CONTINUOUS
 10
200.519965175
 20
253.340936455
 11
200.519965175
 21
269.340936455
  0
LINE
  8
1
 62
7
  6
CONTINUOUS
 10
198.519965175
 20
271.340936455
 11
197.519965175
 21
271.340936455
  0
ARC
  8
1
 62
7
  6
CONTINUOUS
 10
198.519965175
 20
253.340936455
 40
2.000000000
 50
270.000000000
 51
0.000000000
  0
ARC
  8
1
 62
7
  6
CONTINUOUS
 10
198.519965175
 20
269.340936455
 40
2.000000000
 50
0.000000000
 51
90.000000000
  0
ARC
  8
9
 62
7
  6
CONTINUOUS
 10
202.669965175
 20
286.340936455
 40
5.000000000
 50
270.000000000
 51
0.000000000
  0
ARC
  8
9
 62
7
  6
CONTINUOUS
 10
202.669965175
 20
411.340936455
 40
5.000000000
 50
0.000000000
 51
90.000000000
  0
LINE
  8
9
 62
7
  6
CONTINUOUS
 10
187.669965175
 20
416.340936455
 11
187.669965175
 21
378.539074555
  0
LINE
  8
1
 62
7
  6
CONTINUOUS
 10
82.669965175
 20
89.140936455
 11
180.669965175
 21
89.140936455
  0
LINE
  8
1
 62
7
  6
CONTINUOUS
 10
180.669965175
 20
89.140936455
 11
180.669965175
 21
91.140936455
  0
LINE
  8
1
 62
7
  6
CONTINUOUS
 10
83.669965175
 20
76.140936455
 11
84.169965175
 21
70.140936455
  0
LINE
  8
1
 62
7
  6
CONTINUOUS
 10
84.169965175
 20
70.140936455
 11
179.169965175
 21
70.140936455
  0
LINE
  8
7
 62
1
  6
CONTINUOUS
 10
166.669965175
 20
361.840936455
 11
169.669965175
 21
361.840936455
  0
LINE
  8
7
 62
1
  6
CONTINUOUS
 10
174.169965175
 20
366.340936455
 11
174.169965175
 21
378.840936455
  0
LINE
  8
7
 62
1
  6
CONTINUOUS
 10
166.669965175
 20
364.840936455
 11
169.669965175
 21
364.840936455
  0
LINE
  8
7
 62
1
  6
CONTINUOUS
 10
171.669965175
 20
366.840936455
 11
171.669965175
 21
378.840936455
  0
ARC
  8
7
 62
1
  6
CONTINUOUS
 10
169.669965175
 20
366.840936455
 40
2.000000000
 50
270.000000000
 51
0.000000000
  0
ARC
  8
7
 62
1
  6
CONTINUOUS
 10
169.669965175
 20
366.340936455
 40
4.500000000
 50
270.000000000
 51
0.000000000
  0
LINE
  8
7
 62
1
  6
CONTINUOUS
 10
166.669965175
 20
361.840936455
 11
166.669965175
 21
378.242860245
  0
LINE
  8
7
 62
1
  6
CONTINUOUS
 10
171.669965175
 20
380.840936455
 11
172.169965175
 21
380.840936455
  0
LINE
  8
7
 62
1
  6
CONTINUOUS
 10
171.669965175
 20
380.840936455
 11
170.669965175
 21
380.840936455
  0
LINE
  8
7
 62
1
  6
CONTINUOUS
 10
170.669965175
 20
378.840936455
 11
171.669965175
 21
378.840936455
  0
ARC
  8
7
 62
1
  6
CONTINUOUS
 10
172.169965175
 20
378.840936455
 40
2.000000000
 50
0.000000000
 51
90.000000000
  0
ARC
  8
7
 62
1
  6
CONTINUOUS
 10
170.669965175
 20
379.840936455
 40
1.000000000
 50
90.000000000
 51
180.000000000
  0
ARC
  8
7
 62
1
  6
CONTINUOUS
 10
170.669965175
 20
379.840936455
 40
1.000000000
 50
180.000000000
 51
270.000000000
  0
LINE
  8
9
 62
7
  6
CONTINUOUS
 10
-273.018291972
 20
-202.255290052
 11
-331.018291972
 21
-202.255290052
  0
ARC
  8
7
 62
1
  6
CONTINUOUS
 10
170.669965175
 20
393.840936455
 40
1.000000000
 50
90.000000000
 51
180.000000000
  0
ARC
  8
7
 62
1
  6
CONTINUOUS
 10
170.669965175
 20
393.840936455
 40
1.000000000
 50
180.000000000
 51
270.000000000
  0
ARC
  8
7
 62
1
  6
CONTINUOUS
 10
172.169965175
 20
394.840936455
 40
2.000000000
 50
270.000000000
 51
0.000000000
  0
LINE
  8
7
 62
1
  6
CONTINUOUS
 10
170.669965175
 20
394.840936455
 11
171.669965175
 21
394.840936455
  0
LINE
  8
7
 62
1
  6
CONTINUOUS
 10
171.669965175
 20
392.840936455
 11
170.669965175
 21
392.840936455
  0
LINE
  8
7
 62
1
  6
CONTINUOUS
 10
171.669965175
 20
392.840936455
 11
172.169965175
 21
392.840936455
  0
LINE
  8
7
 62
1
  6
CONTINUOUS
 10
166.669965175
 20
411.840936455
 11
166.669965175
 21
395.439012665
  0
ARC
  8
9
 62
7
  6
CONTINUOUS
 10
-326.018291972
 20
-217.255290052
 40
5.000000000
 50
180.000000000
 51
270.000000000
  0
ARC
  8
7
 62
1
  6
CONTINUOUS
 10
169.669965175
 20
407.340936455
 40
4.500000000
 50
0.000000000
 51
90.000000000
  0
ARC
  8
7
 62
1
  6
CONTINUOUS
 10
169.669965175
 20
406.840936455
 40
2.000000000
 50
0.000000000
 51
90.000000000
  0
LINE
  8
7
 62
1
  6
CONTINUOUS
 10
171.669965175
 20
406.840936455
 11
171.669965175
 21
394.840936455
  0
LINE
  8
7
 62
1
  6
CONTINUOUS
 10
166.669965175
 20
408.840936455
 11
169.669965175
 21
408.840936455
  0
LINE
  8
7
 62
1
  6
CONTINUOUS
 10
174.169965175
 20
407.340936455
 11
174.169965175
 21
394.840936455
  0
LINE
  8
7
 62
1
  6
CONTINUOUS
 10
166.669965175
 20
411.840936455
 11
169.669965175
 21
411.840936455
  0
LINE
  8
7
 62
1
  6
CONTINUOUS
 10
160.669965175
 20
411.840936455
 11
166.669965175
 21
411.840936455
  0
LINE
  8
9
 62
7
  6
CONTINUOUS
 10
-201.018291972
 20
-222.255290052
 11
-326.018291972
 21
-222.255290052
  0
LINE
  8
1
 62
7
  6
CONTINUOUS
 10
179.169965175
 20
70.140936455
 11
179.669965175
 21
76.140936455
  0
LINE
  8
1
 62
7
  6
CONTINUOUS
 10
195.169965175
 20
135.140936455
 11
68.169965175
 21
135.140936455
  0
LINE
  8
1
 62
7
  6
CONTINUOUS
 10
206.169965175
 20
135.740936455
 11
37.669965175
 21
135.740936455
  0
LINE
  8
1
 62
7
  6
CONTINUOUS
 10
37.669965175
 20
136.340936455
 11
37.669965175
 21
111.340936455
  0
LINE
  8
1
 62
7
  6
CONTINUOUS
 10
37.669965175
 20
111.340936455
 11
38.269965175
 21
111.340936455
  0
LINE
  8
9
 62
7
  6
CONTINUOUS
 10
-331.018291972
 20
-217.255290052
 11
-331.018291972
 21
-172.255290052
  0
LINE
  8
1
 62
7
  6
CONTINUOUS
 10
38.269965175
 20
111.340936455
 11
38.269965175
 21
135.740936455
  0
ARC
  8
1
 62
7
  6
CONTINUOUS
 10
206.169965175
 20
136.740936455
 40
1.000000000
 50
270.000000000
 51
90.000000000
  0
ARC
  8
1
 62
7
  6
CONTINUOUS
 10
206.169965175
 20
136.740936455
 40
0.400000000
 50
270.000000000
 51
90.000000000
  0
LINE
  8
1
 62
7
  6
CONTINUOUS
 10
206.169965175
 20
137.740936455
 11
194.669965175
 21
137.740936455
  0
LINE
  8
1
 62
7
  6
CONTINUOUS
 10
-249.518291972
 20
91.140936455
 11
-249.518291972
 21
89.140936455
  0
LINE
  8
1
 62
7
  6
CONTINUOUS
 10
-151.518291972
 20
91.140936455
 11
-151.518291972
 21
98.157782262
  0
LINE
  8
1
 62
7
  6
CONTINUOUS
 10
-249.518291972
 20
91.140936455
 11
-151.518291972
 21
91.140936455
  0
LINE
  8
1
 62
7
  6
CONTINUOUS
 10
-249.518291972
 20
96.282876662
 11
-249.518291972
 21
91.140936455
  0
LINE
  8
1
 62
7
  6
CONTINUOUS
 10
-153.018291972
 20
70.140936455
 11
-152.518291972
 21
76.140936455
  0
LINE
  8
1
 62
7
  6
CONTINUOUS
 10
-248.018291972
 20
70.140936455
 11
-153.018291972
 21
70.140936455
  0
LINE
  8
1
 62
7
  6
CONTINUOUS
 10
-248.518291972
 20
76.140936455
 11
-248.018291972
 21
70.140936455
  0
LINE
  8
1
 62
7
  6
CONTINUOUS
 10
194.669965175
 20
137.740936455
 11
194.669965175
 21
137.140936455
  0
LINE
  8
1
 62
7
  6
CONTINUOUS
 10
184.169965175
 20
137.140936455
 11
206.169965175
 21
137.140936455
  0
LINE
  8
1
 62
7
  6
CONTINUOUS
 10
184.169965175
 20
137.140936455
 11
173.445343175
 21
146.139964455
  0
LINE
  8
1
 62
7
  6
CONTINUOUS
 10
173.445343175
 20
146.139964455
 11
172.931113175
 21
145.527128455
  0
LINE
  8
1
 62
7
  6
CONTINUOUS
 10
172.931113175
 20
145.527128455
 11
183.878789175
 21
136.340936455
  0
LINE
  8
1
 62
7
  6
CONTINUOUS
 10
-151.518291972
 20
89.140936455
 11
-151.518291972
 21
91.140936455
  0
LINE
  8
1
 62
7
  6
CONTINUOUS
 10
206.169965175
 20
137.140936455
 11
206.169969175
 21
136.340936455
  0
LINE
  8
1
 62
7
  6
CONTINUOUS
 10
82.669965175
 20
111.140936455
 11
82.669965175
 21
91.140936455
  0
LINE
  8
1
 62
7
  6
CONTINUOUS
 10
82.669965175
 20
91.140936455
 11
180.669965175
 21
91.140936455
  0
LINE
  8
1
 62
7
  6
CONTINUOUS
 10
180.669965175
 20
91.140936455
 11
180.669965175
 21
111.140936455
  0
LINE
  8
1
 62
7
  6
CONTINUOUS
 10
82.669965175
 20
91.140936455
 11
82.669965175
 21
89.140936455
  0
LINE
  8
1
 62
2
  6
DASHDOT2
 10
-325.518291972
 20
466.783889102
 11
-325.518291972
 21
81.614532418
  0
LINE
  8
3
 62
2
  6
DASHDOT2
 10
-325.518291972
 20
433.759418862
 11
-325.518291972
 21
421.709708835
  0
LINE
  8
3
 62
2
  6
DASHDOT2
 10
-325.518291972
 20
118.922454048
 11
-325.518291972
 21
130.972164075
  0
LINE
  8
1
 62
7
  6
CONTINUOUS
 10
169.669959381
 20
416.340683212
 11
40.669959381
 21
416.340930698
  0
LINE
  8
5
 62
2
  6
CENTER
 10
-76.418311862
 20
710.743238842
 11
-572.867730689
 21
710.743238842
  0
LINE
  8
1
 62
7
  6
CONTINUOUS
 10
-248.018291972
 20
916.943238842
 11
-153.018291972
 21
916.943238842
  0
LINE
  8
1
 62
7
  6
CONTINUOUS
 10
-153.018291972
 20
916.943238842
 11
-152.518291972
 21
910.943238842
  0
ARC
  8
1
 62
7
  6
CONTINUOUS
 10
-325.518291972
 20
-5643.798427825
 40
6535.041666667
 50
88.259502578
 51
88.474279973
  0
LINE
  8
3
 62
7
  6
CONTINUOUS
 10
-249.518291972
 20
880.743238842
 11
-523.018291972
 21
880.743238842
  0
ARC
  8
1
 62
7
  6
CONTINUOUS
 10
-5383.268291972
 20
710.743238842
 40
5289.750000000
 50
358.419526995
 51
1.580473005
  0
ARC
  8
1
 62
7
  6
CONTINUOUS
 10
-325.518291972
 20
-5643.798427825
 40
6535.041666667
 50
89.333657285
 51
91.740497422
  0
ARC
  8
1
 62
7
  6
CONTINUOUS
 10
4732.231708028
 20
710.743238842
 40
5289.750000000
 50
178.419526995
 51
181.580473005
  0
ARC
  8
1
 62
7
  6
CONTINUOUS
 10
-325.518291972
 20
7065.284905509
 40
6535.041666667
 50
268.259502578
 51
271.740497422
  0
ARC
  8
1
 62
7
  6
CONTINUOUS
 10
-128.018291972
 20
565.743238842
 40
32.500000000
 50
271.740497422
 51
358.419526995
  0
ARC
  8
1
 62
7
  6
CONTINUOUS
 10
-523.018291972
 20
565.743238842
 40
32.500000000
 50
181.580473005
 51
268.259502578
  0
ARC
  8
1
 62
7
  6
CONTINUOUS
 10
-523.018291972
 20
855.743238842
 40
32.500000000
 50
91.740497422
 51
178.419526995
  0
ARC
  8
1
 62
7
  6
CONTINUOUS
 10
-128.018291972
 20
855.743238842
 40
32.500000000
 50
1.580473005
 51
88.259502578
  0
LINE
  8
1
 62
7
  6
CONTINUOUS
 10
-249.518291972
 20
895.943238842
 11
-249.518291972
 21
897.943238842
  0
LINE
  8
1
 62
7
  6
CONTINUOUS
 10
-151.518291972
 20
895.943238842
 11
-151.518291972
 21
875.943238842
  0
LINE
  8
1
 62
7
  6
CONTINUOUS
 10
-249.518291972
 20
895.943238842
 11
-151.518291972
 21
895.943238842
  0
LINE
  8
1
 62
7
  6
CONTINUOUS
 10
-249.518291972
 20
875.943238842
 11
-249.518291972
 21
895.943238842
  0
LINE
  8
1
 62
7
  6
CONTINUOUS
 10
-108.518291972
 20
591.243238842
 11
-117.518291972
 21
591.243238842
  0
LINE
  8
1
 62
7
  6
CONTINUOUS
 10
-248.518291972
 20
910.943238842
 11
-248.018291972
 21
916.943238842
  0
LINE
  8
1
 62
7
  6
CONTINUOUS
 10
-151.518291972
 20
897.943238842
 11
-151.518291972
 21
895.943238842
  0
ARC
  8
1
 62
7
  6
CONTINUOUS
 10
-325.518291972
 20
866.243238842
 40
2.500000000
 50
180.000000000
 51
0.000000000
  0
ARC
  8
1
 62
7
  6
CONTINUOUS
 10
-325.518291972
 20
875.243238842
 40
2.500000000
 50
0.000000000
 51
180.000000000
  0
LINE
  8
3
 62
7
  6
CONTINUOUS
 10
-548.018291972
 20
855.743238842
 11
-548.018291972
 21
565.743238842
  0
LINE
  8
1
 62
7
  6
CONTINUOUS
 10
-323.018291972
 20
866.243238842
 11
-323.018291972
 21
875.243238842
  0
ARC
  8
1
 62
7
  6
CONTINUOUS
 10
-117.518291972
 20
588.743238842
 40
2.500000000
 50
90.000000000
 51
270.000000000
  0
ARC
  8
3
 62
7
  6
CONTINUOUS
 10
-523.018291972
 20
855.743238842
 40
25.000000000
 50
90.000000000
 51
180.000000000
  0
ARC
  8
3
 62
7
  6
CONTINUOUS
 10
-128.018291972
 20
565.743238842
 40
25.000000000
 50
270.000000000
 51
0.000000000
  0
CIRCLE
  8
1
 62
7
  6
CONTINUOUS
 10
-174.018291972
 20
554.743238842
 40
2.500000000
  0
CIRCLE
  8
1
 62
1
  6
HIDDEN2
 10
-200.518291972
 20
870.743238842
 40
6.000000000
  0
ARC
  8
1
 62
7
  6
CONTINUOUS
 10
-117.518291972
 20
832.743238842
 40
2.500000000
 50
90.000000000
 51
270.000000000
  0
LINE
  8
1
 62
7
  6
CONTINUOUS
 10
-117.518291972
 20
835.243238842
 11
-108.518291972
 21
835.243238842
  0
ARC
  8
1
 62
7
  6
CONTINUOUS
 10
-533.518291972
 20
588.743238842
 40
2.500000000
 50
270.000000000
 51
90.000000000
  0
LINE
  8
1
 62
7
  6
CONTINUOUS
 10
-533.518291972
 20
586.243238842
 11
-542.518291972
 21
586.243238842
  0
ARC
  8
1
 62
7
  6
CONTINUOUS
 10
-542.518291972
 20
588.743238842
 40
2.500000000
 50
90.000000000
 51
270.000000000
  0
LINE
  8
1
 62
7
  6
CONTINUOUS
 10
-249.518291972
 20
897.943238842
 11
-151.518291972
 21
897.943238842
  0
CIRCLE
  8
1
 62
1
  6
HIDDEN2
 10
-174.018291972
 20
866.743238842
 40
2.500000000
  0
LINE
  8
1
 62
7
  6
CONTINUOUS
 10
-542.518291972
 20
830.243238842
 11
-533.518291972
 21
830.243238842
  0
CIRCLE
  8
1
 62
7
  6
CONTINUOUS
 10
-477.018291972
 20
866.743238842
 40
2.500000000
  0
LINE
  8
1
 62
7
  6
CONTINUOUS
 10
-328.018291972
 20
875.243238842
 11
-328.018291972
 21
866.243238842
  0
ARC
  8
1
 62
7
  6
CONTINUOUS
 10
-542.518291972
 20
832.743238842
 40
2.500000000
 50
90.000000000
 51
270.000000000
  0
LINE
  8
1
 62
7
  6
CONTINUOUS
 10
-533.518291972
 20
835.243238842
 11
-542.518291972
 21
835.243238842
  0
ARC
  8
1
 62
7
  6
CONTINUOUS
 10
-533.518291972
 20
832.743238842
 40
2.500000000
 50
270.000000000
 51
90.000000000
  0
LINE
  8
3
 62
7
  6
CONTINUOUS
 10
-128.018291972
 20
880.743238842
 11
-151.518291972
 21
880.743238842
  0
LINE
  8
3
 62
7
  6
CONTINUOUS
 10
-103.018291972
 20
565.743238842
 11
-103.018291972
 21
855.743238842
  0
LINE
  8
3
 62
7
  6
CONTINUOUS
 10
-523.018291972
 20
540.743238842
 11
-128.018291972
 21
540.743238842
  0
ARC
  8
1
 62
7
  6
CONTINUOUS
 10
-108.518291972
 20
588.743238842
 40
2.500000000
 50
270.000000000
 51
90.000000000
  0
ARC
  8
1
 62
7
  6
CONTINUOUS
 10
-325.518291972
 20
555.243238842
 40
2.500000000
 50
0.000000000
 51
180.000000000
  0
ARC
  8
1
 62
7
  6
CONTINUOUS
 10
-108.518291972
 20
832.743238842
 40
2.500000000
 50
270.000000000
 51
90.000000000
  0
LINE
  8
1
 62
7
  6
CONTINUOUS
 10
-108.518291972
 20
830.243238842
 11
-117.518291972
 21
830.243238842
  0
LINE
  8
4
 62
7
  6
CONTINUOUS
 10
-128.618291972
 20
850.143238842
 11
-522.418291972
 21
850.143238842
  0
LINE
  8
4
 62
7
  6
CONTINUOUS
 10
-128.618291972
 20
571.343238842
 11
-128.618291972
 21
850.143238842
  0
LINE
  8
4
 62
7
  6
CONTINUOUS
 10
-522.418291972
 20
571.343238842
 11
-128.618291972
 21
571.343238842
  0
LINE
  8
4
 62
7
  6
CONTINUOUS
 10
-522.418291972
 20
850.143238842
 11
-522.418291972
 21
571.343238842
  0
ARC
  8
3
 62
7
  6
CONTINUOUS
 10
-523.018291972
 20
565.743238842
 40
25.000000000
 50
180.000000000
 51
270.000000000
  0
LINE
  8
1
 62
7
  6
CONTINUOUS
 10
-117.518291972
 20
586.243238842
 11
-108.518291972
 21
586.243238842
  0
CIRCLE
  8
1
 62
7
  6
CONTINUOUS
 10
-477.018291972
 20
554.743238842
 40
2.500000000
  0
LINE
  8
1
 62
7
  6
CONTINUOUS
 10
-542.518291972
 20
591.243238842
 11
-533.518291972
 21
591.243238842
  0
ARC
  8
3
 62
7
  6
CONTINUOUS
 10
-128.018291972
 20
855.743238842
 40
25.000000000
 50
0.000000000
 51
90.000000000
  0
LINE
  8
1
 62
7
  6
CONTINUOUS
 10
-248.518291972
 20
910.943238842
 11
-152.518291972
 21
910.943238842
  0
LINE
  8
1
 62
7
  6
CONTINUOUS
 10
-328.018291972
 20
546.243238842
 11
-328.018291972
 21
555.243238842
  0
ARC
  8
1
 62
7
  6
CONTINUOUS
 10
-325.518291972
 20
546.243238842
 40
2.500000000
 50
180.000000000
 51
0.000000000
  0
LINE
  8
1
 62
7
  6
CONTINUOUS
 10
-323.018291972
 20
555.243238842
 11
-323.018291972
 21
546.243238842
  0
LINE
  8
1
 62
7
  6
CONTINUOUS
 10
-152.518291972
 20
910.943238842
 11
-152.518291972
 21
897.943238842
  0
CIRCLE
  8
1
 62
1
  6
HIDDEN2
 10
-200.518291972
 20
870.743238842
 40
2.500000000
  0
LINE
  8
1
 62
7
  6
CONTINUOUS
 10
-248.518291972
 20
897.943238842
 11
-248.518291972
 21
910.943238842
  0
LINE
  8
1
 62
7
  6
CONTINUOUS
 10
-151.518291972
 20
875.943238842
 11
-147.018291972
 21
869.943238842
  0
LINE
  8
1
 62
7
  6
CONTINUOUS
 10
-249.518291972
 20
875.943238842
 11
-151.518291972
 21
875.943238842
  0
LINE
  8
1
 62
7
  6
CONTINUOUS
 10
-254.018291972
 20
869.943238842
 11
-249.518291972
 21
875.943238842
  0
LINE
  8
1
 62
7
  6
CONTINUOUS
 10
-254.018291972
 20
869.943238842
 11
-147.018291972
 21
869.943238842
  0
LINE
  8
1
 62
7
  6
CONTINUOUS
 10
-254.018291972
 20
850.143238842
 11
-254.018291972
 21
869.943238842
  0
LINE
  8
1
 62
7
  6
CONTINUOUS
 10
-147.018291972
 20
869.943238842
 11
-147.018291972
 21
850.143238842
  0
LINE
  8
1
 62
2
  6
CENTER
 10
-200.518291972
 20
844.740456543
 11
-200.518291972
 21
923.691410258
  0
LINE
  8
1
 62
2
  6
DASHDOT2
 10
-325.518291972
 20
520.300286195
 11
-325.518291972
 21
905.469642879
  0
LINE
  8
3
 62
7
  6
CONTINUOUS
 10
-325.518291972
 20
553.324756435
 11
-325.518291972
 21
565.374466462
  0
LINE
  8
3
 62
7
  6
CONTINUOUS
 10
-325.518291972
 20
868.161721249
 11
-325.518291972
 21
856.112011222
  0
TEXT
  8
1
 62
7
  6
CONTINUOUS
 72
5
 10
-745.604954723
 20
907.182498338
 40
22.000000000
  1
[BF-211SR]
 41
0.935999925
 11
-574.004954723
 21
907.182498338
  0
ENDSEC
  0
EOF
