  0
SECTION
  2
HEADER
  9
$ACADVER
  1
AC1009
  9
$INSBASE
 10
0.000000000
 20
0.000000000
  9
$EXTMIN
 10
-8400.895442322
 20
-17161.535414848
  9
$EXTMAX
 10
8985.104557679
 20
18094.607698731
  9
$LIMMIN
 10
-8400.895442322
 20
-17161.535414848
  9
$LIMMAX
 10
8985.104557679
 20
18094.607698731
  9
$SNAPBASE
 10
0.000000000
 20
0.000000000
  9
$SNAPANG
 50
0.000000000
  9
$SNAPSTYLE
 70
0
  9
$GRIDMODE
 70
0
  9
$GRIDUNIT
 10
0.000000000
 20
0.000000000
  9
$DIMEXO
 40
0.000000000
  9
$DIMDLI
 40
8.000000000
  9
$DIMDLE
 40
0.000000000
  9
$DIMEXE
 40
1.000000000
  9
$DIMTIH
 70
1
  9
$DIMTOH
 70
1
  9
$DIMTAD
 70
2
  9
$DIMZIN
 70
0
  9
$FILLETRAD
 40
1.000000000
  9
$CHAMFERA
 40
1.000000000
  9
$CHAMFERB
 40
1.000000000
  9
$TDCREATE
 40
2453237.455694445
  9
$TDUPDATE
 40
2453237.455694445
  9
$ANGBASE
 50
0.000000000
  9
$ANGDIR
 70
0
  0
ENDSEC
  0
SECTION
  2
TABLES
  0
TABLE
  2
LTYPE
 70
4
  0
LTYPE
  2
CENTER2
 70
64
  3
__ _ __ _ __ _
 72
65
 73
4
 40
10.000000000
 49
7.000000000
 49
-1.000000000
 49
1.000000000
 49
-1.000000000
  0
LTYPE
  2
CONTINUOUS
 70
64
  3
______________
 72
65
 73
0
 40
0.000000000
  0
LTYPE
  2
DIVIDE
 70
64
  3
___ . . ___ . 
 72
65
 73
6
 40
12.999999523
 49
5.199999809
 49
-2.599999905
 49
0.000000000
 49
-2.599999905
 49
0.000000000
 49
-2.599999905
  0
LTYPE
  2
HIDDEN2
 70
64
  3
_ _ _ _ _ _ _ 
 72
65
 73
2
 40
2.000000000
 49
1.399999976
 49
-0.600000024
  0
ENDTAB
  0
TABLE
  2
LAYER
 70
6
  0
LAYER
  2
1
 70
0
 62
7
  6
CONTINUOUS
999
1
  0
LAYER
  2
2
 70
0
 62
7
  6
CONTINUOUS
999
2
  0
LAYER
  2
3
 70
0
 62
1
  6
CONTINUOUS
999
3
  0
LAYER
  2
4
 70
0
 62
7
  6
CONTINUOUS
999
5
  0
LAYER
  2
6
 70
0
 62
7
  6
CONTINUOUS
999
14
  0
LAYER
  2
7
 70
0
 62
7
  6
CONTINUOUS
999
22
  0
LAYER
  2
_CONSTR
 70
0
 62
5
  6
CONTINUOUS
  0
ENDTAB
  0
TABLE
  2
STYLE
 70
1
  0
STYLE
  2
STANDARD
 70
64
 40
0.000000000
 41
1.000000000
 50
0.000000000
 71
0
 42
3.200000000
  3
TXT
  4
EXTFONT
  0
ENDTAB
  0
TABLE
  2
VIEW
 70
0
  0
ENDTAB
  0
ENDSEC
  0
SECTION
  2
BLOCKS
  0
ENDSEC
  0
SECTION
  2
ENTITIES
  0
TEXT
  8
1
 62
7
  6
CONTINUOUS
 72
5
 10
-152.553253870
 20
625.508899374
 40
22.000000000
  1
[BF-711SR]
 41
0.926639926
 11
17.330746130
 21
625.508899374
  0
LINE
  8
1
 62
7
  6
CONTINUOUS
 10
220.854557678
 20
190.059844618
 11
220.854557678
 21
183.559844618
  0
LINE
  8
1
 62
7
  6
CONTINUOUS
 10
220.854557678
 20
170.059844618
 11
220.854557678
 21
163.559844618
  0
LINE
  8
1
 62
7
  6
CONTINUOUS
 10
220.854557678
 20
180.059844618
 11
220.854557678
 21
173.559844618
  0
LINE
  8
1
 62
7
  6
CONTINUOUS
 10
220.854557678
 20
160.059844618
 11
220.854557678
 21
153.559844618
  0
LINE
  8
1
 62
7
  6
CONTINUOUS
 10
220.854557678
 20
150.059844618
 11
220.854557678
 21
143.559844618
  0
LINE
  8
1
 62
7
  6
CONTINUOUS
 10
220.854557678
 20
230.059844618
 11
220.854557678
 21
223.559844618
  0
LINE
  8
1
 62
7
  6
CONTINUOUS
 10
220.854557678
 20
220.059844618
 11
220.854557678
 21
213.559844618
  0
LINE
  8
1
 62
7
  6
CONTINUOUS
 10
220.854557678
 20
210.059844618
 11
220.854557678
 21
203.559844618
  0
LINE
  8
1
 62
7
  6
CONTINUOUS
 10
220.854557678
 20
200.059844618
 11
220.854557678
 21
193.559844618
  0
LINE
  8
1
 62
7
  6
CONTINUOUS
 10
218.354557678
 20
190.059844618
 11
218.354557678
 21
183.559844618
  0
LINE
  8
1
 62
7
  6
CONTINUOUS
 10
218.354557678
 20
170.059844618
 11
218.354557678
 21
163.559844618
  0
LINE
  8
1
 62
7
  6
CONTINUOUS
 10
218.354557678
 20
180.059844618
 11
218.354557678
 21
173.559844618
  0
LINE
  8
1
 62
7
  6
CONTINUOUS
 10
218.354557678
 20
160.059844618
 11
218.354557678
 21
153.559844618
  0
LINE
  8
1
 62
7
  6
CONTINUOUS
 10
218.354557678
 20
150.059844618
 11
218.354557678
 21
143.559844618
  0
LINE
  8
1
 62
7
  6
CONTINUOUS
 10
218.354557678
 20
230.059844618
 11
218.354557678
 21
223.559844618
  0
LINE
  8
1
 62
7
  6
CONTINUOUS
 10
218.354557678
 20
220.059844618
 11
218.354557678
 21
213.559844618
  0
LINE
  8
1
 62
7
  6
CONTINUOUS
 10
218.354557678
 20
210.059844618
 11
218.354557678
 21
203.559844618
  0
LINE
  8
1
 62
7
  6
CONTINUOUS
 10
218.354557678
 20
200.059844618
 11
218.354557678
 21
193.559844618
  0
LINE
  8
1
 62
7
  6
CONTINUOUS
 10
220.854557678
 20
130.059844618
 11
220.854557678
 21
123.559844618
  0
LINE
  8
1
 62
7
  6
CONTINUOUS
 10
220.854557678
 20
50.059844618
 11
220.854557678
 21
43.559844618
  0
LINE
  8
1
 62
7
  6
CONTINUOUS
 10
220.854557678
 20
60.059844618
 11
220.854557678
 21
53.559844618
  0
LINE
  8
1
 62
7
  6
CONTINUOUS
 10
220.854557678
 20
90.059844618
 11
220.854557678
 21
83.559844618
  0
LINE
  8
1
 62
7
  6
CONTINUOUS
 10
220.854557678
 20
100.059844618
 11
220.854557678
 21
93.559844618
  0
LINE
  8
1
 62
7
  6
CONTINUOUS
 10
220.854557678
 20
110.059844618
 11
220.854557678
 21
103.559844618
  0
LINE
  8
1
 62
7
  6
CONTINUOUS
 10
220.854557678
 20
120.059844618
 11
220.854557678
 21
113.559844618
  0
LINE
  8
1
 62
7
  6
CONTINUOUS
 10
220.854557678
 20
70.059844618
 11
220.854557678
 21
63.559844618
  0
LINE
  8
1
 62
7
  6
CONTINUOUS
 10
220.854557678
 20
80.059844618
 11
220.854557678
 21
73.559844618
  0
LINE
  8
1
 62
7
  6
CONTINUOUS
 10
218.354557678
 20
130.059844618
 11
218.354557678
 21
123.559844618
  0
LINE
  8
1
 62
7
  6
CONTINUOUS
 10
218.354557678
 20
50.059844618
 11
218.354557678
 21
43.559844618
  0
LINE
  8
1
 62
7
  6
CONTINUOUS
 10
218.354557678
 20
60.059844618
 11
218.354557678
 21
53.559844618
  0
LINE
  8
1
 62
7
  6
CONTINUOUS
 10
218.354557678
 20
90.059844618
 11
218.354557678
 21
83.559844618
  0
LINE
  8
1
 62
7
  6
CONTINUOUS
 10
218.354557678
 20
100.059844618
 11
218.354557678
 21
93.559844618
  0
LINE
  8
1
 62
7
  6
CONTINUOUS
 10
218.354557678
 20
110.059844618
 11
218.354557678
 21
103.559844618
  0
LINE
  8
1
 62
7
  6
CONTINUOUS
 10
218.354557678
 20
120.059844618
 11
218.354557678
 21
113.559844618
  0
LINE
  8
1
 62
7
  6
CONTINUOUS
 10
218.354557678
 20
70.059844618
 11
218.354557678
 21
63.559844618
  0
LINE
  8
1
 62
7
  6
CONTINUOUS
 10
218.354557678
 20
80.059844618
 11
218.354557678
 21
73.559844618
  0
LINE
  8
3
 62
7
  6
CONTINUOUS
 10
545.304557678
 20
82.809844618
 11
545.304557678
 21
180.809844618
  0
LINE
  8
3
 62
7
  6
CONTINUOUS
 10
545.304557678
 20
180.809844618
 11
533.233333817
 21
180.809844618
  0
LINE
  8
4
 62
7
  6
CONTINUOUS
 10
663.456292690
 20
229.809844618
 11
783.456292690
 21
229.809844618
  0
LINE
  8
3
 62
7
  6
CONTINUOUS
 10
831.456292690
 20
229.809844618
 11
663.456292690
 21
229.809844618
  0
LINE
  8
3
 62
7
  6
CONTINUOUS
 10
663.456292690
 20
252.309844618
 11
663.456292690
 21
229.809844618
  0
LINE
  8
1
 62
7
  6
CONTINUOUS
 10
664.956292690
 20
229.809844618
 11
830.956292690
 21
229.809844618
  0
LINE
  8
4
 62
7
  6
CONTINUOUS
 10
663.456292690
 20
229.809844618
 11
813.456292690
 21
229.809844618
  0
LINE
  8
4
 62
7
  6
CONTINUOUS
 10
500.104557678
 20
520.558526202
 11
343.104557678
 21
520.558526202
  0
LINE
  8
3
 62
7
  6
CONTINUOUS
 10
533.233333817
 20
82.809844618
 11
545.304557678
 21
82.809844618
  0
LINE
  8
3
 62
7
  6
CONTINUOUS
 10
501.304557678
 20
527.558526202
 11
501.304557678
 21
400.558526202
  0
LINE
  8
1
 62
7
  6
CONTINUOUS
 10
489.604557678
 20
521.358526202
 11
489.604557678
 21
520.558526202
  0
CIRCLE
  8
4
 62
1
  6
HIDDEN2
 10
417.104557678
 20
241.809844618
 40
6.000000000
  0
LINE
  8
3
 62
2
  6
CENTER2
 10
409.904557678
 20
241.809844618
 11
424.304557678
 21
241.809844618
  0
LINE
  8
3
 62
2
  6
CENTER2
 10
417.104557678
 20
234.609844618
 11
417.104557678
 21
249.009844618
  0
LINE
  8
3
 62
2
  6
CENTER2
 10
756.956292690
 20
209.601679737
 11
756.956292690
 21
53.513978054
  0
LINE
  8
3
 62
7
  6
CONTINUOUS
 10
782.456292690
 20
131.809844618
 11
782.456292690
 21
161.104604094
  0
LINE
  8
3
 62
7
  6
CONTINUOUS
 10
776.956292690
 20
131.809844618
 11
776.956292690
 21
156.844181171
  0
ARC
  8
3
 62
7
  6
CONTINUOUS
 10
756.956292690
 20
131.809844618
 40
45.000000000
 50
105.173866156
 51
180.000000000
  0
LINE
  8
3
 62
7
  6
CONTINUOUS
 10
786.106292690
 20
99.584466968
 11
786.106292690
 21
105.609844618
  0
ARC
  8
3
 62
7
  6
CONTINUOUS
 10
756.956292690
 20
131.809844618
 40
45.000000000
 50
180.000000000
 51
254.826133844
  0
LINE
  8
3
 62
7
  6
CONTINUOUS
 10
782.456292690
 20
161.104604094
 11
745.481341420
 21
170.650229442
  0
ARC
  8
3
 62
7
  6
CONTINUOUS
 10
756.956292690
 20
131.809844618
 40
40.500000000
 50
106.459177744
 51
180.000000000
  0
CIRCLE
  8
3
 62
7
  6
CONTINUOUS
 10
756.956292690
 20
131.809844618
 40
63.500000000
  0
CIRCLE
  8
3
 62
7
  6
CONTINUOUS
 10
756.956292690
 20
131.809844618
 40
47.500000000
  0
CIRCLE
  8
3
 62
7
  6
CONTINUOUS
 10
756.956292690
 20
131.809844618
 40
49.000000000
  0
CIRCLE
  8
3
 62
7
  6
CONTINUOUS
 10
756.956292690
 20
131.809844618
 40
53.500000000
  0
ARC
  8
3
 62
7
  6
CONTINUOUS
 10
756.956292690
 20
131.809844618
 40
43.500000000
 50
49.933359284
 51
49.933359284
  0
LINE
  8
3
 62
7
  6
CONTINUOUS
 10
785.356261609
 20
165.003476129
 11
745.689306202
 21
175.244081785
  0
ARC
  8
3
 62
7
  6
CONTINUOUS
 10
787.106292690
 20
158.009844618
 40
1.000000000
 50
180.000000000
 51
270.000000000
  0
ARC
  8
3
 62
7
  6
CONTINUOUS
 10
745.439337283
 20
174.275827924
 40
1.000000000
 50
75.524327014
 51
105.173866156
  0
ARC
  8
3
 62
7
  6
CONTINUOUS
 10
756.956292690
 20
131.809844618
 40
35.000000000
 50
108.866900248
 51
180.000000000
  0
ARC
  8
3
 62
7
  6
CONTINUOUS
 10
789.943911083
 20
160.809844618
 40
1.500000000
 50
90.000000000
 51
180.000000000
  0
ARC
  8
3
 62
7
  6
CONTINUOUS
 10
789.943911083
 20
160.809844618
 40
1.500000000
 50
0.000000000
 51
90.000000000
  0
LINE
  8
3
 62
7
  6
CONTINUOUS
 10
788.443911083
 20
157.009844618
 11
787.106292690
 21
157.009844618
  0
LINE
  8
3
 62
7
  6
CONTINUOUS
 10
788.443911083
 20
160.809844618
 11
788.443911083
 21
131.809844618
  0
ARC
  8
3
 62
7
  6
CONTINUOUS
 10
785.106292690
 20
164.035222268
 40
1.000000000
 50
0.000000000
 51
75.524327014
  0
LINE
  8
3
 62
7
  6
CONTINUOUS
 10
791.443911083
 20
131.809844618
 11
791.443911083
 21
160.809844618
  0
LINE
  8
3
 62
7
  6
CONTINUOUS
 10
776.956292690
 20
156.844181171
 11
745.638314306
 21
164.929376095
  0
LINE
  8
3
 62
7
  6
CONTINUOUS
 10
786.106292690
 20
164.035222268
 11
786.106292690
 21
158.009844618
  0
LINE
  8
3
 62
7
  6
CONTINUOUS
 10
776.956292690
 20
131.809844618
 11
776.956292690
 21
106.775508068
  0
LINE
  8
3
 62
7
  6
CONTINUOUS
 10
782.456292690
 20
131.809844618
 11
782.456292690
 21
102.515085144
  0
LINE
  8
3
 62
7
  6
CONTINUOUS
 10
782.456292690
 20
102.515085144
 11
745.481341420
 21
92.969459793
  0
ARC
  8
3
 62
7
  6
CONTINUOUS
 10
756.956292690
 20
131.809844618
 40
40.500000000
 50
180.000000000
 51
253.540822256
  0
ARC
  8
3
 62
7
  6
CONTINUOUS
 10
756.956292690
 20
131.809844618
 40
43.500000000
 50
310.066640716
 51
310.066640716
  0
LINE
  8
3
 62
7
  6
CONTINUOUS
 10
785.356261609
 20
98.616213106
 11
745.689306202
 21
88.375607450
  0
ARC
  8
3
 62
7
  6
CONTINUOUS
 10
787.106292690
 20
105.609844618
 40
1.000000000
 50
90.000000000
 51
180.000000000
  0
ARC
  8
3
 62
7
  6
CONTINUOUS
 10
745.439337283
 20
89.343861311
 40
1.000000000
 50
254.826133844
 51
284.475672986
  0
ARC
  8
3
 62
7
  6
CONTINUOUS
 10
756.956292690
 20
131.809844618
 40
35.000000000
 50
180.000000000
 51
251.133099752
  0
ARC
  8
3
 62
7
  6
CONTINUOUS
 10
789.943911083
 20
102.809844618
 40
1.500000000
 50
180.000000000
 51
270.000000000
  0
LINE
  8
3
 62
7
  6
CONTINUOUS
 10
791.443911083
 20
131.809844618
 11
791.443911083
 21
102.809844618
  0
LINE
  8
3
 62
7
  6
CONTINUOUS
 10
788.443911083
 20
102.809844618
 11
788.443911083
 21
131.809844618
  0
LINE
  8
3
 62
7
  6
CONTINUOUS
 10
788.443911083
 20
106.609844618
 11
787.106292690
 21
106.609844618
  0
ARC
  8
3
 62
7
  6
CONTINUOUS
 10
785.106292690
 20
99.584466968
 40
1.000000000
 50
284.475672986
 51
0.000000000
  0
LINE
  8
3
 62
7
  6
CONTINUOUS
 10
776.956292690
 20
106.775508068
 11
745.638314306
 21
98.690313141
  0
LINE
  8
3
 62
7
  6
CONTINUOUS
 10
545.304557678
 20
82.809844618
 11
547.304557678
 21
82.809844618
  0
LINE
  8
3
 62
7
  6
CONTINUOUS
 10
566.304557678
 20
179.309844618
 11
560.304557678
 21
179.809844618
  0
LINE
  8
3
 62
7
  6
CONTINUOUS
 10
566.304557678
 20
84.309844618
 11
566.304557678
 21
179.309844618
  0
LINE
  8
3
 62
7
  6
CONTINUOUS
 10
560.304557678
 20
83.809844618
 11
566.304557678
 21
84.309844618
  0
LINE
  8
3
 62
7
  6
CONTINUOUS
 10
547.304557678
 20
180.809844618
 11
545.304557678
 21
180.809844618
  0
LINE
  8
3
 62
7
  6
CONTINUOUS
 10
547.304557678
 20
82.809844618
 11
547.304557678
 21
180.809844618
  0
LINE
  8
3
 62
7
  6
CONTINUOUS
 10
560.304557678
 20
83.809844618
 11
560.304557678
 21
179.809844618
  0
LINE
  8
3
 62
7
  6
CONTINUOUS
 10
560.304557678
 20
179.809844618
 11
547.304557678
 21
179.809844618
  0
LINE
  8
3
 62
7
  6
CONTINUOUS
 10
547.304557678
 20
83.809844618
 11
560.304557678
 21
83.809844618
  0
LINE
  8
6
 62
7
  6
CONTINUOUS
 10
482.104557678
 20
520.558526202
 11
482.104557678
 21
565.558526202
  0
LINE
  8
4
 62
7
  6
CONTINUOUS
 10
783.456292690
 20
204.309844618
 11
663.456292690
 21
204.309844618
  0
ARC
  8
3
 62
7
  6
CONTINUOUS
 10
789.943911083
 20
102.809844618
 40
1.500000000
 50
270.000000000
 51
0.000000000
  0
LINE
  8
3
 62
7
  6
CONTINUOUS
 10
500.104557678
 20
538.558526202
 11
500.104557678
 21
370.558526202
  0
LINE
  8
3
 62
7
  6
CONTINUOUS
 10
501.304557678
 20
527.558526202
 11
500.704557678
 21
527.558526202
  0
LINE
  8
3
 62
2
  6
CENTER2
 10
494.101775379
 20
464.058526202
 11
573.052729094
 21
464.058526202
  0
LINE
  8
1
 62
2
  6
CENTER2
 10
879.324462551
 20
131.809844618
 11
615.174458495
 21
131.809844618
  0
LINE
  8
1
 62
7
  6
CONTINUOUS
 10
668.456292690
 20
204.309844618
 11
833.456292690
 21
204.309844618
  0
LINE
  8
3
 62
7
  6
CONTINUOUS
 10
519.304557678
 20
410.558526202
 11
525.304557678
 21
415.058526202
  0
LINE
  8
1
 62
7
  6
CONTINUOUS
 10
833.456292690
 20
59.309844618
 11
663.456292690
 21
59.309844618
  0
LINE
  8
1
 62
7
  6
CONTINUOUS
 10
833.456292690
 20
204.309844618
 11
833.456292690
 21
59.309844618
  0
ARC
  8
6
 62
7
  6
CONTINUOUS
 10
814.456292690
 20
34.809844618
 40
1.000000000
 50
180.000000000
 51
270.000000000
  0
ARC
  8
6
 62
7
  6
CONTINUOUS
 10
858.456292690
 20
38.809844618
 40
5.000000000
 50
270.000000000
 51
0.000000000
  0
ARC
  8
6
 62
7
  6
CONTINUOUS
 10
858.456292690
 20
201.809844618
 40
5.000000000
 50
0.000000000
 51
90.000000000
  0
LINE
  8
6
 62
7
  6
CONTINUOUS
 10
843.456292690
 20
206.809844618
 11
843.456292690
 21
33.809844618
  0
LINE
  8
6
 62
7
  6
CONTINUOUS
 10
858.456292690
 20
33.809844618
 11
814.456292690
 21
33.809844618
  0
LINE
  8
6
 62
7
  6
CONTINUOUS
 10
863.456292690
 20
201.809844618
 11
863.456292690
 21
38.809844618
  0
LINE
  8
6
 62
7
  6
CONTINUOUS
 10
814.456292690
 20
206.809844618
 11
858.456292690
 21
206.809844618
  0
LINE
  8
3
 62
7
  6
CONTINUOUS
 10
501.304557678
 20
400.558526202
 11
500.704557678
 21
400.558526202
  0
LINE
  8
7
 62
7
  6
CONTINUOUS
 10
663.456292690
 20
259.809844618
 11
656.713177874
 21
259.219898528
  0
LINE
  8
6
 62
7
  6
CONTINUOUS
 10
347.104557678
 20
565.558526202
 11
347.104557678
 21
520.558526202
  0
LINE
  8
6
 62
7
  6
CONTINUOUS
 10
477.104557678
 20
570.558526202
 11
352.104557678
 21
570.558526202
  0
ARC
  8
6
 62
7
  6
CONTINUOUS
 10
814.456292690
 20
205.809844618
 40
1.000000000
 50
90.000000000
 51
180.000000000
  0
ARC
  8
7
 62
7
  6
CONTINUOUS
 10
653.456292690
 20
19.742028728
 40
15.000000000
 50
180.000000000
 51
265.000000000
  0
ARC
  8
2
 62
7
  6
CONTINUOUS
 10
698.456292690
 20
41.809844618
 40
75.000000000
 50
180.384538320
 51
193.549086756
  0
ARC
  8
2
 62
7
  6
CONTINUOUS
 10
623.957970561
 20
41.309844618
 40
0.500000000
 50
90.000000000
 51
180.384538320
  0
ARC
  8
7
 62
7
  6
CONTINUOUS
 10
649.847814441
 20
233.523761228
 40
25.000000000
 50
94.999999556
 51
166.450913244
  0
LINE
  8
4
 62
7
  6
CONTINUOUS
 10
500.104557678
 20
370.558526202
 11
500.104557678
 21
490.558526202
  0
LINE
  8
7
 62
7
  6
CONTINUOUS
 10
627.956292690
 20
122.309844618
 11
627.956292690
 21
129.809844618
  0
LINE
  8
7
 62
7
  6
CONTINUOUS
 10
627.956292690
 20
110.809844618
 11
627.956292690
 21
118.309844618
  0
LINE
  8
7
 62
7
  6
CONTINUOUS
 10
623.956292690
 20
210.309844618
 11
638.456292690
 21
210.309844618
  0
LINE
  8
7
 62
7
  6
CONTINUOUS
 10
638.456292690
 20
187.309844618
 11
638.456292690
 21
179.809844618
  0
LINE
  8
7
 62
7
  6
CONTINUOUS
 10
623.956292690
 20
187.309844618
 11
638.456292690
 21
187.309844618
  0
LINE
  8
7
 62
7
  6
CONTINUOUS
 10
638.456292690
 20
191.309844618
 11
623.956292690
 21
191.309844618
  0
LINE
  8
7
 62
7
  6
CONTINUOUS
 10
638.456292690
 20
198.809844618
 11
638.456292690
 21
191.309844618
  0
ARC
  8
7
 62
7
  6
CONTINUOUS
 10
653.456292690
 20
243.877660507
 40
15.000000000
 50
95.000000000
 51
180.000000000
  0
ARC
  8
2
 62
7
  6
CONTINUOUS
 10
698.456292690
 20
221.809844618
 40
75.000000000
 50
166.450913244
 51
179.615461680
  0
ARC
  8
2
 62
7
  6
CONTINUOUS
 10
623.957970561
 20
222.309844618
 40
0.500000000
 50
179.615461680
 51
270.000000000
  0
ARC
  8
2
 62
7
  6
CONTINUOUS
 10
649.847814441
 20
30.095928008
 40
25.000000000
 50
193.549086756
 51
265.000000444
  0
LINE
  8
7
 62
7
  6
CONTINUOUS
 10
627.956292690
 20
141.309844618
 11
627.956292690
 21
133.809844618
  0
LINE
  8
1
 62
7
  6
CONTINUOUS
 10
71.872662540
 20
130.059844618
 11
512.336452817
 21
130.059844618
  0
LINE
  8
1
 62
7
  6
CONTINUOUS
 10
71.872662540
 20
133.559844618
 11
512.336452817
 21
133.559844618
  0
LINE
  8
1
 62
7
  6
CONTINUOUS
 10
330.604557678
 20
120.059844618
 11
330.604557678
 21
113.559844618
  0
LINE
  8
1
 62
7
  6
CONTINUOUS
 10
330.604557678
 20
110.059844618
 11
330.604557678
 21
103.559844618
  0
LINE
  8
1
 62
7
  6
CONTINUOUS
 10
330.604557678
 20
100.059844618
 11
330.604557678
 21
93.559844618
  0
LINE
  8
1
 62
7
  6
CONTINUOUS
 10
330.604557678
 20
90.059844618
 11
330.604557678
 21
83.559844618
  0
LINE
  8
1
 62
7
  6
CONTINUOUS
 10
330.604557678
 20
80.059844618
 11
330.604557678
 21
73.559844618
  0
LINE
  8
1
 62
7
  6
CONTINUOUS
 10
330.604557678
 20
70.059844618
 11
330.604557678
 21
63.559844618
  0
LINE
  8
1
 62
7
  6
CONTINUOUS
 10
330.604557678
 20
60.059844618
 11
330.604557678
 21
53.559844618
  0
LINE
  8
1
 62
7
  6
CONTINUOUS
 10
330.604557678
 20
50.059844618
 11
330.604557678
 21
43.559844618
  0
LINE
  8
1
 62
7
  6
CONTINUOUS
 10
330.604557678
 20
40.059844618
 11
330.604557678
 21
33.559844618
  0
LINE
  8
1
 62
7
  6
CONTINUOUS
 10
322.604557678
 20
120.059844618
 11
322.604557678
 21
113.559844618
  0
LINE
  8
1
 62
7
  6
CONTINUOUS
 10
322.604557678
 20
80.059844618
 11
322.604557678
 21
73.559844618
  0
LINE
  8
1
 62
7
  6
CONTINUOUS
 10
322.604557678
 20
100.059844618
 11
322.604557678
 21
93.559844618
  0
LINE
  8
7
 62
7
  6
CONTINUOUS
 10
627.956292690
 20
152.809844618
 11
627.956292690
 21
145.309844618
  0
LINE
  8
3
 62
7
  6
CONTINUOUS
 10
522.604557678
 20
371.158526202
 11
522.604557678
 21
370.558526202
  0
LINE
  8
3
 62
7
  6
CONTINUOUS
 10
525.304557678
 20
513.058526202
 11
519.304557678
 21
517.558526202
  0
LINE
  8
7
 62
7
  6
CONTINUOUS
 10
627.956292690
 20
164.309844618
 11
627.956292690
 21
156.809844618
  0
LINE
  8
7
 62
7
  6
CONTINUOUS
 10
627.956292690
 20
221.809844618
 11
627.956292690
 21
214.309844618
  0
LINE
  8
7
 62
7
  6
CONTINUOUS
 10
627.956292690
 20
198.809844618
 11
627.956292690
 21
191.309844618
  0
LINE
  8
7
 62
7
  6
CONTINUOUS
 10
627.956292690
 20
210.309844618
 11
627.956292690
 21
202.809844618
  0
ARC
  8
7
 62
7
  6
CONTINUOUS
 10
623.956292690
 20
176.309844618
 40
0.500000000
 50
180.000000000
 51
270.000000000
  0
ARC
  8
7
 62
7
  6
CONTINUOUS
 10
623.956292690
 20
167.809844618
 40
0.500000000
 50
90.000000000
 51
180.000000000
  0
ARC
  8
7
 62
7
  6
CONTINUOUS
 10
623.956292690
 20
164.809844618
 40
0.500000000
 50
180.000000000
 51
270.000000000
  0
LINE
  8
1
 62
7
  6
CONTINUOUS
 10
71.872662540
 20
100.059844618
 11
512.336452817
 21
100.059844618
  0
LINE
  8
1
 62
7
  6
CONTINUOUS
 10
71.872662540
 20
103.559844618
 11
512.336452817
 21
103.559844618
  0
LINE
  8
1
 62
7
  6
CONTINUOUS
 10
71.872662540
 20
90.059844618
 11
512.336452817
 21
90.059844618
  0
LINE
  8
1
 62
7
  6
CONTINUOUS
 10
71.872662540
 20
93.559844618
 11
512.336452817
 21
93.559844618
  0
LINE
  8
1
 62
7
  6
CONTINUOUS
 10
71.872662540
 20
80.059844618
 11
512.336452817
 21
80.059844618
  0
LINE
  8
1
 62
7
  6
CONTINUOUS
 10
71.872662540
 20
83.559844618
 11
512.336452817
 21
83.559844618
  0
ARC
  8
7
 62
7
  6
CONTINUOUS
 10
623.956292690
 20
156.309844618
 40
0.500000000
 50
90.000000000
 51
180.000000000
  0
ARC
  8
7
 62
7
  6
CONTINUOUS
 10
623.956292690
 20
153.309844618
 40
0.500000000
 50
180.000000000
 51
270.000000000
  0
LINE
  8
1
 62
7
  6
CONTINUOUS
 10
322.604557678
 20
110.059844618
 11
322.604557678
 21
103.559844618
  0
LINE
  8
1
 62
7
  6
CONTINUOUS
 10
71.872662540
 20
33.559844618
 11
512.336452817
 21
33.559844618
  0
ARC
  8
4
 62
1
  6
HIDDEN2
 10
452.104557678
 20
249.309844618
 40
2.500000000
 50
0.000000000
 51
180.000000000
  0
ARC
  8
4
 62
1
  6
HIDDEN2
 10
452.104557678
 20
237.309844618
 40
2.500000000
 50
180.000000000
 51
0.000000000
  0
LINE
  8
4
 62
1
  6
HIDDEN2
 10
449.604557678
 20
249.309844618
 11
449.604557678
 21
237.309844618
  0
LINE
  8
4
 62
1
  6
HIDDEN2
 10
454.604557678
 20
249.309844618
 11
454.604557678
 21
237.309844618
  0
ARC
  8
4
 62
1
  6
HIDDEN2
 10
452.104557678
 20
14.309844618
 40
2.500000000
 50
180.000000000
 51
0.000000000
  0
LINE
  8
4
 62
1
  6
HIDDEN2
 10
449.604557678
 20
14.309844618
 11
449.604557678
 21
26.309844618
  0
ARC
  8
4
 62
1
  6
HIDDEN2
 10
452.104557678
 20
26.309844618
 40
2.500000000
 50
0.000000000
 51
180.000000000
  0
LINE
  8
4
 62
1
  6
HIDDEN2
 10
454.604557678
 20
14.309844618
 11
454.604557678
 21
26.309844618
  0
ARC
  8
4
 62
1
  6
HIDDEN2
 10
292.104557678
 20
14.309844618
 40
2.500000000
 50
180.000000000
 51
0.000000000
  0
ARC
  8
4
 62
1
  6
HIDDEN2
 10
292.104557678
 20
26.309844618
 40
2.500000000
 50
0.000000000
 51
180.000000000
  0
LINE
  8
4
 62
1
  6
HIDDEN2
 10
289.604557678
 20
14.309844618
 11
289.604557678
 21
26.309844618
  0
LINE
  8
4
 62
1
  6
HIDDEN2
 10
294.604557678
 20
14.309844618
 11
294.604557678
 21
26.309844618
  0
LINE
  8
4
 62
1
  6
HIDDEN2
 10
129.604557678
 20
14.309844618
 11
129.604557678
 21
26.309844618
  0
LINE
  8
4
 62
1
  6
HIDDEN2
 10
134.604557678
 20
14.309844618
 11
134.604557678
 21
26.309844618
  0
ARC
  8
4
 62
1
  6
HIDDEN2
 10
132.104557678
 20
26.309844618
 40
2.500000000
 50
0.000000000
 51
180.000000000
  0
ARC
  8
4
 62
1
  6
HIDDEN2
 10
132.104557678
 20
14.309844618
 40
2.500000000
 50
180.000000000
 51
0.000000000
  0
LINE
  8
4
 62
1
  6
HIDDEN2
 10
64.604557678
 20
129.309844618
 11
76.604557678
 21
129.309844618
  0
LINE
  8
4
 62
1
  6
HIDDEN2
 10
64.604557678
 20
134.309844618
 11
76.604557678
 21
134.309844618
  0
ARC
  8
4
 62
1
  6
HIDDEN2
 10
76.604557678
 20
131.809844618
 40
2.500000000
 50
270.000000000
 51
90.000000000
  0
ARC
  8
4
 62
1
  6
HIDDEN2
 10
64.604557678
 20
131.809844618
 40
2.500000000
 50
90.000000000
 51
270.000000000
  0
ARC
  8
4
 62
1
  6
HIDDEN2
 10
132.104557678
 20
249.309844618
 40
2.500000000
 50
0.000000000
 51
180.000000000
  0
ARC
  8
4
 62
1
  6
HIDDEN2
 10
132.104557678
 20
237.309844618
 40
2.500000000
 50
180.000000000
 51
0.000000000
  0
LINE
  8
4
 62
1
  6
HIDDEN2
 10
134.604557678
 20
249.309844618
 11
134.604557678
 21
237.309844618
  0
LINE
  8
4
 62
1
  6
HIDDEN2
 10
129.604557678
 20
249.309844618
 11
129.604557678
 21
237.309844618
  0
LINE
  8
4
 62
1
  6
HIDDEN2
 10
294.604557678
 20
249.309844618
 11
294.604557678
 21
237.309844618
  0
LINE
  8
4
 62
1
  6
HIDDEN2
 10
289.604557678
 20
249.309844618
 11
289.604557678
 21
237.309844618
  0
ARC
  8
4
 62
1
  6
HIDDEN2
 10
292.104557678
 20
237.309844618
 40
2.500000000
 50
180.000000000
 51
0.000000000
  0
ARC
  8
4
 62
1
  6
HIDDEN2
 10
292.104557678
 20
249.309844618
 40
2.500000000
 50
0.000000000
 51
180.000000000
  0
LINE
  8
1
 62
7
  6
CONTINUOUS
 10
71.872662540
 20
43.559844618
 11
512.336452817
 21
43.559844618
  0
LINE
  8
1
 62
7
  6
CONTINUOUS
 10
330.604557678
 20
130.059844618
 11
330.604557678
 21
123.559844618
  0
LINE
  8
1
 62
7
  6
CONTINUOUS
 10
71.872662540
 20
130.059844618
 11
512.336452817
 21
130.059844618
  0
LINE
  8
1
 62
7
  6
CONTINUOUS
 10
71.872662540
 20
133.559844618
 11
512.336452817
 21
133.559844618
  0
LINE
  8
1
 62
7
  6
CONTINUOUS
 10
71.872662540
 20
120.059844618
 11
512.336452817
 21
120.059844618
  0
LINE
  8
1
 62
7
  6
CONTINUOUS
 10
71.872662540
 20
123.559844618
 11
512.336452817
 21
123.559844618
  0
ARC
  8
1
 62
7
  6
CONTINUOUS
 10
84.104557678
 20
229.809844618
 40
32.000000000
 50
91.652648279
 51
178.246184517
  0
LINE
  8
1
 62
7
  6
CONTINUOUS
 10
322.604557678
 20
90.059844618
 11
322.604557678
 21
83.559844618
  0
ARC
  8
4
 62
1
  6
HIDDEN2
 10
84.604557678
 20
229.309844618
 40
25.000000000
 50
90.000000000
 51
180.000000000
  0
LINE
  8
1
 62
7
  6
CONTINUOUS
 10
480.104557678
 20
80.059844618
 11
480.104557678
 21
73.559844618
  0
LINE
  8
1
 62
7
  6
CONTINUOUS
 10
480.104557678
 20
90.059844618
 11
480.104557678
 21
83.559844618
  0
LINE
  8
1
 62
7
  6
CONTINUOUS
 10
480.104557678
 20
140.059844618
 11
480.104557678
 21
133.559844618
  0
LINE
  8
1
 62
7
  6
CONTINUOUS
 10
480.104557678
 20
150.059844618
 11
480.104557678
 21
143.559844618
  0
LINE
  8
1
 62
7
  6
CONTINUOUS
 10
480.104557678
 20
160.059844618
 11
480.104557678
 21
153.559844618
  0
LINE
  8
1
 62
7
  6
CONTINUOUS
 10
480.104557678
 20
170.059844618
 11
480.104557678
 21
163.559844618
  0
LINE
  8
1
 62
7
  6
CONTINUOUS
 10
480.104557678
 20
180.059844618
 11
480.104557678
 21
173.559844618
  0
LINE
  8
1
 62
7
  6
CONTINUOUS
 10
480.104557678
 20
100.059844618
 11
480.104557678
 21
93.559844618
  0
LINE
  8
1
 62
7
  6
CONTINUOUS
 10
480.104557678
 20
110.059844618
 11
480.104557678
 21
103.559844618
  0
LINE
  8
1
 62
7
  6
CONTINUOUS
 10
480.104557678
 20
120.059844618
 11
480.104557678
 21
113.559844618
  0
LINE
  8
1
 62
7
  6
CONTINUOUS
 10
116.604557678
 20
130.059844618
 11
116.604557678
 21
123.559844618
  0
LINE
  8
1
 62
7
  6
CONTINUOUS
 10
116.604557678
 20
50.059844618
 11
116.604557678
 21
43.559844618
  0
LINE
  8
1
 62
7
  6
CONTINUOUS
 10
116.604557678
 20
60.059844618
 11
116.604557678
 21
53.559844618
  0
LINE
  8
4
 62
1
  6
HIDDEN2
 10
451.870910395
 20
254.309844618
 11
84.604557678
 21
254.309844618
  0
LINE
  8
1
 62
7
  6
CONTINUOUS
 10
104.104557678
 20
189.809844618
 11
104.104557678
 21
183.309844618
  0
LINE
  8
1
 62
7
  6
CONTINUOUS
 10
104.104557678
 20
169.809844618
 11
104.104557678
 21
163.309844618
  0
LINE
  8
3
 62
2
  6
CENTER2
 10
139.049890049
 20
21.809844618
 11
123.725301202
 21
21.809844618
  0
LINE
  8
3
 62
2
  6
CENTER2
 10
524.604557678
 20
106.809844618
 11
502.578884632
 21
106.809844618
  0
LINE
  8
4
 62
1
  6
HIDDEN2
 10
519.604557678
 20
104.309844618
 11
507.604557678
 21
104.309844618
  0
LINE
  8
4
 62
1
  6
HIDDEN2
 10
519.604557678
 20
109.309844618
 11
507.604557678
 21
109.309844618
  0
ARC
  8
4
 62
1
  6
HIDDEN2
 10
507.604557678
 20
106.809844618
 40
2.500000000
 50
90.000000000
 51
270.000000000
  0
ARC
  8
4
 62
1
  6
HIDDEN2
 10
519.604557678
 20
106.809844618
 40
2.500000000
 50
270.000000000
 51
90.000000000
  0
LINE
  8
3
 62
7
  6
CONTINUOUS
 10
560.304557678
 20
416.058526202
 11
566.304557678
 21
416.558526202
  0
LINE
  8
3
 62
7
  6
CONTINUOUS
 10
560.304557678
 20
512.058526202
 11
547.304557678
 21
512.058526202
  0
LINE
  8
3
 62
7
  6
CONTINUOUS
 10
547.304557678
 20
416.058526202
 11
560.304557678
 21
416.058526202
  0
LINE
  8
3
 62
7
  6
CONTINUOUS
 10
547.304557678
 20
513.058526202
 11
545.304557678
 21
513.058526202
  0
ARC
  8
4
 62
1
  6
HIDDEN2
 10
499.604557678
 20
34.309844618
 40
25.000000000
 50
270.000000000
 51
360.000000000
  0
LINE
  8
3
 62
7
  6
CONTINUOUS
 10
545.304557678
 20
513.058526202
 11
525.304557678
 21
513.058526202
  0
ARC
  8
4
 62
1
  6
HIDDEN2
 10
499.604557678
 20
229.309844618
 40
25.000000000
 50
0.000000000
 51
90.000000000
  0
CIRCLE
  8
4
 62
1
  6
HIDDEN2
 10
512.104557678
 20
131.809844618
 40
6.000000000
  0
LINE
  8
1
 62
7
  6
CONTINUOUS
 10
480.104557678
 20
190.059844618
 11
480.104557678
 21
183.559844618
  0
LINE
  8
1
 62
7
  6
CONTINUOUS
 10
480.104557678
 20
200.059844618
 11
480.104557678
 21
193.559844618
  0
LINE
  8
1
 62
7
  6
CONTINUOUS
 10
480.104557678
 20
210.059844618
 11
480.104557678
 21
203.559844618
  0
LINE
  8
1
 62
7
  6
CONTINUOUS
 10
480.104557678
 20
220.059844618
 11
480.104557678
 21
213.559844618
  0
LINE
  8
1
 62
7
  6
CONTINUOUS
 10
480.104557678
 20
230.059844618
 11
480.104557678
 21
223.559844618
  0
LINE
  8
1
 62
7
  6
CONTINUOUS
 10
328.104557678
 20
150.059844618
 11
328.104557678
 21
143.559844618
  0
LINE
  8
1
 62
7
  6
CONTINUOUS
 10
328.104557678
 20
160.059844618
 11
328.104557678
 21
153.559844618
  0
LINE
  8
1
 62
7
  6
CONTINUOUS
 10
328.104557678
 20
170.059844618
 11
328.104557678
 21
163.559844618
  0
LINE
  8
1
 62
7
  6
CONTINUOUS
 10
328.104557678
 20
180.059844618
 11
328.104557678
 21
173.559844618
  0
LINE
  8
1
 62
7
  6
CONTINUOUS
 10
328.104557678
 20
190.059844618
 11
328.104557678
 21
183.559844618
  0
ARC
  8
1
 62
7
  6
CONTINUOUS
 10
500.104557678
 20
229.809844618
 40
32.000000000
 50
1.753815483
 51
88.347351721
  0
LINE
  8
1
 62
7
  6
CONTINUOUS
 10
116.604557678
 20
90.059844618
 11
116.604557678
 21
83.559844618
  0
ARC
  8
7
 62
7
  6
CONTINUOUS
 10
623.956292690
 20
144.809844618
 40
0.500000000
 50
90.000000000
 51
180.000000000
  0
ARC
  8
7
 62
7
  6
CONTINUOUS
 10
623.956292690
 20
141.809844618
 40
0.500000000
 50
180.000000000
 51
270.000000000
  0
ARC
  8
7
 62
7
  6
CONTINUOUS
 10
623.956292690
 20
133.309844618
 40
0.500000000
 50
90.000000000
 51
180.000000000
  0
LINE
  8
1
 62
7
  6
CONTINUOUS
 10
328.104557678
 20
200.059844618
 11
328.104557678
 21
193.559844618
  0
LINE
  8
1
 62
7
  6
CONTINUOUS
 10
328.104557678
 20
210.059844618
 11
328.104557678
 21
203.559844618
  0
LINE
  8
1
 62
7
  6
CONTINUOUS
 10
328.104557678
 20
220.059844618
 11
328.104557678
 21
213.559844618
  0
LINE
  8
7
 62
7
  6
CONTINUOUS
 10
638.456292690
 20
179.809844618
 11
623.956292690
 21
179.809844618
  0
LINE
  8
1
 62
7
  6
CONTINUOUS
 10
116.604557678
 20
100.059844618
 11
116.604557678
 21
93.559844618
  0
LINE
  8
1
 62
7
  6
CONTINUOUS
 10
116.604557678
 20
110.059844618
 11
116.604557678
 21
103.559844618
  0
LINE
  8
1
 62
7
  6
CONTINUOUS
 10
116.604557678
 20
120.059844618
 11
116.604557678
 21
113.559844618
  0
LINE
  8
1
 62
7
  6
CONTINUOUS
 10
322.604557678
 20
130.059844618
 11
322.604557678
 21
123.559844618
  0
LINE
  8
1
 62
7
  6
CONTINUOUS
 10
328.104557678
 20
230.059844618
 11
328.104557678
 21
223.559844618
  0
LINE
  8
1
 62
7
  6
CONTINUOUS
 10
330.604557678
 20
230.059844618
 11
330.604557678
 21
223.559844618
  0
LINE
  8
1
 62
7
  6
CONTINUOUS
 10
330.604557678
 20
220.059844618
 11
330.604557678
 21
213.559844618
  0
LINE
  8
1
 62
7
  6
CONTINUOUS
 10
330.604557678
 20
210.059844618
 11
330.604557678
 21
203.559844618
  0
LINE
  8
1
 62
7
  6
CONTINUOUS
 10
330.604557678
 20
200.059844618
 11
330.604557678
 21
193.559844618
  0
LINE
  8
1
 62
7
  6
CONTINUOUS
 10
330.604557678
 20
190.059844618
 11
330.604557678
 21
183.559844618
  0
LINE
  8
1
 62
7
  6
CONTINUOUS
 10
330.604557678
 20
180.059844618
 11
330.604557678
 21
173.559844618
  0
LINE
  8
1
 62
7
  6
CONTINUOUS
 10
330.604557678
 20
170.059844618
 11
330.604557678
 21
163.559844618
  0
ARC
  8
3
 62
7
  6
CONTINUOUS
 10
498.704557678
 20
538.558526202
 40
2.000000000
 50
0.000000000
 51
140.400822026
  0
LINE
  8
3
 62
2
  6
CENTER2
 10
512.104557678
 20
99.470845119
 11
512.104557678
 21
113.870845119
  0
LINE
  8
4
 62
1
  6
HIDDEN2
 10
499.604557678
 20
9.309844618
 11
84.604557678
 21
9.309844618
  0
LINE
  8
3
 62
2
  6
CENTER2
 10
299.993479351
 20
21.809844618
 11
284.668890503
 21
21.809844618
  0
LINE
  8
1
 62
7
  6
CONTINUOUS
 10
104.104557678
 20
179.809844618
 11
104.104557678
 21
173.309844618
  0
LINE
  8
4
 62
1
  6
HIDDEN2
 10
499.604557678
 20
254.309844618
 11
452.104557678
 21
254.309844618
  0
LINE
  8
1
 62
7
  6
CONTINUOUS
 10
104.104557678
 20
159.809844618
 11
104.104557678
 21
153.309844618
  0
LINE
  8
4
 62
1
  6
HIDDEN2
 10
59.604557678
 20
229.309844618
 11
59.604557678
 21
34.309844618
  0
LINE
  8
3
 62
2
  6
CENTER2
 10
132.104557678
 20
30.992664618
 11
132.104557678
 21
10.552162618
  0
LINE
  8
3
 62
2
  6
CENTER2
 10
72.104557678
 20
122.119959711
 11
72.104557678
 21
142.560461711
  0
LINE
  8
4
 62
1
  6
HIDDEN2
 10
524.604557678
 20
229.309844618
 11
524.604557678
 21
34.309844618
  0
LINE
  8
4
 62
1
  6
HIDDEN2
 10
525.104557678
 20
226.809844618
 11
524.604557678
 21
226.809844618
  0
LINE
  8
3
 62
7
  6
CONTINUOUS
 10
525.304557678
 20
415.058526202
 11
525.304557678
 21
513.058526202
  0
LINE
  8
3
 62
7
  6
CONTINUOUS
 10
500.704557678
 20
538.558526202
 11
500.704557678
 21
371.158526202
  0
LINE
  8
3
 62
7
  6
CONTINUOUS
 10
547.304557678
 20
415.058526202
 11
547.304557678
 21
513.058526202
  0
LINE
  8
3
 62
7
  6
CONTINUOUS
 10
545.304557678
 20
415.058526202
 11
547.304557678
 21
415.058526202
  0
LINE
  8
3
 62
7
  6
CONTINUOUS
 10
566.304557678
 20
511.558526202
 11
560.304557678
 21
512.058526202
  0
LINE
  8
1
 62
7
  6
CONTINUOUS
 10
480.104557678
 20
70.059844618
 11
480.104557678
 21
63.559844618
  0
LINE
  8
1
 62
7
  6
CONTINUOUS
 10
104.104557678
 20
149.809844618
 11
104.104557678
 21
143.309844618
  0
LINE
  8
1
 62
7
  6
CONTINUOUS
 10
480.104557678
 20
130.059844618
 11
480.104557678
 21
123.559844618
  0
LINE
  8
4
 62
1
  6
HIDDEN2
 10
292.104557678
 20
229.309844618
 11
84.604557678
 21
229.309844618
  0
LINE
  8
4
 62
1
  6
HIDDEN2
 10
84.604557678
 20
229.309844618
 11
84.604557678
 21
34.309844618
  0
LINE
  8
4
 62
1
  6
HIDDEN2
 10
84.604557678
 20
34.309844618
 11
292.104557678
 21
34.309844618
  0
LINE
  8
7
 62
7
  6
CONTINUOUS
 10
623.956292690
 20
175.809844618
 11
638.456292690
 21
175.809844618
  0
LINE
  8
7
 62
7
  6
CONTINUOUS
 10
638.456292690
 20
175.809844618
 11
638.456292690
 21
168.309844618
  0
LINE
  8
3
 62
2
  6
CENTER2
 10
299.993479351
 20
241.809844618
 11
284.668890503
 21
241.809844618
  0
LINE
  8
3
 62
7
  6
CONTINUOUS
 10
566.304557678
 20
416.558526202
 11
566.304557678
 21
511.558526202
  0
LINE
  8
3
 62
7
  6
CONTINUOUS
 10
522.604557678
 20
370.558526202
 11
500.104557678
 21
370.558526202
  0
LINE
  8
3
 62
7
  6
CONTINUOUS
 10
489.904557678
 20
531.058526202
 11
490.366871111
 21
530.676078441
  0
LINE
  8
4
 62
7
  6
CONTINUOUS
 10
813.456292690
 20
229.809844618
 11
813.456292690
 21
204.309844618
  0
LINE
  8
4
 62
7
  6
CONTINUOUS
 10
863.456292690
 20
33.809844618
 11
663.456292690
 21
33.809844618
  0
LINE
  8
4
 62
7
  6
CONTINUOUS
 10
863.456292690
 20
229.809844618
 11
863.456292690
 21
33.809844618
  0
LINE
  8
4
 62
7
  6
CONTINUOUS
 10
663.456292690
 20
229.809844618
 11
863.456292690
 21
229.809844618
  0
LINE
  8
3
 62
2
  6
CENTER2
 10
139.049890049
 20
241.809844618
 11
123.725301202
 21
241.809844618
  0
LINE
  8
4
 62
1
  6
HIDDEN2
 10
499.604557678
 20
34.309844618
 11
292.104557678
 21
34.309844618
  0
LINE
  8
4
 62
1
  6
HIDDEN2
 10
499.604557678
 20
229.309844618
 11
499.604557678
 21
34.309844618
  0
LINE
  8
4
 62
1
  6
HIDDEN2
 10
292.104557678
 20
229.309844618
 11
499.604557678
 21
229.309844618
  0
LINE
  8
1
 62
7
  6
CONTINUOUS
 10
480.104557678
 20
40.059844618
 11
480.104557678
 21
33.559844618
  0
LINE
  8
1
 62
7
  6
CONTINUOUS
 10
480.104557678
 20
50.059844618
 11
480.104557678
 21
43.559844618
  0
LINE
  8
1
 62
7
  6
CONTINUOUS
 10
480.104557678
 20
60.059844618
 11
480.104557678
 21
53.559844618
  0
LINE
  8
7
 62
7
  6
CONTINUOUS
 10
638.456292690
 20
168.309844618
 11
623.956292690
 21
168.309844618
  0
LINE
  8
3
 62
7
  6
CONTINUOUS
 10
497.625826335
 20
539.450904312
 11
490.366871111
 21
530.676078441
  0
LINE
  8
1
 62
7
  6
CONTINUOUS
 10
500.104557678
 20
372.058526202
 11
500.104557678
 21
538.058526202
  0
LINE
  8
1
 62
7
  6
CONTINUOUS
 10
330.604557678
 20
160.059844618
 11
330.604557678
 21
153.559844618
  0
LINE
  8
1
 62
7
  6
CONTINUOUS
 10
330.604557678
 20
150.059844618
 11
330.604557678
 21
143.559844618
  0
LINE
  8
1
 62
7
  6
CONTINUOUS
 10
330.604557678
 20
140.059844618
 11
330.604557678
 21
133.559844618
  0
LINE
  8
1
 62
7
  6
CONTINUOUS
 10
71.872662540
 20
140.059844618
 11
512.336452817
 21
140.059844618
  0
LINE
  8
7
 62
7
  6
CONTINUOUS
 10
623.956292690
 20
164.309844618
 11
638.456292690
 21
164.309844618
  0
LINE
  8
7
 62
7
  6
CONTINUOUS
 10
638.456292690
 20
164.309844618
 11
638.456292690
 21
156.809844618
  0
LINE
  8
7
 62
7
  6
CONTINUOUS
 10
638.456292690
 20
156.809844618
 11
623.956292690
 21
156.809844618
  0
LINE
  8
7
 62
7
  6
CONTINUOUS
 10
623.956292690
 20
152.809844618
 11
638.456292690
 21
152.809844618
  0
LINE
  8
3
 62
2
  6
CENTER2
 10
504.904557678
 20
131.809844618
 11
519.304557678
 21
131.809844618
  0
LINE
  8
3
 62
2
  6
CENTER2
 10
512.104557678
 20
124.609844618
 11
512.104557678
 21
139.009844618
  0
LINE
  8
1
 62
7
  6
CONTINUOUS
 10
71.872662540
 20
143.559844618
 11
512.336452817
 21
143.559844618
  0
LINE
  8
1
 62
7
  6
CONTINUOUS
 10
71.872662540
 20
220.059844618
 11
512.336452817
 21
220.059844618
  0
LINE
  8
1
 62
7
  6
CONTINUOUS
 10
71.872662540
 20
223.559844618
 11
512.336452817
 21
223.559844618
  0
LINE
  8
1
 62
7
  6
CONTINUOUS
 10
71.872662540
 20
210.059844618
 11
512.336452817
 21
210.059844618
  0
LINE
  8
1
 62
7
  6
CONTINUOUS
 10
71.872662540
 20
213.559844618
 11
512.336452817
 21
213.559844618
  0
LINE
  8
1
 62
7
  6
CONTINUOUS
 10
71.872662540
 20
200.059844618
 11
512.336452817
 21
200.059844618
  0
LINE
  8
1
 62
7
  6
CONTINUOUS
 10
71.872662540
 20
203.559844618
 11
512.336452817
 21
203.559844618
  0
LINE
  8
1
 62
7
  6
CONTINUOUS
 10
71.872662540
 20
190.059844618
 11
512.336452817
 21
190.059844618
  0
LINE
  8
1
 62
7
  6
CONTINUOUS
 10
71.872662540
 20
193.559844618
 11
512.336452817
 21
193.559844618
  0
LINE
  8
1
 62
7
  6
CONTINUOUS
 10
71.872662540
 20
180.059844618
 11
512.336452817
 21
180.059844618
  0
LINE
  8
1
 62
7
  6
CONTINUOUS
 10
71.872662540
 20
183.559844618
 11
512.336452817
 21
183.559844618
  0
LINE
  8
1
 62
7
  6
CONTINUOUS
 10
71.872662540
 20
70.059844618
 11
512.336452817
 21
70.059844618
  0
LINE
  8
1
 62
7
  6
CONTINUOUS
 10
71.872662540
 20
73.559844618
 11
512.336452817
 21
73.559844618
  0
LINE
  8
1
 62
7
  6
CONTINUOUS
 10
71.872662540
 20
60.059844618
 11
512.336452817
 21
60.059844618
  0
LINE
  8
1
 62
7
  6
CONTINUOUS
 10
71.872662540
 20
63.559844618
 11
512.336452817
 21
63.559844618
  0
LINE
  8
1
 62
7
  6
CONTINUOUS
 10
71.872662540
 20
50.059844618
 11
512.336452817
 21
50.059844618
  0
LINE
  8
1
 62
7
  6
CONTINUOUS
 10
71.872662540
 20
53.559844618
 11
512.336452817
 21
53.559844618
  0
LINE
  8
1
 62
7
  6
CONTINUOUS
 10
71.872662540
 20
40.059844618
 11
512.336452817
 21
40.059844618
  0
LINE
  8
3
 62
2
  6
CENTER2
 10
132.104557678
 20
232.627024618
 11
132.104557678
 21
253.067526618
  0
LINE
  8
3
 62
2
  6
CENTER2
 10
459.881819427
 20
21.809844618
 11
444.557230579
 21
21.809844618
  0
LINE
  8
3
 62
2
  6
CENTER2
 10
452.104557678
 20
30.920842387
 11
452.104557678
 21
10.186915143
  0
LINE
  8
7
 62
7
  6
CONTINUOUS
 10
638.456292690
 20
152.809844618
 11
638.456292690
 21
145.309844618
  0
LINE
  8
7
 62
7
  6
CONTINUOUS
 10
638.456292690
 20
145.309844618
 11
623.956292690
 21
145.309844618
  0
LINE
  8
7
 62
7
  6
CONTINUOUS
 10
623.956292690
 20
141.309844618
 11
638.456292690
 21
141.309844618
  0
LINE
  8
7
 62
7
  6
CONTINUOUS
 10
638.456292690
 20
141.309844618
 11
638.456292690
 21
133.809844618
  0
LINE
  8
7
 62
7
  6
CONTINUOUS
 10
638.456292690
 20
133.809844618
 11
623.956292690
 21
133.809844618
  0
LINE
  8
7
 62
7
  6
CONTINUOUS
 10
623.456292690
 20
213.809844618
 11
623.456292690
 21
210.809844618
  0
LINE
  8
7
 62
7
  6
CONTINUOUS
 10
623.456292690
 20
202.309844618
 11
623.456292690
 21
199.309844618
  0
LINE
  8
7
 62
7
  6
CONTINUOUS
 10
623.456292690
 20
190.809844618
 11
623.456292690
 21
187.809844618
  0
LINE
  8
7
 62
7
  6
CONTINUOUS
 10
623.456292690
 20
179.309844618
 11
623.456292690
 21
176.309844618
  0
LINE
  8
7
 62
7
  6
CONTINUOUS
 10
623.456292690
 20
167.809844618
 11
623.456292690
 21
164.809844618
  0
LINE
  8
7
 62
7
  6
CONTINUOUS
 10
623.456292690
 20
156.309844618
 11
623.456292690
 21
153.309844618
  0
LINE
  8
7
 62
7
  6
CONTINUOUS
 10
623.456292690
 20
144.809844618
 11
623.456292690
 21
141.809844618
  0
LINE
  8
7
 62
7
  6
CONTINUOUS
 10
623.456292690
 20
133.309844618
 11
623.456292690
 21
131.809844618
  0
ARC
  8
7
 62
7
  6
CONTINUOUS
 10
623.956292690
 20
213.809844618
 40
0.500000000
 50
90.000000000
 51
180.000000000
  0
ARC
  8
7
 62
7
  6
CONTINUOUS
 10
623.956292690
 20
210.809844618
 40
0.500000000
 50
180.000000000
 51
270.000000000
  0
ARC
  8
7
 62
7
  6
CONTINUOUS
 10
623.956292690
 20
202.309844618
 40
0.500000000
 50
90.000000000
 51
180.000000000
  0
ARC
  8
7
 62
7
  6
CONTINUOUS
 10
623.956292690
 20
199.309844618
 40
0.500000000
 50
180.000000000
 51
270.000000000
  0
ARC
  8
7
 62
7
  6
CONTINUOUS
 10
623.956292690
 20
190.809844618
 40
0.500000000
 50
90.000000000
 51
180.000000000
  0
ARC
  8
7
 62
7
  6
CONTINUOUS
 10
623.956292690
 20
187.809844618
 40
0.500000000
 50
180.000000000
 51
270.000000000
  0
ARC
  8
7
 62
7
  6
CONTINUOUS
 10
623.956292690
 20
179.309844618
 40
0.500000000
 50
90.000000000
 51
180.000000000
  0
LINE
  8
7
 62
7
  6
CONTINUOUS
 10
627.956292690
 20
175.809844618
 11
627.956292690
 21
168.309844618
  0
LINE
  8
7
 62
7
  6
CONTINUOUS
 10
623.956292690
 20
53.309844618
 11
638.456292690
 21
53.309844618
  0
LINE
  8
7
 62
7
  6
CONTINUOUS
 10
638.456292690
 20
76.309844618
 11
638.456292690
 21
83.809844618
  0
LINE
  8
7
 62
7
  6
CONTINUOUS
 10
623.956292690
 20
76.309844618
 11
638.456292690
 21
76.309844618
  0
LINE
  8
7
 62
7
  6
CONTINUOUS
 10
638.456292690
 20
72.309844618
 11
623.956292690
 21
72.309844618
  0
LINE
  8
7
 62
7
  6
CONTINUOUS
 10
638.456292690
 20
64.809844618
 11
638.456292690
 21
72.309844618
  0
LINE
  8
7
 62
7
  6
CONTINUOUS
 10
623.956292690
 20
64.809844618
 11
638.456292690
 21
64.809844618
  0
LINE
  8
3
 62
2
  6
CENTER2
 10
292.104557678
 20
-10.646405566
 11
292.104557678
 21
282.702354336
  0
LINE
  8
7
 62
7
  6
CONTINUOUS
 10
638.456292690
 20
60.809844618
 11
623.956292690
 21
60.809844618
  0
LINE
  8
3
 62
2
  6
CENTER2
 10
452.104557678
 20
232.698846848
 11
452.104557678
 21
253.432774092
  0
LINE
  8
3
 62
2
  6
CENTER2
 10
459.881819427
 20
241.809844618
 11
444.557230579
 21
241.809844618
  0
LINE
  8
3
 62
2
  6
CENTER2
 10
572.841213964
 20
131.809844618
 11
28.305973148
 21
131.809844618
  0
LINE
  8
4
 62
7
  6
CONTINUOUS
 10
500.104557678
 20
370.558526202
 11
500.104557678
 21
520.558526202
  0
LINE
  8
4
 62
7
  6
CONTINUOUS
 10
500.104557678
 20
520.558526202
 11
489.604557678
 21
520.558526202
  0
LINE
  8
4
 62
7
  6
CONTINUOUS
 10
343.104557678
 20
520.558526202
 11
343.104557678
 21
570.558526202
  0
LINE
  8
4
 62
7
  6
CONTINUOUS
 10
343.104557678
 20
570.558526202
 11
84.104557678
 21
570.558526202
  0
LINE
  8
4
 62
7
  6
CONTINUOUS
 10
84.104557678
 20
570.558526202
 11
84.104557678
 21
370.558526202
  0
LINE
  8
3
 62
2
  6
CENTER2
 10
292.104557678
 20
312.711492032
 11
292.104557678
 21
590.828973811
  0
LINE
  8
7
 62
7
  6
CONTINUOUS
 10
663.456292690
 20
3.809844618
 11
647.668921066
 21
5.191060539
  0
LINE
  8
7
 62
7
  6
CONTINUOUS
 10
638.456292690
 20
49.309844618
 11
638.456292690
 21
19.742028728
  0
LINE
  8
7
 62
7
  6
CONTINUOUS
 10
663.456292690
 20
3.809844618
 11
663.456292690
 21
131.809844618
  0
LINE
  8
7
 62
7
  6
CONTINUOUS
 10
623.957970561
 20
41.809844618
 11
638.456292690
 21
41.809844618
  0
LINE
  8
7
 62
7
  6
CONTINUOUS
 10
623.956292690
 20
49.309844618
 11
638.456292690
 21
49.309844618
  0
LINE
  8
7
 62
7
  6
CONTINUOUS
 10
638.456292690
 20
53.309844618
 11
638.456292690
 21
60.809844618
  0
LINE
  8
7
 62
7
  6
CONTINUOUS
 10
627.956292690
 20
76.309844618
 11
627.956292690
 21
83.809844618
  0
LINE
  8
7
 62
7
  6
CONTINUOUS
 10
627.956292690
 20
87.809844618
 11
627.956292690
 21
95.309844618
  0
LINE
  8
1
 62
7
  6
CONTINUOUS
 10
322.604557678
 20
70.059844618
 11
322.604557678
 21
63.559844618
  0
ARC
  8
7
 62
7
  6
CONTINUOUS
 10
623.956292690
 20
84.309844618
 40
0.500000000
 50
180.000000000
 51
270.000000000
  0
ARC
  8
7
 62
7
  6
CONTINUOUS
 10
623.956292690
 20
75.809844618
 40
0.500000000
 50
90.000000000
 51
180.000000000
  0
ARC
  8
7
 62
7
  6
CONTINUOUS
 10
623.956292690
 20
72.809844618
 40
0.500000000
 50
180.000000000
 51
270.000000000
  0
ARC
  8
7
 62
7
  6
CONTINUOUS
 10
623.956292690
 20
64.309844618
 40
0.500000000
 50
90.000000000
 51
180.000000000
  0
ARC
  8
7
 62
7
  6
CONTINUOUS
 10
623.956292690
 20
61.309844618
 40
0.500000000
 50
180.000000000
 51
270.000000000
  0
LINE
  8
1
 62
7
  6
CONTINUOUS
 10
71.872662540
 20
170.059844618
 11
512.336452817
 21
170.059844618
  0
ARC
  8
7
 62
7
  6
CONTINUOUS
 10
623.956292690
 20
52.809844618
 40
0.500000000
 50
90.000000000
 51
180.000000000
  0
ARC
  8
7
 62
7
  6
CONTINUOUS
 10
623.956292690
 20
49.809844618
 40
0.500000000
 50
180.000000000
 51
270.000000000
  0
LINE
  8
7
 62
7
  6
CONTINUOUS
 10
623.456292690
 20
130.309844618
 11
623.456292690
 21
131.809844618
  0
LINE
  8
7
 62
7
  6
CONTINUOUS
 10
623.456292690
 20
118.809844618
 11
623.456292690
 21
121.809844618
  0
LINE
  8
7
 62
7
  6
CONTINUOUS
 10
623.456292690
 20
107.309844618
 11
623.456292690
 21
110.309844618
  0
LINE
  8
7
 62
7
  6
CONTINUOUS
 10
623.456292690
 20
95.809844618
 11
623.456292690
 21
98.809844618
  0
LINE
  8
7
 62
7
  6
CONTINUOUS
 10
623.456292690
 20
84.309844618
 11
623.456292690
 21
87.309844618
  0
LINE
  8
7
 62
7
  6
CONTINUOUS
 10
623.456292690
 20
72.809844618
 11
623.456292690
 21
75.809844618
  0
LINE
  8
6
 62
7
  6
CONTINUOUS
 10
482.104557678
 20
550.558526202
 11
347.104557678
 21
550.558526202
  0
ARC
  8
6
 62
7
  6
CONTINUOUS
 10
477.104557678
 20
565.558526202
 40
5.000000000
 50
0.000000000
 51
90.000000000
  0
LINE
  8
7
 62
7
  6
CONTINUOUS
 10
623.456292690
 20
61.309844618
 11
623.456292690
 21
64.309844618
  0
LINE
  8
7
 62
7
  6
CONTINUOUS
 10
623.456292690
 20
49.809844618
 11
623.456292690
 21
52.809844618
  0
LINE
  8
7
 62
7
  6
CONTINUOUS
 10
638.456292690
 20
129.809844618
 11
623.956292690
 21
129.809844618
  0
LINE
  8
1
 62
7
  6
CONTINUOUS
 10
322.604557678
 20
60.059844618
 11
322.604557678
 21
53.559844618
  0
LINE
  8
7
 62
7
  6
CONTINUOUS
 10
638.456292690
 20
122.309844618
 11
638.456292690
 21
129.809844618
  0
LINE
  8
1
 62
7
  6
CONTINUOUS
 10
322.604557678
 20
50.059844618
 11
322.604557678
 21
43.559844618
  0
LINE
  8
1
 62
7
  6
CONTINUOUS
 10
71.872662540
 20
110.059844618
 11
512.336452817
 21
110.059844618
  0
LINE
  8
1
 62
7
  6
CONTINUOUS
 10
71.872662540
 20
113.559844618
 11
512.336452817
 21
113.559844618
  0
LINE
  8
7
 62
7
  6
CONTINUOUS
 10
623.956292690
 20
122.309844618
 11
638.456292690
 21
122.309844618
  0
LINE
  8
7
 62
7
  6
CONTINUOUS
 10
638.456292690
 20
118.309844618
 11
623.956292690
 21
118.309844618
  0
LINE
  8
7
 62
7
  6
CONTINUOUS
 10
638.456292690
 20
110.809844618
 11
638.456292690
 21
118.309844618
  0
LINE
  8
7
 62
7
  6
CONTINUOUS
 10
623.956292690
 20
110.809844618
 11
638.456292690
 21
110.809844618
  0
LINE
  8
7
 62
7
  6
CONTINUOUS
 10
638.456292690
 20
106.809844618
 11
623.956292690
 21
106.809844618
  0
LINE
  8
7
 62
7
  6
CONTINUOUS
 10
638.456292690
 20
99.309844618
 11
638.456292690
 21
106.809844618
  0
LINE
  8
7
 62
7
  6
CONTINUOUS
 10
623.956292690
 20
99.309844618
 11
638.456292690
 21
99.309844618
  0
LINE
  8
7
 62
7
  6
CONTINUOUS
 10
638.456292690
 20
95.309844618
 11
623.956292690
 21
95.309844618
  0
LINE
  8
7
 62
7
  6
CONTINUOUS
 10
638.456292690
 20
87.809844618
 11
638.456292690
 21
95.309844618
  0
LINE
  8
7
 62
7
  6
CONTINUOUS
 10
623.956292690
 20
87.809844618
 11
638.456292690
 21
87.809844618
  0
LINE
  8
7
 62
7
  6
CONTINUOUS
 10
638.456292690
 20
83.809844618
 11
623.956292690
 21
83.809844618
  0
LINE
  8
3
 62
7
  6
CONTINUOUS
 10
497.163512903
 20
539.833352072
 11
489.904557678
 21
531.058526202
  0
LINE
  8
3
 62
7
  6
CONTINUOUS
 10
519.304557678
 20
517.558526202
 11
501.304557678
 21
517.558526202
  0
LINE
  8
1
 62
7
  6
CONTINUOUS
 10
71.872662540
 20
173.559844618
 11
512.336452817
 21
173.559844618
  0
LINE
  8
1
 62
7
  6
CONTINUOUS
 10
71.872662540
 20
160.059844618
 11
512.336452817
 21
160.059844618
  0
LINE
  8
1
 62
7
  6
CONTINUOUS
 10
71.872662540
 20
163.559844618
 11
512.336452817
 21
163.559844618
  0
LINE
  8
1
 62
7
  6
CONTINUOUS
 10
71.872662540
 20
150.059844618
 11
512.336452817
 21
150.059844618
  0
LINE
  8
1
 62
7
  6
CONTINUOUS
 10
71.872662540
 20
153.559844618
 11
512.336452817
 21
153.559844618
  0
LINE
  8
1
 62
7
  6
CONTINUOUS
 10
71.872662540
 20
230.059844618
 11
512.336452817
 21
230.059844618
  0
LINE
  8
3
 62
7
  6
CONTINUOUS
 10
560.304557678
 20
416.058526202
 11
560.304557678
 21
512.058526202
  0
LINE
  8
4
 62
7
  6
CONTINUOUS
 10
813.456292690
 20
59.309844618
 11
813.456292690
 21
33.809844618
  0
LINE
  8
3
 62
7
  6
CONTINUOUS
 10
525.304557678
 20
415.058526202
 11
545.304557678
 21
415.058526202
  0
LINE
  8
3
 62
7
  6
CONTINUOUS
 10
545.304557678
 20
415.058526202
 11
545.304557678
 21
513.058526202
  0
ARC
  8
4
 62
1
  6
HIDDEN2
 10
84.604557678
 20
34.309844618
 40
25.000000000
 50
180.000000000
 51
270.000000000
  0
ARC
  8
1
 62
7
  6
CONTINUOUS
 10
499.304557678
 20
538.752737894
 40
0.800000000
 50
90.413060898
 51
180.000000000
  0
LINE
  8
4
 62
7
  6
CONTINUOUS
 10
500.104557678
 20
538.752737894
 11
500.104557678
 21
520.558526202
  0
LINE
  8
4
 62
7
  6
CONTINUOUS
 10
499.304557678
 20
538.752737894
 11
499.304557678
 21
521.358526202
  0
LINE
  8
4
 62
7
  6
CONTINUOUS
 10
499.304557678
 20
539.558526202
 11
499.304557678
 21
539.552717105
  0
LINE
  8
1
 62
7
  6
CONTINUOUS
 10
498.504557678
 20
538.752737894
 11
498.504557678
 21
534.552717105
  0
LINE
  8
1
 62
7
  6
CONTINUOUS
 10
498.504557678
 20
534.552717105
 11
499.304557678
 21
534.552717105
  0
LINE
  8
4
 62
7
  6
CONTINUOUS
 10
499.304557678
 20
521.358526202
 11
489.604557678
 21
521.358526202
  0
ARC
  8
1
 62
7
  6
CONTINUOUS
 10
499.304557678
 20
538.752737894
 40
0.800000000
 50
0.000000000
 51
90.413060898
  0
ARC
  8
7
 62
7
  6
CONTINUOUS
 10
623.956292690
 20
130.309844618
 40
0.500000000
 50
180.000000000
 51
270.000000000
  0
ARC
  8
6
 62
7
  6
CONTINUOUS
 10
352.104557678
 20
565.558526202
 40
5.000000000
 50
90.000000000
 51
180.000000000
  0
ARC
  8
7
 62
7
  6
CONTINUOUS
 10
623.956292690
 20
121.809844618
 40
0.500000000
 50
90.000000000
 51
180.000000000
  0
ARC
  8
7
 62
7
  6
CONTINUOUS
 10
623.956292690
 20
118.809844618
 40
0.500000000
 50
180.000000000
 51
270.000000000
  0
ARC
  8
7
 62
7
  6
CONTINUOUS
 10
623.956292690
 20
110.309844618
 40
0.500000000
 50
90.000000000
 51
180.000000000
  0
ARC
  8
7
 62
7
  6
CONTINUOUS
 10
623.956292690
 20
107.309844618
 40
0.500000000
 50
180.000000000
 51
270.000000000
  0
ARC
  8
3
 62
7
  6
CONTINUOUS
 10
498.704557678
 20
538.558526202
 40
1.400000000
 50
0.000000000
 51
140.400822026
  0
LINE
  8
1
 62
7
  6
CONTINUOUS
 10
116.604557678
 20
70.059844618
 11
116.604557678
 21
63.559844618
  0
LINE
  8
1
 62
7
  6
CONTINUOUS
 10
116.604557678
 20
80.059844618
 11
116.604557678
 21
73.559844618
  0
ARC
  8
1
 62
7
  6
CONTINUOUS
 10
84.104557678
 20
33.809844618
 40
32.000000000
 50
181.753815483
 51
268.347351721
  0
ARC
  8
1
 62
7
  6
CONTINUOUS
 10
500.104557678
 20
33.809844618
 40
32.000000000
 50
271.652648279
 51
358.246184517
  0
ARC
  8
1
 62
7
  6
CONTINUOUS
 10
292.104557678
 20
7242.976511284
 40
7244.166666667
 50
268.347351721
 51
271.652648279
  0
ARC
  8
1
 62
7
  6
CONTINUOUS
 10
-2700.478775655
 20
131.809844618
 40
3234.083333334
 50
358.246184517
 51
1.753815483
  0
ARC
  8
1
 62
7
  6
CONTINUOUS
 10
3284.687891012
 20
131.809844618
 40
3234.083333334
 50
178.246184517
 51
181.753815483
  0
ARC
  8
1
 62
7
  6
CONTINUOUS
 10
292.104557678
 20
-6979.356822049
 40
7244.166666667
 50
88.347351721
 51
91.652648279
  0
LINE
  8
1
 62
7
  6
CONTINUOUS
 10
104.104557678
 20
229.809844618
 11
104.104557678
 21
223.309844618
  0
LINE
  8
1
 62
7
  6
CONTINUOUS
 10
104.104557678
 20
219.809844618
 11
104.104557678
 21
213.309844618
  0
LINE
  8
7
 62
7
  6
CONTINUOUS
 10
54.104557678
 20
370.558526202
 11
54.694503768
 21
363.815411387
  0
LINE
  8
7
 62
7
  6
CONTINUOUS
 10
292.104557678
 20
370.558526202
 11
54.104557678
 21
370.558526202
  0
ARC
  8
7
 62
7
  6
CONTINUOUS
 10
509.590717623
 20
365.558526202
 40
20.000000000
 50
270.000000000
 51
355.000000000
  0
ARC
  8
7
 62
7
  6
CONTINUOUS
 10
623.956292690
 20
98.809844618
 40
0.500000000
 50
90.000000000
 51
180.000000000
  0
LINE
  8
7
 62
7
  6
CONTINUOUS
 10
530.104557678
 20
370.558526202
 11
529.514611589
 21
363.815411387
  0
ARC
  8
1
 62
7
  6
CONTINUOUS
 10
292.104557678
 20
1934.732851788
 40
1604.174325585
 50
262.109127012
 51
277.890872988
  0
ARC
  8
7
 62
7
  6
CONTINUOUS
 10
74.618397734
 20
365.558526202
 40
20.000000000
 50
185.000000000
 51
270.000000000
  0
LINE
  8
1
 62
4
  6
CONTINUOUS
 10
93.148277281
 20
345.558526202
 11
490.826775577
 21
345.558526202
  0
LINE
  8
7
 62
7
  6
CONTINUOUS
 10
292.104557678
 20
370.558526202
 11
530.104557678
 21
370.558526202
  0
ARC
  8
7
 62
7
  6
CONTINUOUS
 10
623.956292690
 20
95.809844618
 40
0.500000000
 50
180.000000000
 51
270.000000000
  0
ARC
  8
7
 62
7
  6
CONTINUOUS
 10
623.956292690
 20
87.309844618
 40
0.500000000
 50
90.000000000
 51
180.000000000
  0
LINE
  8
7
 62
7
  6
CONTINUOUS
 10
627.956292690
 20
53.309844618
 11
627.956292690
 21
60.809844618
  0
LINE
  8
7
 62
7
  6
CONTINUOUS
 10
627.956292690
 20
64.809844618
 11
627.956292690
 21
72.309844618
  0
LINE
  8
7
 62
7
  6
CONTINUOUS
 10
627.956292690
 20
41.809844618
 11
627.956292690
 21
49.309844618
  0
LINE
  8
7
 62
7
  6
CONTINUOUS
 10
627.956292690
 20
99.309844618
 11
627.956292690
 21
106.809844618
  0
LINE
  8
3
 62
7
  6
CONTINUOUS
 10
519.304557678
 20
410.558526202
 11
519.304557678
 21
517.558526202
  0
LINE
  8
7
 62
7
  6
CONTINUOUS
 10
627.956292690
 20
187.309844618
 11
627.956292690
 21
179.809844618
  0
LINE
  8
3
 62
7
  6
CONTINUOUS
 10
501.304557678
 20
410.558526202
 11
519.304557678
 21
410.558526202
  0
LINE
  8
3
 62
7
  6
CONTINUOUS
 10
500.704557678
 20
371.158526202
 11
522.604557678
 21
371.158526202
  0
LINE
  8
7
 62
7
  6
CONTINUOUS
 10
638.456292690
 20
210.309844618
 11
638.456292690
 21
202.809844618
  0
LINE
  8
7
 62
7
  6
CONTINUOUS
 10
623.956292690
 20
214.309844618
 11
638.456292690
 21
214.309844618
  0
LINE
  8
7
 62
7
  6
CONTINUOUS
 10
623.957970561
 20
221.809844618
 11
638.456292690
 21
221.809844618
  0
LINE
  8
7
 62
7
  6
CONTINUOUS
 10
663.456292690
 20
259.809844618
 11
663.456292690
 21
131.809844618
  0
LINE
  8
7
 62
7
  6
CONTINUOUS
 10
638.456292690
 20
214.309844618
 11
638.456292690
 21
243.877660507
  0
LINE
  8
7
 62
7
  6
CONTINUOUS
 10
663.456292690
 20
259.809844618
 11
647.668921066
 21
258.428628697
  0
LINE
  8
7
 62
7
  6
CONTINUOUS
 10
638.456292690
 20
202.809844618
 11
623.956292690
 21
202.809844618
  0
LINE
  8
7
 62
7
  6
CONTINUOUS
 10
623.956292690
 20
198.809844618
 11
638.456292690
 21
198.809844618
  0
LINE
  8
1
 62
7
  6
CONTINUOUS
 10
104.104557678
 20
209.809844618
 11
104.104557678
 21
203.309844618
  0
LINE
  8
1
 62
7
  6
CONTINUOUS
 10
104.104557678
 20
199.809844618
 11
104.104557678
 21
193.309844618
  0
LINE
  8
3
 62
7
  6
CONTINUOUS
 10
499.604557678
 20
747.762439265
 11
519.304557678
 21
747.762439265
  0
LINE
  8
3
 62
7
  6
CONTINUOUS
 10
519.304557678
 20
747.762439265
 11
519.304557678
 21
854.762439265
  0
LINE
  8
3
 62
7
  6
CONTINUOUS
 10
545.304557678
 20
752.262439265
 11
545.304557678
 21
850.262439265
  0
LINE
  8
3
 62
7
  6
CONTINUOUS
 10
525.304557678
 20
752.262439265
 11
545.304557678
 21
752.262439265
  0
LINE
  8
3
 62
7
  6
CONTINUOUS
 10
560.304557678
 20
753.262439265
 11
560.304557678
 21
849.262439265
  0
LINE
  8
3
 62
7
  6
CONTINUOUS
 10
519.304557678
 20
854.762439265
 11
499.604557678
 21
854.762439265
  0
LINE
  8
3
 62
7
  6
CONTINUOUS
 10
566.304557678
 20
753.762439265
 11
566.304557678
 21
848.762439265
  0
LINE
  8
3
 62
7
  6
CONTINUOUS
 10
566.304557678
 20
848.762439265
 11
560.304557678
 21
849.262439265
  0
LINE
  8
3
 62
7
  6
CONTINUOUS
 10
545.304557678
 20
752.262439265
 11
547.304557678
 21
752.262439265
  0
CIRCLE
  8
4
 62
7
  6
CONTINUOUS
 10
417.104557678
 20
691.262439265
 40
6.000000000
  0
LINE
  8
3
 62
2
  6
CENTER2
 10
409.904557678
 20
691.262439265
 11
424.304557678
 21
691.262439265
  0
LINE
  8
3
 62
2
  6
CENTER2
 10
417.104557678
 20
698.462439265
 11
417.104557678
 21
684.062439265
  0
LINE
  8
3
 62
7
  6
CONTINUOUS
 10
547.304557678
 20
752.262439265
 11
547.304557678
 21
850.262439265
  0
LINE
  8
3
 62
7
  6
CONTINUOUS
 10
525.304557678
 20
752.262439265
 11
525.304557678
 21
850.262439265
  0
LINE
  8
3
 62
7
  6
CONTINUOUS
 10
545.304557678
 20
850.262439265
 11
525.304557678
 21
850.262439265
  0
LINE
  8
3
 62
7
  6
CONTINUOUS
 10
547.304557678
 20
850.262439265
 11
545.304557678
 21
850.262439265
  0
LINE
  8
3
 62
7
  6
CONTINUOUS
 10
547.304557678
 20
753.262439265
 11
560.304557678
 21
753.262439265
  0
LINE
  8
3
 62
7
  6
CONTINUOUS
 10
560.304557678
 20
849.262439265
 11
547.304557678
 21
849.262439265
  0
LINE
  8
3
 62
7
  6
CONTINUOUS
 10
560.304557678
 20
753.262439265
 11
566.304557678
 21
753.762439265
  0
LINE
  8
3
 62
7
  6
CONTINUOUS
 10
525.304557678
 20
850.262439265
 11
519.304557678
 21
854.762439265
  0
LINE
  8
3
 62
7
  6
CONTINUOUS
 10
519.304557678
 20
747.762439265
 11
525.304557678
 21
752.262439265
  0
ARC
  8
4
 62
7
  6
CONTINUOUS
 10
452.104557678
 20
683.762439265
 40
2.500000000
 50
180.000000000
 51
0.000000000
  0
ARC
  8
4
 62
7
  6
CONTINUOUS
 10
452.104557678
 20
695.762439265
 40
2.500000000
 50
0.000000000
 51
180.000000000
  0
LINE
  8
4
 62
7
  6
CONTINUOUS
 10
449.604557678
 20
683.762439265
 11
449.604557678
 21
695.762439265
  0
LINE
  8
4
 62
7
  6
CONTINUOUS
 10
454.604557678
 20
683.762439265
 11
454.604557678
 21
695.762439265
  0
ARC
  8
4
 62
7
  6
CONTINUOUS
 10
452.104557678
 20
918.762439265
 40
2.500000000
 50
0.000000000
 51
180.000000000
  0
LINE
  8
4
 62
7
  6
CONTINUOUS
 10
449.604557678
 20
918.762439265
 11
449.604557678
 21
906.762439265
  0
ARC
  8
4
 62
7
  6
CONTINUOUS
 10
452.104557678
 20
906.762439265
 40
2.500000000
 50
180.000000000
 51
0.000000000
  0
LINE
  8
4
 62
7
  6
CONTINUOUS
 10
454.604557678
 20
918.762439265
 11
454.604557678
 21
906.762439265
  0
ARC
  8
4
 62
7
  6
CONTINUOUS
 10
292.104557678
 20
918.762439265
 40
2.500000000
 50
0.000000000
 51
180.000000000
  0
ARC
  8
4
 62
7
  6
CONTINUOUS
 10
292.104557678
 20
906.762439265
 40
2.500000000
 50
180.000000000
 51
0.000000000
  0
LINE
  8
4
 62
7
  6
CONTINUOUS
 10
289.604557678
 20
918.762439265
 11
289.604557678
 21
906.762439265
  0
LINE
  8
4
 62
7
  6
CONTINUOUS
 10
294.604557678
 20
918.762439265
 11
294.604557678
 21
906.762439265
  0
LINE
  8
4
 62
7
  6
CONTINUOUS
 10
129.604557678
 20
918.762439265
 11
129.604557678
 21
906.762439265
  0
LINE
  8
4
 62
7
  6
CONTINUOUS
 10
134.604557678
 20
918.762439265
 11
134.604557678
 21
906.762439265
  0
ARC
  8
4
 62
7
  6
CONTINUOUS
 10
132.104557678
 20
906.762439265
 40
2.500000000
 50
180.000000000
 51
0.000000000
  0
ARC
  8
4
 62
7
  6
CONTINUOUS
 10
132.104557678
 20
918.762439265
 40
2.500000000
 50
0.000000000
 51
180.000000000
  0
LINE
  8
4
 62
7
  6
CONTINUOUS
 10
64.604557678
 20
803.762439265
 11
76.604557678
 21
803.762439265
  0
LINE
  8
4
 62
7
  6
CONTINUOUS
 10
64.604557678
 20
798.762439265
 11
76.604557678
 21
798.762439265
  0
ARC
  8
4
 62
7
  6
CONTINUOUS
 10
76.604557678
 20
801.262439265
 40
2.500000000
 50
270.000000000
 51
90.000000000
  0
ARC
  8
4
 62
7
  6
CONTINUOUS
 10
64.604557678
 20
801.262439265
 40
2.500000000
 50
90.000000000
 51
270.000000000
  0
ARC
  8
4
 62
7
  6
CONTINUOUS
 10
132.104557678
 20
683.762439265
 40
2.500000000
 50
180.000000000
 51
0.000000000
  0
ARC
  8
4
 62
7
  6
CONTINUOUS
 10
132.104557678
 20
695.762439265
 40
2.500000000
 50
0.000000000
 51
180.000000000
  0
LINE
  8
4
 62
7
  6
CONTINUOUS
 10
134.604557678
 20
683.762439265
 11
134.604557678
 21
695.762439265
  0
LINE
  8
4
 62
7
  6
CONTINUOUS
 10
129.604557678
 20
683.762439265
 11
129.604557678
 21
695.762439265
  0
LINE
  8
4
 62
7
  6
CONTINUOUS
 10
294.604557678
 20
683.762439265
 11
294.604557678
 21
695.762439265
  0
LINE
  8
4
 62
7
  6
CONTINUOUS
 10
289.604557678
 20
683.762439265
 11
289.604557678
 21
695.762439265
  0
ARC
  8
4
 62
7
  6
CONTINUOUS
 10
292.104557678
 20
695.762439265
 40
2.500000000
 50
0.000000000
 51
180.000000000
  0
ARC
  8
4
 62
7
  6
CONTINUOUS
 10
292.104557678
 20
683.762439265
 40
2.500000000
 50
180.000000000
 51
0.000000000
  0
ARC
  8
1
 62
7
  6
CONTINUOUS
 10
84.104557678
 20
703.262439265
 40
32.000000000
 50
181.753815483
 51
268.347351721
  0
ARC
  8
4
 62
7
  6
CONTINUOUS
 10
84.604557678
 20
703.762439265
 40
25.000000000
 50
180.000000000
 51
270.000000000
  0
LINE
  8
3
 62
2
  6
CENTER2
 10
139.049890049
 20
911.262439265
 11
123.725301202
 21
911.262439265
  0
LINE
  8
3
 62
2
  6
CENTER2
 10
524.604557678
 20
826.262439265
 11
502.578884632
 21
826.262439265
  0
LINE
  8
4
 62
1
  6
HIDDEN2
 10
519.604557678
 20
828.762439265
 11
507.604557678
 21
828.762439265
  0
LINE
  8
4
 62
1
  6
HIDDEN2
 10
519.604557678
 20
823.762439265
 11
507.604557678
 21
823.762439265
  0
ARC
  8
4
 62
1
  6
HIDDEN2
 10
507.604557678
 20
826.262439265
 40
2.500000000
 50
90.000000000
 51
270.000000000
  0
ARC
  8
4
 62
1
  6
HIDDEN2
 10
519.604557678
 20
826.262439265
 40
2.500000000
 50
270.000000000
 51
90.000000000
  0
ARC
  8
4
 62
7
  6
CONTINUOUS
 10
499.604557678
 20
898.762439265
 40
25.000000000
 50
0.000000000
 51
90.000000000
  0
ARC
  8
4
 62
7
  6
CONTINUOUS
 10
499.604557678
 20
703.762439265
 40
25.000000000
 50
270.000000000
 51
0.000000000
  0
CIRCLE
  8
4
 62
1
  6
HIDDEN2
 10
512.104557678
 20
801.262439265
 40
6.000000000
  0
ARC
  8
1
 62
7
  6
CONTINUOUS
 10
500.104557678
 20
703.262439265
 40
32.000000000
 50
271.652648279
 51
358.246184517
  0
LINE
  8
3
 62
2
  6
CENTER2
 10
512.104557678
 20
833.601438764
 11
512.104557678
 21
819.201438764
  0
LINE
  8
4
 62
7
  6
CONTINUOUS
 10
499.604557678
 20
923.762439265
 11
84.604557678
 21
923.762439265
  0
LINE
  8
3
 62
2
  6
CENTER2
 10
299.993479351
 20
911.262439265
 11
284.668890503
 21
911.262439265
  0
LINE
  8
4
 62
7
  6
CONTINUOUS
 10
499.604557678
 20
678.762439265
 11
84.604557678
 21
678.762439265
  0
LINE
  8
4
 62
7
  6
CONTINUOUS
 10
59.604557678
 20
703.762439265
 11
59.604557678
 21
898.762439265
  0
LINE
  8
3
 62
2
  6
CENTER2
 10
132.104557678
 20
902.079619265
 11
132.104557678
 21
922.520121265
  0
LINE
  8
3
 62
2
  6
CENTER2
 10
72.104557678
 20
810.952324172
 11
72.104557678
 21
790.511822172
  0
LINE
  8
4
 62
7
  6
CONTINUOUS
 10
524.604557678
 20
703.762439265
 11
524.604557678
 21
751.737439265
  0
LINE
  8
4
 62
1
  6
HIDDEN2
 10
525.104557678
 20
706.262439265
 11
524.604557678
 21
706.262439265
  0
LINE
  8
4
 62
7
  6
CONTINUOUS
 10
292.104557678
 20
703.762439265
 11
84.604557678
 21
703.762439265
  0
LINE
  8
4
 62
7
  6
CONTINUOUS
 10
84.604557678
 20
703.762439265
 11
84.604557678
 21
898.762439265
  0
LINE
  8
4
 62
7
  6
CONTINUOUS
 10
84.604557678
 20
898.762439265
 11
292.104557678
 21
898.762439265
  0
LINE
  8
3
 62
2
  6
CENTER2
 10
299.993479351
 20
691.262439265
 11
284.668890503
 21
691.262439265
  0
LINE
  8
3
 62
2
  6
CENTER2
 10
139.049890049
 20
691.262439265
 11
123.725301202
 21
691.262439265
  0
LINE
  8
4
 62
7
  6
CONTINUOUS
 10
499.604557678
 20
898.762439265
 11
292.104557678
 21
898.762439265
  0
LINE
  8
4
 62
7
  6
CONTINUOUS
 10
499.604557678
 20
703.762439265
 11
499.604557678
 21
898.762439265
  0
LINE
  8
4
 62
7
  6
CONTINUOUS
 10
292.104557678
 20
703.762439265
 11
499.604557678
 21
703.762439265
  0
LINE
  8
3
 62
2
  6
CENTER2
 10
504.904557678
 20
801.262439265
 11
519.304557678
 21
801.262439265
  0
LINE
  8
3
 62
2
  6
CENTER2
 10
512.104557678
 20
808.462439265
 11
512.104557678
 21
794.062439265
  0
LINE
  8
3
 62
2
  6
CENTER2
 10
132.104557678
 20
700.445259265
 11
132.104557678
 21
680.004757265
  0
LINE
  8
3
 62
2
  6
CENTER2
 10
459.881819427
 20
911.262439265
 11
444.557230579
 21
911.262439265
  0
LINE
  8
3
 62
2
  6
CENTER2
 10
452.104557678
 20
902.151441496
 11
452.104557678
 21
922.885368740
  0
LINE
  8
3
 62
2
  6
CENTER2
 10
292.104557678
 20
943.718689449
 11
292.104557678
 21
650.369929547
  0
LINE
  8
3
 62
2
  6
CENTER2
 10
452.104557678
 20
700.373437035
 11
452.104557678
 21
679.639509791
  0
LINE
  8
3
 62
2
  6
CENTER2
 10
459.881819427
 20
691.262439265
 11
444.557230579
 21
691.262439265
  0
LINE
  8
3
 62
2
  6
CENTER2
 10
572.841213964
 20
801.262439265
 11
28.305973148
 21
801.262439265
  0
ARC
  8
1
 62
7
  6
CONTINUOUS
 10
292.104557678
 20
7912.429105932
 40
7244.166666667
 50
268.347351721
 51
271.652648279
  0
ARC
  8
1
 62
7
  6
CONTINUOUS
 10
-2700.478775655
 20
801.262439265
 40
3234.083333334
 50
358.246184517
 51
359.131871281
  0
LINE
  8
4
 62
7
  6
CONTINUOUS
 10
524.604557678
 20
850.787439265
 11
524.604557678
 21
898.762439265
  0
ARC
  8
4
 62
7
  6
CONTINUOUS
 10
84.604557678
 20
898.762439265
 40
25.000000000
 50
90.000000000
 51
180.000000000
  0
ARC
  8
1
 62
7
  6
CONTINUOUS
 10
84.104557678
 20
899.262439265
 40
32.000000000
 50
91.652648279
 51
178.246184517
  0
ARC
  8
1
 62
7
  6
CONTINUOUS
 10
500.104557678
 20
899.262439265
 40
32.000000000
 50
1.753815483
 51
88.347351721
  0
ARC
  8
1
 62
7
  6
CONTINUOUS
 10
292.104557678
 20
-6309.904227401
 40
7244.166666667
 50
88.347351721
 51
91.652648279
  0
ARC
  8
1
 62
7
  6
CONTINUOUS
 10
-2700.478775655
 20
801.262439265
 40
3234.083333334
 50
0.868128719
 51
1.753815483
  0
ARC
  8
1
 62
7
  6
CONTINUOUS
 10
3284.687891012
 20
801.262439265
 40
3234.083333334
 50
178.246184517
 51
181.753815483
  0
ENDSEC
  0
EOF
