  0
SECTION
  2
HEADER
  9
$ACADVER
  1
AC1009
  9
$DWGCODEPAGE
  3
dos932
  9
$INSBASE
 10
0.0
 20
0.0
 30
0.0
  9
$EXTMIN
 10
-177.7960220020827
 20
-102.6647079816284
 30
0.0
  9
$EXTMAX
 10
178.5025001404745
 20
122.5973680673859
 30
0.0
  9
$LIMMIN
 10
0.0
 20
0.0
  9
$LIMMAX
 10
420.0
 20
297.0
  9
$ORTHOMODE
 70
     0
  9
$REGENMODE
 70
     1
  9
$FILLMODE
 70
     1
  9
$QTEXTMODE
 70
     0
  9
$MIRRTEXT
 70
     1
  9
$DRAGMODE
 70
     2
  9
$LTSCALE
 40
1.0
  9
$OSMODE
 70
    37
  9
$ATTMODE
 70
     1
  9
$TEXTSIZE
 40
0.2
  9
$TRACEWID
 40
0.05
  9
$TEXTSTYLE
  7
STANDARD
  9
$CLAYER
  8
0
  9
$CELTYPE
  6
BYLAYER
  9
$CECOLOR
 62
   256
  9
$DIMSCALE
 40
1.0
  9
$DIMASZ
 40
0.18
  9
$DIMEXO
 40
0.0625
  9
$DIMDLI
 40
0.38
  9
$DIMRND
 40
0.0
  9
$DIMDLE
 40
0.0
  9
$DIMEXE
 40
0.18
  9
$DIMTP
 40
0.0
  9
$DIMTM
 40
0.0
  9
$DIMTXT
 40
0.18
  9
$DIMCEN
 40
0.09
  9
$DIMTSZ
 40
0.0
  9
$DIMTOL
 70
     0
  9
$DIMLIM
 70
     0
  9
$DIMTIH
 70
     1
  9
$DIMTOH
 70
     1
  9
$DIMSE1
 70
     0
  9
$DIMSE2
 70
     0
  9
$DIMTAD
 70
     0
  9
$DIMZIN
 70
     0
  9
$DIMBLK
  1

  9
$DIMASO
 70
     1
  9
$DIMSHO
 70
     1
  9
$DIMPOST
  1

  9
$DIMAPOST
  1

  9
$DIMALT
 70
     0
  9
$DIMALTD
 70
     3
  9
$DIMALTF
 40
0.0393700787401575
  9
$DIMLFAC
 40
1.0
  9
$DIMTOFL
 70
     0
  9
$DIMTVP
 40
0.0
  9
$DIMTIX
 70
     0
  9
$DIMSOXD
 70
     0
  9
$DIMSAH
 70
     0
  9
$DIMBLK1
  1

  9
$DIMBLK2
  1

  9
$DIMSTYLE
  2
STANDARD
  9
$DIMCLRD
 70
     0
  9
$DIMCLRE
 70
     0
  9
$DIMCLRT
 70
     0
  9
$DIMTFAC
 40
1.0
  9
$DIMGAP
 40
0.09
  9
$LUNITS
 70
     2
  9
$LUPREC
 70
     4
  9
$SKETCHINC
 40
0.1
  9
$FILLETRAD
 40
0.5
  9
$AUNITS
 70
     0
  9
$AUPREC
 70
     0
  9
$MENU
  1
.
  9
$ELEVATION
 40
0.0
  9
$PELEVATION
 40
0.0
  9
$THICKNESS
 40
0.0
  9
$LIMCHECK
 70
     0
  9
$CHAMFERA
 40
0.0
  9
$CHAMFERB
 40
0.0
  9
$SKPOLY
 70
     0
  9
$TDCREATE
 40
2459109.404041099
  9
$TDUPDATE
 40
2459109.404042372
  9
$TDINDWG
 40
0.0000000116
  9
$TDUSRTIMER
 40
0.0000000116
  9
$USRTIMER
 70
     1
  9
$ANGBASE
 50
0.0
  9
$ANGDIR
 70
     0
  9
$PDMODE
 70
     0
  9
$PDSIZE
 40
0.0
  9
$PLINEWID
 40
0.0
  9
$COORDS
 70
     1
  9
$SPLFRAME
 70
     0
  9
$SPLINETYPE
 70
     6
  9
$SPLINESEGS
 70
     8
  9
$ATTDIA
 70
     0
  9
$ATTREQ
 70
     1
  9
$HANDLING
 70
     1
  9
$HANDSEED
  5
80A
  9
$SURFTAB1
 70
     6
  9
$SURFTAB2
 70
     6
  9
$SURFTYPE
 70
     6
  9
$SURFU
 70
     6
  9
$SURFV
 70
     6
  9
$UCSNAME
  2

  9
$UCSORG
 10
0.0
 20
0.0
 30
0.0
  9
$UCSXDIR
 10
1.0
 20
0.0
 30
0.0
  9
$UCSYDIR
 10
0.0
 20
1.0
 30
0.0
  9
$PUCSNAME
  2

  9
$PUCSORG
 10
0.0
 20
0.0
 30
0.0
  9
$PUCSXDIR
 10
1.0
 20
0.0
 30
0.0
  9
$PUCSYDIR
 10
0.0
 20
1.0
 30
0.0
  9
$USERI1
 70
     0
  9
$USERI2
 70
     0
  9
$USERI3
 70
     0
  9
$USERI4
 70
     0
  9
$USERI5
 70
     0
  9
$USERR1
 40
0.0
  9
$USERR2
 40
0.0
  9
$USERR3
 40
0.0
  9
$USERR4
 40
0.0
  9
$USERR5
 40
0.0
  9
$WORLDVIEW
 70
     1
  9
$SHADEDGE
 70
     3
  9
$SHADEDIF
 70
    70
  9
$TILEMODE
 70
     1
  9
$MAXACTVP
 70
    64
  9
$PLIMCHECK
 70
     0
  9
$PEXTMIN
 10
1.000000000000000E+20
 20
1.000000000000000E+20
 30
1.000000000000000E+20
  9
$PEXTMAX
 10
-1.000000000000000E+20
 20
-1.000000000000000E+20
 30
-1.000000000000000E+20
  9
$PLIMMIN
 10
0.0
 20
0.0
  9
$PLIMMAX
 10
12.0
 20
9.0
  9
$UNITMODE
 70
     0
  9
$VISRETAIN
 70
     1
  9
$PLINEGEN
 70
     0
  9
$PSLTSCALE
 70
     1
  0
ENDSEC
  0
SECTION
  2
TABLES
  0
TABLE
  2
VPORT
 70
     1
  0
VPORT
  2
*ACTIVE
 70
     0
 10
0.0
 20
0.0
 11
1.0
 21
1.0
 12
10.42990654205607
 22
4.5
 13
0.0
 23
0.0
 14
0.5
 24
0.5
 15
0.5
 25
0.5
 16
0.0
 26
0.0
 36
1.0
 17
0.0
 27
0.0
 37
0.0
 40
9.0
 41
1.972972972850329
 42
50.0
 43
0.0
 44
0.0
 50
0.0
 51
0.0
 71
     0
 72
   100
 73
     1
 74
     3
 75
     0
 76
     0
 77
     0
 78
     0
  0
ENDTAB
  0
TABLE
  2
LTYPE
 70
    25
  0
LTYPE
  2
CONTINUOUS
 70
     0
  3
Solid line
 72
    65
 73
     0
 40
0.0
  0
LTYPE
  2
BORDER
 70
     0
  3
__ __ . __ __ . __ __ . __ __ . __ __ . __ __ .
 72
    65
 73
     6
 40
8.75
 49
2.5
 49
-1.25
 49
2.5
 49
-1.25
 49
0.0
 49
-1.25
  0
LTYPE
  2
CENTER
 70
     0
  3
____ _ ____ _ ____ _ ____ _ ____ _ ____ _ ____ 
 72
    65
 73
     4
 40
10.0
 49
6.25
 49
-1.25
 49
1.25
 49
-1.25
  0
LTYPE
  2
DASHDOT
 70
     0
  3
__ . __ . __ . __ . __ . __ . __ . __ . __ . __
 72
    65
 73
     4
 40
5.0
 49
2.5
 49
-1.25
 49
0.0
 49
-1.25
  0
LTYPE
  2
DASHED
 70
     0
  3
__ __ __ __ __ __ __ __ __ __ __ __ __ __ __ __
 72
    65
 73
     2
 40
3.75
 49
2.5
 49
-1.25
  0
LTYPE
  2
DIVIDE
 70
     0
  3
____ . . ____ . . ____ . . ____ . . ____ . . __
 72
    65
 73
     6
 40
6.25
 49
2.5
 49
-1.25
 49
0.0
 49
-1.25
 49
0.0
 49
-1.25
  0
LTYPE
  2
DOT
 70
     0
  3
. . . . . . . . . . . . . . . . . . . . . . . .
 72
    65
 73
     2
 40
1.25
 49
0.0
 49
-1.25
  0
LTYPE
  2
HIDDEN
 70
     0
  3
__ __ __ __ __ __ __ __ __ __ __ __ __ __ __ __
 72
    65
 73
     2
 40
1.875
 49
1.25
 49
-0.625
  0
LTYPE
  2
PHANTOM
 70
     0
  3
______  __  __  ______  __  __  ______  __  __ 
 72
    65
 73
     6
 40
12.5
 49
6.25
 49
-1.25
 49
1.25
 49
-1.25
 49
1.25
 49
-1.25
  0
LTYPE
  2
BORDER2
 70
     0
  3
__.__.__.__.__.__.__.__.__.__.__.__.__.__.__.__
 72
    65
 73
     2
 40
2.5
 49
2.5
 49
0.0
  0
LTYPE
  2
BORDERX2
 70
     0
  3
____ ____ . ____ ____ . ____ ____ . ____ ____ .
 72
    65
 73
     6
 40
13.75
 49
5.0
 49
-1.25
 49
5.0
 49
-1.25
 49
0.0
 49
-1.25
  0
LTYPE
  2
CENTER2
 70
     0
  3
___ _ ___ _ ___ _ ___ _ ___ _ ___ _ ___ _ ___ _
 72
    65
 73
     4
 40
8.4
 49
4.65
 49
-1.25
 49
1.25
 49
-1.25
  0
LTYPE
  2
CENTERX2
 70
     0
  3
_________ _ _________ _ _________ _ _________ _
 72
    65
 73
     4
 40
16.8
 49
13.05
 49
-1.25
 49
1.25
 49
-1.25
  0
LTYPE
  2
DASHDOT2
 70
     0
  3
_ . _ . _ . _ . _ . _ . _ . _ . _ . _ . _ . _ .
 72
    65
 73
     4
 40
3.75
 49
1.25
 49
-1.25
 49
0.0
 49
-1.25
  0
LTYPE
  2
DASHDOTX2
 70
     0
  3
________ . ________ . ________ . ________ . ___
 72
    65
 73
     4
 40
12.5
 49
10.0
 49
-1.25
 49
0.0
 49
-1.25
  0
LTYPE
  2
DASHED2
 70
     0
  3
_ _ _ _ _ _ _ _ _ _ _ _ _ _ _ _ _ _ _ _ _ _ _ _
 72
    65
 73
     2
 40
2.5
 49
1.25
 49
-1.25
  0
LTYPE
  2
DASHEDX2
 70
     0
  3
____ ____ ____ ____ ____ ____ ____ ____ ____ __
 72
    65
 73
     4
 40
2.5
 49
10.0
 49
-1.25
 49
0.0
 49
-1.25
  0
LTYPE
  2
DIVIDE2
 70
     0
  3
_ _ . . _ _ . . _ _ . . _ _ . . _ _ . . _ _ . .
 72
    65
 73
     8
 40
7.5
 49
1.25
 49
-1.25
 49
1.25
 49
-1.25
 49
0.0
 49
-1.25
 49
0.0
 49
-1.25
  0
LTYPE
  2
DIVIDEX2
 70
     0
  3
________________ . . ________________ . . _____
 72
    65
 73
     7
 40
13.75
 49
0.625
 49
10.0
 49
-1.25
 49
0.0
 49
-1.25
 49
0.0
 49
-1.25
  0
LTYPE
  2
DOT2
 70
     0
  3
...............................................
 72
    65
 73
     2
 40
0.625
 49
0.0
 49
-0.625
  0
LTYPE
  2
DOTX2
 70
     0
  3
.  .  .  .  .  .  .  .  .  .  .  .  .  .  .  . 
 72
    65
 73
     2
 40
2.5
 49
0.0
 49
-2.5
  0
LTYPE
  2
HIDDEN2
 70
     0
  3
_ _ _ _ _ _ _ _ _ _ _ _ _ _ _ _ _ _ _ _ _ _ _ _
 72
    65
 73
     2
 40
1.25
 49
0.625
 49
-0.625
  0
LTYPE
  2
HIDDENX2
 70
     0
  3
____ ____ ____ ____ ____ ____ ____ ____ ____ __
 72
    65
 73
     2
 40
3.125
 49
2.5
 49
-0.625
  0
LTYPE
  2
PHANTOM2
 70
     0
  3
___  __  __  ___  __  __  ___  __  __ ___  __  
 72
    65
 73
     6
 40
9.375
 49
3.125
 49
-1.25
 49
1.25
 49
-1.25
 49
1.25
 49
-1.25
  0
LTYPE
  2
PHANTOMX2
 70
     0
  3
____________  __  __  ____________  __  __  ___
 72
    65
 73
     6
 40
18.75
 49
12.5
 49
-1.25
 49
1.25
 49
-1.25
 49
1.25
 49
-1.25
  0
ENDTAB
  0
TABLE
  2
LAYER
 70
     4
  0
LAYER
  2
0
 70
     0
 62
     7
  6
CONTINUOUS
  0
LAYER
  2
ガラリ
 70
     0
 62
     7
  6
CONTINUOUS
  0
LAYER
  2
寸法線
 70
     0
 62
     7
  6
CONTINUOUS
  0
LAYER
  2
新図面
 70
     0
 62
     7
  6
CONTINUOUS
  0
ENDTAB
  0
TABLE
  2
STYLE
 70
     2
  0
STYLE
  2
STANDARD
 70
     0
 40
0.0
 41
1.0
 50
0.0
 71
     0
 42
0.2
  3
txt
  4

  0
STYLE
  2
EXCESS_STANDARD
 70
     0
 40
0.2
 41
1.0
 50
0.0
 71
     0
 42
0.2
  3
txt
  4
BIGFONT
  0
ENDTAB
  0
TABLE
  2
VIEW
 70
     0
  0
ENDTAB
  0
TABLE
  2
UCS
 70
     0
  0
ENDTAB
  0
TABLE
  2
APPID
 70
     1
  0
APPID
  2
ACAD
 70
     0
  0
ENDTAB
  0
TABLE
  2
DIMSTYLE
 70
     2
  0
DIMSTYLE
  2
STANDARD
 70
     0
  3

  4

  5

  6

  7

 40
1.0
 41
0.18
 42
0.0625
 43
0.38
 44
0.18
 45
0.0
 46
0.0
 47
0.0
 48
0.0
140
0.18
141
0.09
142
0.0
143
25.4
144
1.0
145
0.0
146
1.0
147
0.09
 71
     0
 72
     0
 73
     1
 74
     1
 75
     0
 76
     0
 77
     0
 78
     0
170
     0
171
     2
172
     0
173
     0
174
     0
175
     0
176
     0
177
     0
178
     0
  0
DIMSTYLE
  2
ISO-25
 70
     0
  3

  4

  5

  6

  7

 40
1.0
 41
3.5
 42
0.3
 43
9.0
 44
0.18
 45
0.0
 46
0.0
 47
0.0
 48
0.0
140
5.0
141
0.09
142
0.0
143
25.4
144
1.0
145
0.0
146
0.5
147
0.5
 71
     0
 72
     0
 73
     1
 74
     1
 75
     0
 76
     0
 77
     1
 78
     0
170
     0
171
     2
172
     0
173
     0
174
     0
175
     0
176
     0
177
     0
178
     0
  0
ENDTAB
  0
ENDSEC
  0
SECTION
  2
BLOCKS
  0
BLOCK
  8
0
  2
$MODEL_SPACE
 70
     0
 10
0.0
 20
0.0
 30
0.0
  3
$MODEL_SPACE
  1

  0
ENDBLK
  5
21
  8
0
  0
BLOCK
 67
     1
  8
0
  2
$PAPER_SPACE
 70
     0
 10
0.0
 20
0.0
 30
0.0
  3
$PAPER_SPACE
  1

  0
ENDBLK
  5
1D
 67
     1
  8
0
  0
BLOCK
  8
0
  2
0-NONE
 70
     0
 10
0.0
 20
0.0
 30
0.0
  3
0-NONE
  1

  0
POLYLINE
  5
8B
  8
ガラリ
  6
DASHDOT
 62
     7
 66
     1
 10
0.0
 20
0.0
 30
0.0
  0
VERTEX
  5
8C
  8
ガラリ
  6
DASHDOT
 62
     7
 10
84.53200862750877
 20
-21.65432117462403
 30
0.0
  0
VERTEX
  5
8D
  8
ガラリ
  6
DASHDOT
 62
     7
 10
76.33268137261406
 20
-24.63915190304444
 30
0.0
  0
VERTEX
  5
8E
  8
ガラリ
  6
DASHDOT
 62
     7
 10
76.49770144635757
 20
-25.09424901664595
 30
0.0
  0
VERTEX
  5
8F
  8
ガラリ
  6
DASHDOT
 62
     7
 10
84.61572419771888
 20
-22.14042478931914
 30
0.0
 42
0.0792906384593337
  0
VERTEX
  5
90
  8
ガラリ
  6
DASHDOT
 62
     7
 10
84.75891155145051
 20
-22.09404478138389
 30
0.0
 42
0.0804544179878652
  0
VERTEX
  5
91
  8
ガラリ
  6
DASHDOT
 62
     7
 10
84.87858519771886
 20
-22.00641078931913
 30
0.0
 42
0.0490964232035211
  0
VERTEX
  5
92
  8
ガラリ
  6
DASHDOT
 62
     7
 10
84.93930510244145
 20
-21.93243252971801
 30
0.0
 42
0.0496102241336469
  0
VERTEX
  5
93
  8
ガラリ
  6
DASHDOT
 62
     7
 10
84.98391819771886
 20
-21.84879778931914
 30
0.0
 42
0.049325548202953
  0
VERTEX
  5
94
  8
ガラリ
  6
DASHDOT
 62
     7
 10
85.01120320128824
 20
-21.75813647082738
 30
0.0
 42
0.0484791548194282
  0
VERTEX
  5
95
  8
ガラリ
  6
DASHDOT
 62
     7
 10
85.02052316731717
 20
-21.66224489424003
 30
0.0
  0
VERTEX
  5
96
  8
ガラリ
  6
DASHDOT
 62
     7
 10
85.02052316731717
 20
-20.69417306288484
 30
0.0
  0
VERTEX
  5
97
  8
ガラリ
  6
DASHDOT
 62
     7
 10
84.53579823254246
 20
-20.69417306288484
 30
0.0
  0
VERTEX
  5
98
  8
ガラリ
  6
DASHDOT
 62
     7
 10
84.53579823254246
 20
-21.66224489424003
 30
0.0
  0
VERTEX
  5
99
  8
ガラリ
  6
DASHDOT
 62
     7
 10
84.53200862750877
 20
-21.65432117462403
 30
0.0
  0
SEQEND
  5
9A
  8
ガラリ
  6
DASHDOT
 62
     7
  0
POLYLINE
  5
9B
  8
ガラリ
  6
DASHDOT
 62
     7
 66
     1
 10
0.0
 20
0.0
 30
0.0
  0
VERTEX
  5
9C
  8
ガラリ
  6
DASHDOT
 62
     7
 10
84.53200862750877
 20
-21.65432117462403
 30
0.0
  0
VERTEX
  5
9D
  8
ガラリ
  6
DASHDOT
 62
     7
 10
76.33268137261406
 20
-24.63915190304444
 30
0.0
  0
VERTEX
  5
9E
  8
ガラリ
  6
DASHDOT
 62
     7
 10
76.49770144635757
 20
-25.09424901664595
 30
0.0
  0
VERTEX
  5
9F
  8
ガラリ
  6
DASHDOT
 62
     7
 10
84.61572444780028
 20
-22.14042414759273
 30
0.0
  0
VERTEX
  5
A0
  8
ガラリ
  6
DASHDOT
 62
     7
 10
84.65293147904096
 20
-22.13387846617074
 30
0.0
  0
VERTEX
  5
A1
  8
ガラリ
  6
DASHDOT
 62
     7
 10
84.68772694344206
 20
-22.12354317971504
 30
0.0
  0
VERTEX
  5
A2
  8
ガラリ
  6
DASHDOT
 62
     7
 10
84.72390044603718
 20
-22.11079632641965
 30
0.0
  0
VERTEX
  5
A3
  8
ガラリ
  6
DASHDOT
 62
     7
 10
84.75731787224406
 20
-22.09391535854185
 30
0.0
  0
VERTEX
  5
A4
  8
ガラリ
  6
DASHDOT
 62
     7
 10
84.78832373161138
 20
-22.07600086201855
 30
0.0
  0
VERTEX
  5
A5
  8
ガラリ
  6
DASHDOT
 62
     7
 10
84.82311919601237
 20
-22.05533028910703
 30
0.0
  0
VERTEX
  5
A6
  8
ガラリ
  6
DASHDOT
 62
     7
 10
84.85033545034578
 20
-22.03190363980734
 30
0.0
  0
VERTEX
  5
A7
  8
ガラリ
  6
DASHDOT
 62
     7
 10
84.87858523332487
 20
-22.00640993321655
 30
0.0
  0
VERTEX
  5
A8
  8
ガラリ
  6
DASHDOT
 62
     7
 10
84.90959109269208
 20
-21.97023643062143
 30
0.0
  0
VERTEX
  5
A9
  8
ガラリ
  6
DASHDOT
 62
     7
 10
84.93921891386528
 20
-21.93268488983215
 30
0.0
  0
VERTEX
  5
AA
  8
ガラリ
  6
DASHDOT
 62
     7
 10
84.96367909181056
 20
-21.89031021536364
 30
0.0
  0
VERTEX
  5
AB
  8
ガラリ
  6
DASHDOT
 62
     7
 10
84.98434966472207
 20
-21.84793554089502
 30
0.0
  0
VERTEX
  5
AC
  8
ガラリ
  6
DASHDOT
 62
     7
 10
84.99985259440568
 20
-21.80383831868384
 30
0.0
  0
VERTEX
  5
AD
  8
ガラリ
  6
DASHDOT
 62
     7
 10
85.01122140950697
 20
-21.75767403918142
 30
0.0
  0
VERTEX
  5
AE
  8
ガラリ
  6
DASHDOT
 62
     7
 10
85.01776709092898
 20
-21.71116525013063
 30
0.0
  0
VERTEX
  5
AF
  8
ガラリ
  6
DASHDOT
 62
     7
 10
85.02052316731717
 20
-21.66224489424003
 30
0.0
  0
VERTEX
  5
B0
  8
ガラリ
  6
DASHDOT
 62
     7
 10
85.02052316731717
 20
-20.69417306288484
 30
0.0
  0
VERTEX
  5
B1
  8
ガラリ
  6
DASHDOT
 62
     7
 10
84.53579823254246
 20
-20.69417306288484
 30
0.0
  0
VERTEX
  5
B2
  8
ガラリ
  6
DASHDOT
 62
     7
 10
84.53579823254246
 20
-21.66224489424003
 30
0.0
  0
VERTEX
  5
B3
  8
ガラリ
  6
DASHDOT
 62
     7
 10
84.53200862750877
 20
-21.65432117462403
 30
0.0
  0
SEQEND
  5
B4
  8
ガラリ
  6
DASHDOT
 62
     7
  0
POLYLINE
  5
B5
  8
ガラリ
  6
DASHDOT
 62
     7
 66
     1
 10
0.0
 20
0.0
 30
0.0
  0
VERTEX
  5
B6
  8
ガラリ
  6
DASHDOT
 62
     7
 10
84.53200862750877
 20
-8.08064496273964
 30
0.0
  0
VERTEX
  5
B7
  8
ガラリ
  6
DASHDOT
 62
     7
 10
76.33268137261406
 20
-11.06444216251454
 30
0.0
  0
VERTEX
  5
B8
  8
ガラリ
  6
DASHDOT
 62
     7
 10
76.49770144635757
 20
-11.52057280476153
 30
0.0
  0
VERTEX
  5
B9
  8
ガラリ
  6
DASHDOT
 62
     7
 10
84.61572419771888
 20
-8.566748789319135
 30
0.0
 42
0.0803220116090767
  0
VERTEX
  5
BA
  8
ガラリ
  6
DASHDOT
 62
     7
 10
84.75559028631527
 20
-8.521127605309303
 30
0.0
 42
0.0776074992071657
  0
VERTEX
  5
BB
  8
ガラリ
  6
DASHDOT
 62
     7
 10
84.87858519771886
 20
-8.431355789319142
 30
0.0
 42
0.050634638929839
  0
VERTEX
  5
BC
  8
ガラリ
  6
DASHDOT
 62
     7
 10
84.93900550270565
 20
-8.358415364020928
 30
0.0
 42
0.0502300826652106
  0
VERTEX
  5
BD
  8
ガラリ
  6
DASHDOT
 62
     7
 10
84.98391819771886
 20
-8.274259789319146
 30
0.0
 42
0.0491927659596401
  0
VERTEX
  5
BE
  8
ガラリ
  6
DASHDOT
 62
     7
 10
85.01120204131924
 20
-8.183347673560732
 30
0.0
 42
0.0483520275067978
  0
VERTEX
  5
BF
  8
ガラリ
  6
DASHDOT
 62
     7
 10
85.02052316731717
 20
-8.087190644161623
 30
0.0
  0
VERTEX
  5
C0
  8
ガラリ
  6
DASHDOT
 62
     7
 10
85.02052316731717
 20
-7.116707245966737
 30
0.0
  0
VERTEX
  5
C1
  8
ガラリ
  6
DASHDOT
 62
     7
 10
84.53579823254246
 20
-7.116707245966737
 30
0.0
  0
VERTEX
  5
C2
  8
ガラリ
  6
DASHDOT
 62
     7
 10
84.53579823254246
 20
-8.087190644161623
 30
0.0
  0
VERTEX
  5
C3
  8
ガラリ
  6
DASHDOT
 62
     7
 10
84.53200862750877
 20
-8.08064496273964
 30
0.0
  0
SEQEND
  5
C4
  8
ガラリ
  6
DASHDOT
 62
     7
  0
POLYLINE
  5
C5
  8
ガラリ
  6
DASHDOT
 62
     7
 66
     1
 10
0.0
 20
0.0
 30
0.0
  0
VERTEX
  5
C6
  8
ガラリ
  6
DASHDOT
 62
     7
 10
84.53200862750877
 20
-8.08064496273964
 30
0.0
  0
VERTEX
  5
C7
  8
ガラリ
  6
DASHDOT
 62
     7
 10
76.33268137261406
 20
-11.06444216251454
 30
0.0
  0
VERTEX
  5
C8
  8
ガラリ
  6
DASHDOT
 62
     7
 10
76.49770144635757
 20
-11.52057280476153
 30
0.0
  0
VERTEX
  5
C9
  8
ガラリ
  6
DASHDOT
 62
     7
 10
84.61572444780028
 20
-8.566747935708449
 30
0.0
  0
VERTEX
  5
CA
  8
ガラリ
  6
DASHDOT
 62
     7
 10
84.65293147904096
 20
-8.55779068744674
 30
0.0
  0
VERTEX
  5
CB
  8
ガラリ
  6
DASHDOT
 62
     7
 10
84.68772694344206
 20
-8.547455400990927
 30
0.0
  0
VERTEX
  5
CC
  8
ガラリ
  6
DASHDOT
 62
     7
 10
84.72390044603718
 20
-8.535742076341123
 30
0.0
  0
VERTEX
  5
CD
  8
ガラリ
  6
DASHDOT
 62
     7
 10
84.75731787224406
 20
-8.520239146657545
 30
0.0
  0
VERTEX
  5
CE
  8
ガラリ
  6
DASHDOT
 62
     7
 10
84.78832373161138
 20
-8.500946611940137
 30
0.0
  0
VERTEX
  5
CF
  8
ガラリ
  6
DASHDOT
 62
     7
 10
84.82311919601237
 20
-8.480276039028624
 30
0.0
  0
VERTEX
  5
D0
  8
ガラリ
  6
DASHDOT
 62
     7
 10
84.85033545034578
 20
-8.457193899277442
 30
0.0
  0
VERTEX
  5
D1
  8
ガラリ
  6
DASHDOT
 62
     7
 10
84.87858523332487
 20
-8.431355683138023
 30
0.0
  0
VERTEX
  5
D2
  8
ガラリ
  6
DASHDOT
 62
     7
 10
84.90959109269208
 20
-8.396560218737037
 30
0.0
  0
VERTEX
  5
D3
  8
ガラリ
  6
DASHDOT
 62
     7
 10
84.93921891386528
 20
-8.357975149302248
 30
0.0
  0
VERTEX
  5
D4
  8
ガラリ
  6
DASHDOT
 62
     7
 10
84.96367909181056
 20
-8.316634003479223
 30
0.0
  0
VERTEX
  5
D5
  8
ガラリ
  6
DASHDOT
 62
     7
 10
84.98434966472207
 20
-8.272881290816528
 30
0.0
  0
VERTEX
  5
D6
  8
ガラリ
  6
DASHDOT
 62
     7
 10
84.99985259440568
 20
-8.229128578153947
 30
0.0
  0
VERTEX
  5
D7
  8
ガラリ
  6
DASHDOT
 62
     7
 10
85.01122140950697
 20
-8.182619789103043
 30
0.0
  0
VERTEX
  5
D8
  8
ガラリ
  6
DASHDOT
 62
     7
 10
85.01776709092898
 20
-8.13611100005214
 30
0.0
  0
VERTEX
  5
D9
  8
ガラリ
  6
DASHDOT
 62
     7
 10
85.02052316731717
 20
-8.087190644161623
 30
0.0
  0
VERTEX
  5
DA
  8
ガラリ
  6
DASHDOT
 62
     7
 10
85.02052316731717
 20
-7.116707245966737
 30
0.0
  0
VERTEX
  5
DB
  8
ガラリ
  6
DASHDOT
 62
     7
 10
84.53579823254246
 20
-7.116707245966737
 30
0.0
  0
VERTEX
  5
DC
  8
ガラリ
  6
DASHDOT
 62
     7
 10
84.53579823254246
 20
-8.087190644161623
 30
0.0
  0
VERTEX
  5
DD
  8
ガラリ
  6
DASHDOT
 62
     7
 10
84.53200862750877
 20
-8.08064496273964
 30
0.0
  0
SEQEND
  5
DE
  8
ガラリ
  6
DASHDOT
 62
     7
  0
POLYLINE
  5
DF
  8
ガラリ
  6
DASHDOT
 62
     7
 66
     1
 10
0.0
 20
0.0
 30
0.0
  0
VERTEX
  5
E0
  8
ガラリ
  6
DASHDOT
 62
     7
 10
84.53200862750877
 20
5.495442815984362
 30
0.0
  0
VERTEX
  5
E1
  8
ガラリ
  6
DASHDOT
 62
     7
 10
76.33268137261406
 20
2.509234049369852
 30
0.0
  0
VERTEX
  5
E2
  8
ガラリ
  6
DASHDOT
 62
     7
 10
76.49770144635757
 20
2.055514973962474
 30
0.0
  0
VERTEX
  5
E3
  8
ガラリ
  6
DASHDOT
 62
     7
 10
84.61572419771888
 20
5.008306210680857
 30
0.0
 42
0.0751688999909928
  0
VERTEX
  5
E4
  8
ガラリ
  6
DASHDOT
 62
     7
 10
84.76070422877255
 20
5.057752814234689
 30
0.0
 42
0.0786299672417149
  0
VERTEX
  5
E5
  8
ガラリ
  6
DASHDOT
 62
     7
 10
84.87858519771886
 20
5.14473121068086
 30
0.0
 42
0.0490063881410016
  0
VERTEX
  5
E6
  8
ガラリ
  6
DASHDOT
 62
     7
 10
84.93928573015496
 20
5.218658783926585
 30
0.0
 42
0.0495048408185329
  0
VERTEX
  5
E7
  8
ガラリ
  6
DASHDOT
 62
     7
 10
84.98391819771886
 20
5.30221521068087
 30
0.0
 42
0.0492820031375244
  0
VERTEX
  5
E8
  8
ガラリ
  6
DASHDOT
 62
     7
 10
85.0112243360176
 20
5.392661898939124
 30
0.0
 42
0.0487190081501186
  0
VERTEX
  5
E9
  8
ガラリ
  6
DASHDOT
 62
     7
 10
85.02052316731717
 20
5.487863605916871
 30
0.0
  0
VERTEX
  5
EA
  8
ガラリ
  6
DASHDOT
 62
     7
 10
85.02052316731717
 20
6.456968965917653
 30
0.0
  0
VERTEX
  5
EB
  8
ガラリ
  6
DASHDOT
 62
     7
 10
84.53579823254246
 20
6.456968965917653
 30
0.0
  0
VERTEX
  5
EC
  8
ガラリ
  6
DASHDOT
 62
     7
 10
84.53579823254246
 20
5.487863605916871
 30
0.0
  0
VERTEX
  5
ED
  8
ガラリ
  6
DASHDOT
 62
     7
 10
84.53200862750877
 20
5.495442815984362
 30
0.0
  0
SEQEND
  5
EE
  8
ガラリ
  6
DASHDOT
 62
     7
  0
POLYLINE
  5
EF
  8
ガラリ
  6
DASHDOT
 62
     7
 66
     1
 10
0.0
 20
0.0
 30
0.0
  0
VERTEX
  5
F0
  8
ガラリ
  6
DASHDOT
 62
     7
 10
84.53200862750877
 20
5.495442815984362
 30
0.0
  0
VERTEX
  5
F1
  8
ガラリ
  6
DASHDOT
 62
     7
 10
76.33268137261406
 20
2.509234049369852
 30
0.0
  0
VERTEX
  5
F2
  8
ガラリ
  6
DASHDOT
 62
     7
 10
76.49770144635757
 20
2.055514973962474
 30
0.0
  0
VERTEX
  5
F3
  8
ガラリ
  6
DASHDOT
 62
     7
 10
84.61572444780028
 20
5.008306314370074
 30
0.0
  0
VERTEX
  5
F4
  8
ガラリ
  6
DASHDOT
 62
     7
 10
84.65293147904096
 20
5.01588552443765
 30
0.0
  0
VERTEX
  5
F5
  8
ガラリ
  6
DASHDOT
 62
     7
 10
84.68772694344206
 20
5.027598849087454
 30
0.0
  0
VERTEX
  5
F6
  8
ガラリ
  6
DASHDOT
 62
     7
 10
84.72390044603718
 20
5.040345702382851
 30
0.0
  0
VERTEX
  5
F7
  8
ガラリ
  6
DASHDOT
 62
     7
 10
84.75731787224406
 20
5.057226670260675
 30
0.0
  0
VERTEX
  5
F8
  8
ガラリ
  6
DASHDOT
 62
     7
 10
84.78832373161138
 20
5.074107638138358
 30
0.0
  0
VERTEX
  5
F9
  8
ガラリ
  6
DASHDOT
 62
     7
 10
84.82311919601237
 20
5.094778211049871
 30
0.0
  0
VERTEX
  5
FA
  8
ガラリ
  6
DASHDOT
 62
     7
 10
84.85033545034578
 20
5.120271917640665
 30
0.0
  0
VERTEX
  5
FB
  8
ガラリ
  6
DASHDOT
 62
     7
 10
84.87858523332487
 20
5.144732095585951
 30
0.0
  0
VERTEX
  5
FC
  8
ガラリ
  6
DASHDOT
 62
     7
 10
84.90959109269208
 20
5.179527559986965
 30
0.0
  0
VERTEX
  5
FD
  8
ガラリ
  6
DASHDOT
 62
     7
 10
84.93921891386528
 20
5.218457138970351
 30
0.0
  0
VERTEX
  5
FE
  8
ガラリ
  6
DASHDOT
 62
     7
 10
84.96367909181056
 20
5.258420246599272
 30
0.0
  0
VERTEX
  5
FF
  8
ガラリ
  6
DASHDOT
 62
     7
 10
84.98434966472207
 20
5.299416882873672
 30
0.0
  0
VERTEX
  5
100
  8
ガラリ
  6
DASHDOT
 62
     7
 10
84.99985259440568
 20
5.345925671924576
 30
0.0
  0
VERTEX
  5
101
  8
ガラリ
  6
DASHDOT
 62
     7
 10
85.01122140950697
 20
5.392434460975451
 30
0.0
  0
VERTEX
  5
102
  8
ガラリ
  6
DASHDOT
 62
     7
 10
85.01776709092898
 20
5.441354816865967
 30
0.0
  0
VERTEX
  5
103
  8
ガラリ
  6
DASHDOT
 62
     7
 10
85.02052316731717
 20
5.487863605916871
 30
0.0
  0
VERTEX
  5
104
  8
ガラリ
  6
DASHDOT
 62
     7
 10
85.02052316731717
 20
6.456968965917653
 30
0.0
  0
VERTEX
  5
105
  8
ガラリ
  6
DASHDOT
 62
     7
 10
84.53579823254246
 20
6.456968965917653
 30
0.0
  0
VERTEX
  5
106
  8
ガラリ
  6
DASHDOT
 62
     7
 10
84.53579823254246
 20
5.487863605916871
 30
0.0
  0
VERTEX
  5
107
  8
ガラリ
  6
DASHDOT
 62
     7
 10
84.53200862750877
 20
5.495442815984362
 30
0.0
  0
SEQEND
  5
108
  8
ガラリ
  6
DASHDOT
 62
     7
  0
POLYLINE
  5
109
  8
ガラリ
  6
DASHDOT
 62
     7
 66
     1
 10
0.0
 20
0.0
 30
0.0
  0
VERTEX
  5
10A
  8
ガラリ
  6
DASHDOT
 62
     7
 10
84.53200862750877
 20
19.07049706606286
 30
0.0
  0
VERTEX
  5
10B
  8
ガラリ
  6
DASHDOT
 62
     7
 10
76.33268137261406
 20
16.08566633764237
 30
0.0
  0
VERTEX
  5
10C
  8
ガラリ
  6
DASHDOT
 62
     7
 10
76.49770144635757
 20
15.62919118584675
 30
0.0
  0
VERTEX
  5
10D
  8
ガラリ
  6
DASHDOT
 62
     7
 10
84.61572419771888
 20
18.58439321068086
 30
0.0
 42
0.0792817265844655
  0
VERTEX
  5
10E
  8
ガラリ
  6
DASHDOT
 62
     7
 10
84.75496084657429
 20
18.62949081554497
 30
0.0
 42
0.0761820354940781
  0
VERTEX
  5
10F
  8
ガラリ
  6
DASHDOT
 62
     7
 10
84.87858519771886
 20
18.71840821068086
 30
0.0
 42
0.0490964232163116
  0
VERTEX
  5
110
  8
ガラリ
  6
DASHDOT
 62
     7
 10
84.9393051024553
 20
18.7923864703027
 30
0.0
 42
0.0496102241210879
  0
VERTEX
  5
111
  8
ガラリ
  6
DASHDOT
 62
     7
 10
84.98391819771886
 20
18.87602121068086
 30
0.0
 42
0.0493255482019104
  0
VERTEX
  5
112
  8
ガラリ
  6
DASHDOT
 62
     7
 10
85.01120320128787
 20
18.96668252917065
 30
0.0
 42
0.0484791548204684
  0
VERTEX
  5
113
  8
ガラリ
  6
DASHDOT
 62
     7
 10
85.02052316731717
 20
19.06257334644677
 30
0.0
  0
VERTEX
  5
114
  8
ガラリ
  6
DASHDOT
 62
     7
 10
85.02052316731717
 20
20.03202321599606
 30
0.0
  0
VERTEX
  5
115
  8
ガラリ
  6
DASHDOT
 62
     7
 10
84.53579823254246
 20
20.03202321599606
 30
0.0
  0
VERTEX
  5
116
  8
ガラリ
  6
DASHDOT
 62
     7
 10
84.53579823254246
 20
19.06257334644677
 30
0.0
  0
VERTEX
  5
117
  8
ガラリ
  6
DASHDOT
 62
     7
 10
84.53200862750877
 20
19.07049706606286
 30
0.0
  0
SEQEND
  5
118
  8
ガラリ
  6
DASHDOT
 62
     7
  0
POLYLINE
  5
119
  8
ガラリ
  6
DASHDOT
 62
     7
 66
     1
 10
0.0
 20
0.0
 30
0.0
  0
VERTEX
  5
11A
  8
ガラリ
  6
DASHDOT
 62
     7
 10
84.53200862750877
 20
19.07049706606286
 30
0.0
  0
VERTEX
  5
11B
  8
ガラリ
  6
DASHDOT
 62
     7
 10
76.33268137261406
 20
16.08566633764237
 30
0.0
  0
VERTEX
  5
11C
  8
ガラリ
  6
DASHDOT
 62
     7
 10
76.49770144635757
 20
15.62919118584675
 30
0.0
  0
VERTEX
  5
11D
  8
ガラリ
  6
DASHDOT
 62
     7
 10
84.61572444780028
 20
18.58439409309408
 30
0.0
  0
VERTEX
  5
11E
  8
ガラリ
  6
DASHDOT
 62
     7
 10
84.65293147904096
 20
18.59093977451606
 30
0.0
  0
VERTEX
  5
11F
  8
ガラリ
  6
DASHDOT
 62
     7
 10
84.68772694344206
 20
18.60265309916598
 30
0.0
  0
VERTEX
  5
120
  8
ガラリ
  6
DASHDOT
 62
     7
 10
84.72390044603718
 20
18.61539995246137
 30
0.0
  0
VERTEX
  5
121
  8
ガラリ
  6
DASHDOT
 62
     7
 10
84.75731787224406
 20
18.63090288214495
 30
0.0
  0
VERTEX
  5
122
  8
ガラリ
  6
DASHDOT
 62
     7
 10
84.78832373161138
 20
18.65019541686236
 30
0.0
  0
VERTEX
  5
123
  8
ガラリ
  6
DASHDOT
 62
     7
 10
84.82311919601237
 20
18.67086598977387
 30
0.0
  0
VERTEX
  5
124
  8
ガラリ
  6
DASHDOT
 62
     7
 10
84.85033545034578
 20
18.69394812952505
 30
0.0
  0
VERTEX
  5
125
  8
ガラリ
  6
DASHDOT
 62
     7
 10
84.87858523332487
 20
18.71840830747037
 30
0.0
  0
VERTEX
  5
126
  8
ガラリ
  6
DASHDOT
 62
     7
 10
84.90959109269208
 20
18.75458181006546
 30
0.0
  0
VERTEX
  5
127
  8
ガラリ
  6
DASHDOT
 62
     7
 10
84.93921891386528
 20
18.79316687950028
 30
0.0
  0
VERTEX
  5
128
  8
ガラリ
  6
DASHDOT
 62
     7
 10
84.96367909181056
 20
18.83450802532327
 30
0.0
  0
VERTEX
  5
129
  8
ガラリ
  6
DASHDOT
 62
     7
 10
84.98434966472207
 20
18.87722720934038
 30
0.0
  0
VERTEX
  5
12A
  8
ガラリ
  6
DASHDOT
 62
     7
 10
84.99985259440568
 20
18.92097992200296
 30
0.0
  0
VERTEX
  5
12B
  8
ガラリ
  6
DASHDOT
 62
     7
 10
85.01122140950697
 20
18.96714420150538
 30
0.0
  0
VERTEX
  5
12C
  8
ガラリ
  6
DASHDOT
 62
     7
 10
85.01776709092898
 20
19.01365299055625
 30
0.0
  0
VERTEX
  5
12D
  8
ガラリ
  6
DASHDOT
 62
     7
 10
85.02052316731717
 20
19.06257334644677
 30
0.0
  0
VERTEX
  5
12E
  8
ガラリ
  6
DASHDOT
 62
     7
 10
85.02052316731717
 20
20.03202321599606
 30
0.0
  0
VERTEX
  5
12F
  8
ガラリ
  6
DASHDOT
 62
     7
 10
84.53579823254246
 20
20.03202321599606
 30
0.0
  0
VERTEX
  5
130
  8
ガラリ
  6
DASHDOT
 62
     7
 10
84.53579823254246
 20
19.06257334644677
 30
0.0
  0
VERTEX
  5
131
  8
ガラリ
  6
DASHDOT
 62
     7
 10
84.53200862750877
 20
19.07049706606286
 30
0.0
  0
SEQEND
  5
132
  8
ガラリ
  6
DASHDOT
 62
     7
  0
POLYLINE
  5
133
  8
ガラリ
  6
DASHDOT
 62
     7
 66
     1
 10
0.0
 20
0.0
 30
0.0
  0
VERTEX
  5
134
  8
ガラリ
  6
DASHDOT
 62
     7
 10
84.53200862750877
 20
32.64520680659275
 30
0.0
  0
VERTEX
  5
135
  8
ガラリ
  6
DASHDOT
 62
     7
 10
76.33268137261406
 20
29.66037607817238
 30
0.0
  0
VERTEX
  5
136
  8
ガラリ
  6
DASHDOT
 62
     7
 10
76.49770144635757
 20
29.20424543592527
 30
0.0
  0
VERTEX
  5
137
  8
ガラリ
  6
DASHDOT
 62
     7
 10
84.61572419771888
 20
32.15944821068085
 30
0.0
 42
0.0759080394533417
  0
VERTEX
  5
138
  8
ガラリ
  6
DASHDOT
 62
     7
 10
84.75769981004099
 20
32.20650540195216
 30
0.0
 42
0.0761503337217009
  0
VERTEX
  5
139
  8
ガラリ
  6
DASHDOT
 62
     7
 10
84.87858519771886
 20
32.29346221068086
 30
0.0
 42
0.0479787212555325
  0
VERTEX
  5
13A
  8
ガラリ
  6
DASHDOT
 62
     7
 10
84.93940347922204
 20
32.36835600020852
 30
0.0
 42
0.0488563140109513
  0
VERTEX
  5
13B
  8
ガラリ
  6
DASHDOT
 62
     7
 10
84.98391819771886
 20
32.45210821068086
 30
0.0
 42
0.0490390732969433
  0
VERTEX
  5
13C
  8
ガラリ
  6
DASHDOT
 62
     7
 10
85.01124380204719
 20
32.54271673542321
 30
0.0
 42
0.048766157839052
  0
VERTEX
  5
13D
  8
ガラリ
  6
DASHDOT
 62
     7
 10
85.02052316731717
 20
32.63762759652526
 30
0.0
  0
VERTEX
  5
13E
  8
ガラリ
  6
DASHDOT
 62
     7
 10
85.02052316731717
 20
33.60811099472015
 30
0.0
  0
VERTEX
  5
13F
  8
ガラリ
  6
DASHDOT
 62
     7
 10
84.53579823254246
 20
33.60811099472015
 30
0.0
  0
VERTEX
  5
140
  8
ガラリ
  6
DASHDOT
 62
     7
 10
84.53579823254246
 20
32.63762759652526
 30
0.0
  0
VERTEX
  5
141
  8
ガラリ
  6
DASHDOT
 62
     7
 10
84.53200862750877
 20
32.64520680659275
 30
0.0
  0
SEQEND
  5
142
  8
ガラリ
  6
DASHDOT
 62
     7
  0
POLYLINE
  5
143
  8
ガラリ
  6
DASHDOT
 62
     7
 66
     1
 10
0.0
 20
0.0
 30
0.0
  0
VERTEX
  5
144
  8
ガラリ
  6
DASHDOT
 62
     7
 10
84.53200862750877
 20
32.64520680659275
 30
0.0
  0
VERTEX
  5
145
  8
ガラリ
  6
DASHDOT
 62
     7
 10
76.33268137261406
 20
29.66037607817238
 30
0.0
  0
VERTEX
  5
146
  8
ガラリ
  6
DASHDOT
 62
     7
 10
76.49770144635757
 20
29.20424543592527
 30
0.0
  0
VERTEX
  5
147
  8
ガラリ
  6
DASHDOT
 62
     7
 10
84.61572444780028
 20
32.15944834317257
 30
0.0
  0
VERTEX
  5
148
  8
ガラリ
  6
DASHDOT
 62
     7
 10
84.65293147904096
 20
32.16737206278866
 30
0.0
  0
VERTEX
  5
149
  8
ガラリ
  6
DASHDOT
 62
     7
 10
84.68772694344206
 20
32.17736283969587
 30
0.0
  0
VERTEX
  5
14A
  8
ガラリ
  6
DASHDOT
 62
     7
 10
84.72390044603718
 20
32.19183224073397
 30
0.0
  0
VERTEX
  5
14B
  8
ガラリ
  6
DASHDOT
 62
     7
 10
84.75731787224406
 20
32.20595713222347
 30
0.0
  0
VERTEX
  5
14C
  8
ガラリ
  6
DASHDOT
 62
     7
 10
84.78832373161138
 20
32.22387162874675
 30
0.0
  0
VERTEX
  5
14D
  8
ガラリ
  6
DASHDOT
 62
     7
 10
84.82311919601237
 20
32.24592023985237
 30
0.0
  0
VERTEX
  5
14E
  8
ガラリ
  6
DASHDOT
 62
     7
 10
84.85033545034578
 20
32.26900237960358
 30
0.0
  0
VERTEX
  5
14F
  8
ガラリ
  6
DASHDOT
 62
     7
 10
84.87858523332487
 20
32.29346255754875
 30
0.0
  0
VERTEX
  5
150
  8
ガラリ
  6
DASHDOT
 62
     7
 10
84.90959109269208
 20
32.33101409833797
 30
0.0
  0
VERTEX
  5
151
  8
ガラリ
  6
DASHDOT
 62
     7
 10
84.93921891386528
 20
32.36684309138455
 30
0.0
  0
VERTEX
  5
152
  8
ガラリ
  6
DASHDOT
 62
     7
 10
84.96367909181056
 20
32.40956227540165
 30
0.0
  0
VERTEX
  5
153
  8
ガラリ
  6
DASHDOT
 62
     7
 10
84.98434966472207
 20
32.45193694987027
 30
0.0
  0
VERTEX
  5
154
  8
ガラリ
  6
DASHDOT
 62
     7
 10
84.99985259440568
 20
32.49706770072707
 30
0.0
  0
VERTEX
  5
155
  8
ガラリ
  6
DASHDOT
 62
     7
 10
85.01122140950697
 20
32.54219845158387
 30
0.0
  0
VERTEX
  5
156
  8
ガラリ
  6
DASHDOT
 62
     7
 10
85.01776709092898
 20
32.59008527882877
 30
0.0
  0
VERTEX
  5
157
  8
ガラリ
  6
DASHDOT
 62
     7
 10
85.02052316731717
 20
32.63762759652526
 30
0.0
  0
VERTEX
  5
158
  8
ガラリ
  6
DASHDOT
 62
     7
 10
85.02052316731717
 20
33.60811099472015
 30
0.0
  0
VERTEX
  5
159
  8
ガラリ
  6
DASHDOT
 62
     7
 10
84.53579823254246
 20
33.60811099472015
 30
0.0
  0
VERTEX
  5
15A
  8
ガラリ
  6
DASHDOT
 62
     7
 10
84.53579823254246
 20
32.63762759652526
 30
0.0
  0
VERTEX
  5
15B
  8
ガラリ
  6
DASHDOT
 62
     7
 10
84.53200862750877
 20
32.64520680659275
 30
0.0
  0
SEQEND
  5
15C
  8
ガラリ
  6
DASHDOT
 62
     7
  0
POLYLINE
  5
15D
  8
ガラリ
  6
DASHDOT
 62
     7
 66
     1
 10
0.0
 20
0.0
 30
0.0
  0
VERTEX
  5
15E
  8
ガラリ
  6
DASHDOT
 62
     7
 10
84.53200862750877
 20
46.22060556621976
 30
0.0
  0
VERTEX
  5
15F
  8
ガラリ
  6
DASHDOT
 62
     7
 10
76.33268137261406
 20
43.23715287599346
 30
0.0
  0
VERTEX
  5
160
  8
ガラリ
  6
DASHDOT
 62
     7
 10
76.49770144635757
 20
42.78067772419787
 30
0.0
  0
VERTEX
  5
161
  8
ガラリ
  6
DASHDOT
 62
     7
 10
84.61572419771888
 20
45.73553521068085
 30
0.0
 42
0.0797575393820664
  0
VERTEX
  5
162
  8
ガラリ
  6
DASHDOT
 62
     7
 10
84.75745699343857
 20
45.78158943186314
 30
0.0
 42
0.0793870821204384
  0
VERTEX
  5
163
  8
ガラリ
  6
DASHDOT
 62
     7
 10
84.87858519771886
 20
45.87023921068085
 30
0.0
 42
0.050165413522862
  0
VERTEX
  5
164
  8
ガラリ
  6
DASHDOT
 62
     7
 10
84.93898967272249
 20
45.94330445727458
 30
0.0
 42
0.0498312028115347
  0
VERTEX
  5
165
  8
ガラリ
  6
DASHDOT
 62
     7
 10
84.98391819771886
 20
46.02733521068087
 30
0.0
 42
0.0490308048865857
  0
VERTEX
  5
166
  8
ガラリ
  6
DASHDOT
 62
     7
 10
85.01125395251937
 20
46.11780145915851
 30
0.0
 42
0.0489047572234231
  0
VERTEX
  5
167
  8
ガラリ
  6
DASHDOT
 62
     7
 10
85.02052316731717
 20
46.21233733705516
 30
0.0
  0
VERTEX
  5
168
  8
ガラリ
  6
DASHDOT
 62
     7
 10
85.02052316731717
 20
47.18282073525008
 30
0.0
  0
VERTEX
  5
169
  8
ガラリ
  6
DASHDOT
 62
     7
 10
84.53579823254246
 20
47.18282073525008
 30
0.0
  0
VERTEX
  5
16A
  8
ガラリ
  6
DASHDOT
 62
     7
 10
84.53579823254246
 20
46.21233733705516
 30
0.0
  0
VERTEX
  5
16B
  8
ガラリ
  6
DASHDOT
 62
     7
 10
84.53200862750877
 20
46.22060556621976
 30
0.0
  0
SEQEND
  5
16C
  8
ガラリ
  6
DASHDOT
 62
     7
  0
POLYLINE
  5
16D
  8
ガラリ
  6
DASHDOT
 62
     7
 66
     1
 10
0.0
 20
0.0
 30
0.0
  0
VERTEX
  5
16E
  8
ガラリ
  6
DASHDOT
 62
     7
 10
84.53200862750877
 20
46.22060556621976
 30
0.0
  0
VERTEX
  5
16F
  8
ガラリ
  6
DASHDOT
 62
     7
 10
76.33268137261406
 20
43.23715287599346
 30
0.0
  0
VERTEX
  5
170
  8
ガラリ
  6
DASHDOT
 62
     7
 10
76.49770144635757
 20
42.78067772419787
 30
0.0
  0
VERTEX
  5
171
  8
ガラリ
  6
DASHDOT
 62
     7
 10
84.61572444780028
 20
45.73553612189657
 30
0.0
  0
VERTEX
  5
172
  8
ガラリ
  6
DASHDOT
 62
     7
 10
84.65293147904096
 20
45.74242631286707
 30
0.0
  0
VERTEX
  5
173
  8
ガラリ
  6
DASHDOT
 62
     7
 10
84.68772694344206
 20
45.75276159932285
 30
0.0
  0
VERTEX
  5
174
  8
ガラリ
  6
DASHDOT
 62
     7
 10
84.72390044603718
 20
45.76585296216676
 30
0.0
  0
VERTEX
  5
175
  8
ガラリ
  6
DASHDOT
 62
     7
 10
84.75731787224406
 20
45.78170040139896
 30
0.0
  0
VERTEX
  5
176
  8
ガラリ
  6
DASHDOT
 62
     7
 10
84.78832373161138
 20
45.80064842656786
 30
0.0
  0
VERTEX
  5
177
  8
ガラリ
  6
DASHDOT
 62
     7
 10
84.82311919601237
 20
45.82097448993078
 30
0.0
  0
VERTEX
  5
178
  8
ガラリ
  6
DASHDOT
 62
     7
 10
84.85033545034578
 20
45.84509015832755
 30
0.0
  0
VERTEX
  5
179
  8
ガラリ
  6
DASHDOT
 62
     7
 10
84.87858523332487
 20
45.87023935536986
 30
0.0
  0
VERTEX
  5
17A
  8
ガラリ
  6
DASHDOT
 62
     7
 10
84.90959109269208
 20
45.90503481977088
 30
0.0
  0
VERTEX
  5
17B
  8
ガラリ
  6
DASHDOT
 62
     7
 10
84.93921891386528
 20
45.94361988920566
 30
0.0
  0
VERTEX
  5
17C
  8
ガラリ
  6
DASHDOT
 62
     7
 10
84.96367909181056
 20
45.98427201593167
 30
0.0
  0
VERTEX
  5
17D
  8
ガラリ
  6
DASHDOT
 62
     7
 10
84.98434966472207
 20
46.02802472859427
 30
0.0
  0
VERTEX
  5
17E
  8
ガラリ
  6
DASHDOT
 62
     7
 10
84.99985259440568
 20
46.07177744125697
 30
0.0
  0
VERTEX
  5
17F
  8
ガラリ
  6
DASHDOT
 62
     7
 10
85.01122140950697
 20
46.11828623030787
 30
0.0
  0
VERTEX
  5
180
  8
ガラリ
  6
DASHDOT
 62
     7
 10
85.01776709092898
 20
46.16582854800426
 30
0.0
  0
VERTEX
  5
181
  8
ガラリ
  6
DASHDOT
 62
     7
 10
85.02052316731717
 20
46.21233733705516
 30
0.0
  0
VERTEX
  5
182
  8
ガラリ
  6
DASHDOT
 62
     7
 10
85.02052316731717
 20
47.18282073525008
 30
0.0
  0
VERTEX
  5
183
  8
ガラリ
  6
DASHDOT
 62
     7
 10
84.53579823254246
 20
47.18282073525008
 30
0.0
  0
VERTEX
  5
184
  8
ガラリ
  6
DASHDOT
 62
     7
 10
84.53579823254246
 20
46.21233733705516
 30
0.0
  0
VERTEX
  5
185
  8
ガラリ
  6
DASHDOT
 62
     7
 10
84.53200862750877
 20
46.22060556621976
 30
0.0
  0
SEQEND
  5
186
  8
ガラリ
  6
DASHDOT
 62
     7
  0
POLYLINE
  5
187
  8
ガラリ
  6
DASHDOT
 62
     7
 66
     1
 10
0.0
 20
0.0
 30
0.0
  0
VERTEX
  5
188
  8
ガラリ
  6
DASHDOT
 62
     7
 10
84.53200862750877
 20
59.79634883539525
 30
0.0
  0
VERTEX
  5
189
  8
ガラリ
  6
DASHDOT
 62
     7
 10
76.33268137261406
 20
56.81082908787776
 30
0.0
  0
VERTEX
  5
18A
  8
ガラリ
  6
DASHDOT
 62
     7
 10
76.49770144635757
 20
56.35573197427625
 30
0.0
  0
VERTEX
  5
18B
  8
ガラリ
  6
DASHDOT
 62
     7
 10
84.61572419771888
 20
59.31024521068086
 30
0.0
 42
0.0792820315628589
  0
VERTEX
  5
18C
  8
ガラリ
  6
DASHDOT
 62
     7
 10
84.75612072582582
 20
59.35571858491905
 30
0.0
 42
0.077417478055249
  0
VERTEX
  5
18D
  8
ガラリ
  6
DASHDOT
 62
     7
 10
84.87858519771886
 20
59.44425921068087
 30
0.0
 42
0.0492384059591625
  0
VERTEX
  5
18E
  8
ガラリ
  6
DASHDOT
 62
     7
 10
84.93888213645293
 20
59.51776459883088
 30
0.0
 42
0.0495994991745412
  0
VERTEX
  5
18F
  8
ガラリ
  6
DASHDOT
 62
     7
 10
84.98391819771886
 20
59.60230321068086
 30
0.0
 42
0.0489034853318418
  0
VERTEX
  5
190
  8
ガラリ
  6
DASHDOT
 62
     7
 10
85.01126646164106
 20
59.69306868163163
 30
0.0
 42
0.0487706246408404
  0
VERTEX
  5
191
  8
ガラリ
  6
DASHDOT
 62
     7
 10
85.02052316731717
 20
59.78773609668217
 30
0.0
  0
VERTEX
  5
192
  8
ガラリ
  6
DASHDOT
 62
     7
 10
85.02052316731717
 20
60.75649694713435
 30
0.0
  0
VERTEX
  5
193
  8
ガラリ
  6
DASHDOT
 62
     7
 10
84.53579823254246
 20
60.75649694713435
 30
0.0
  0
VERTEX
  5
194
  8
ガラリ
  6
DASHDOT
 62
     7
 10
84.53579823254246
 20
59.78773609668217
 30
0.0
  0
VERTEX
  5
195
  8
ガラリ
  6
DASHDOT
 62
     7
 10
84.53200862750877
 20
59.79634883539525
 30
0.0
  0
SEQEND
  5
196
  8
ガラリ
  6
DASHDOT
 62
     7
  0
POLYLINE
  5
197
  8
ガラリ
  6
DASHDOT
 62
     7
 66
     1
 10
0.0
 20
0.0
 30
0.0
  0
VERTEX
  5
198
  8
ガラリ
  6
DASHDOT
 62
     7
 10
84.53200862750877
 20
59.79634883539525
 30
0.0
  0
VERTEX
  5
199
  8
ガラリ
  6
DASHDOT
 62
     7
 10
76.33268137261406
 20
56.81082908787776
 30
0.0
  0
VERTEX
  5
19A
  8
ガラリ
  6
DASHDOT
 62
     7
 10
76.49770144635757
 20
56.35573197427625
 30
0.0
  0
VERTEX
  5
19B
  8
ガラリ
  6
DASHDOT
 62
     7
 10
84.61572444780028
 20
59.31024586242656
 30
0.0
  0
VERTEX
  5
19C
  8
ガラリ
  6
DASHDOT
 62
     7
 10
84.65293147904096
 20
59.31748056294556
 30
0.0
  0
VERTEX
  5
19D
  8
ガラリ
  6
DASHDOT
 62
     7
 10
84.68772694344206
 20
59.32712683030427
 30
0.0
  0
VERTEX
  5
19E
  8
ガラリ
  6
DASHDOT
 62
     7
 10
84.72390044603718
 20
59.34056270269677
 30
0.0
  0
VERTEX
  5
19F
  8
ガラリ
  6
DASHDOT
 62
     7
 10
84.75731787224406
 20
59.35675465147737
 30
0.0
  0
VERTEX
  5
1A0
  8
ガラリ
  6
DASHDOT
 62
     7
 10
84.78832373161138
 20
59.37535816709776
 30
0.0
  0
VERTEX
  5
1A1
  8
ガラリ
  6
DASHDOT
 62
     7
 10
84.82311919601237
 20
59.39671775910627
 30
0.0
  0
VERTEX
  5
1A2
  8
ガラリ
  6
DASHDOT
 62
     7
 10
84.85033545034578
 20
59.41876637021186
 30
0.0
  0
VERTEX
  5
1A3
  8
ガラリ
  6
DASHDOT
 62
     7
 10
84.87858523332487
 20
59.44426007680276
 30
0.0
  0
VERTEX
  5
1A4
  8
ガラリ
  6
DASHDOT
 62
     7
 10
84.90959109269208
 20
59.48112259849496
 30
0.0
  0
VERTEX
  5
1A5
  8
ガラリ
  6
DASHDOT
 62
     7
 10
84.93921891386528
 20
59.51832962973567
 30
0.0
  0
VERTEX
  5
1A6
  8
ガラリ
  6
DASHDOT
 62
     7
 10
84.96367909181056
 20
59.55967077555867
 30
0.0
  0
VERTEX
  5
1A7
  8
ガラリ
  6
DASHDOT
 62
     7
 10
84.98434966472207
 20
59.60307897867277
 30
0.0
  0
VERTEX
  5
1A8
  8
ガラリ
  6
DASHDOT
 62
     7
 10
84.99985259440568
 20
59.64614267223835
 30
0.0
  0
VERTEX
  5
1A9
  8
ガラリ
  6
DASHDOT
 62
     7
 10
85.01122140950697
 20
59.69299597083777
 30
0.0
  0
VERTEX
  5
1AA
  8
ガラリ
  6
DASHDOT
 62
     7
 10
85.01776709092898
 20
59.74019377898576
 30
0.0
  0
VERTEX
  5
1AB
  8
ガラリ
  6
DASHDOT
 62
     7
 10
85.02052316731717
 20
59.78773609668217
 30
0.0
  0
VERTEX
  5
1AC
  8
ガラリ
  6
DASHDOT
 62
     7
 10
85.02052316731717
 20
60.75649694713435
 30
0.0
  0
VERTEX
  5
1AD
  8
ガラリ
  6
DASHDOT
 62
     7
 10
84.53579823254246
 20
60.75649694713435
 30
0.0
  0
VERTEX
  5
1AE
  8
ガラリ
  6
DASHDOT
 62
     7
 10
84.53579823254246
 20
59.78773609668217
 30
0.0
  0
VERTEX
  5
1AF
  8
ガラリ
  6
DASHDOT
 62
     7
 10
84.53200862750877
 20
59.79634883539525
 30
0.0
  0
SEQEND
  5
1B0
  8
ガラリ
  6
DASHDOT
 62
     7
  0
LINE
  5
1B1
  8
寸法線
  6
CONTINUOUS
 62
     7
 10
154.7396095214152
 20
-34.81045181369603
 30
0.0
 11
154.7396095214152
 21
62.61340341368405
 31
0.0
  0
LINE
  5
1B2
  8
寸法線
  6
CONTINUOUS
 62
     7
 10
139.8047760833086
 20
62.68437238068027
 30
0.0
 11
157.488451209096
 21
62.68437238068027
 31
0.0
  0
LINE
  5
1B3
  8
寸法線
  6
CONTINUOUS
 62
     7
 10
140.299836304539
 20
-34.81045181369603
 30
0.0
 11
157.488451209096
 21
-34.81045181369603
 31
0.0
  0
POLYLINE
  5
1B4
  8
寸法線
  6
CONTINUOUS
 62
     7
 66
     1
 10
0.0
 20
0.0
 30
0.0
  0
VERTEX
  5
1B5
  8
寸法線
  6
CONTINUOUS
 62
     7
 10
155.5977828067909
 20
-31.60410144557403
 30
0.0
  0
VERTEX
  5
1B6
  8
寸法線
  6
CONTINUOUS
 62
     7
 10
154.7396095214152
 20
-34.81045181369603
 30
0.0
  0
VERTEX
  5
1B7
  8
寸法線
  6
CONTINUOUS
 62
     7
 10
153.8797136882968
 20
-31.60410144557403
 30
0.0
  0
SEQEND
  5
1B8
  8
寸法線
  6
CONTINUOUS
 62
     7
  0
POLYLINE
  5
1B9
  8
寸法線
  6
CONTINUOUS
 62
     7
 66
     1
 10
0.0
 20
0.0
 30
0.0
  0
VERTEX
  5
1BA
  8
寸法線
  6
CONTINUOUS
 62
     7
 10
153.8797136882968
 20
59.40636402646497
 30
0.0
  0
VERTEX
  5
1BB
  8
寸法線
  6
CONTINUOUS
 62
     7
 10
154.7396095214152
 20
62.61340341368405
 30
0.0
  0
VERTEX
  5
1BC
  8
寸法線
  6
CONTINUOUS
 62
     7
 10
155.5977828067909
 20
59.40636402646497
 30
0.0
  0
SEQEND
  5
1BD
  8
寸法線
  6
CONTINUOUS
 62
     7
  0
LINE
  5
1BE
  8
寸法線
  6
CONTINUOUS
 62
     7
 10
164.857854961594
 20
85.29212248353527
 30
0.0
 11
164.857854961594
 21
-67.91334080281618
 31
0.0
  0
LINE
  5
1BF
  8
寸法線
  6
CONTINUOUS
 62
     7
 10
94.54724571267856
 20
85.60769322998415
 30
0.0
 11
178.5025001404745
 21
85.60769322998415
 31
0.0
  0
POLYLINE
  5
1C0
  8
寸法線
  6
CONTINUOUS
 62
     7
 66
     1
 10
0.0
 20
0.0
 30
0.0
  0
VERTEX
  5
1C1
  8
寸法線
  6
CONTINUOUS
 62
     7
 10
165.7174062851638
 20
82.08577211541315
 30
0.0
  0
VERTEX
  5
1C2
  8
寸法線
  6
CONTINUOUS
 62
     7
 10
164.857854961594
 20
85.29212248353527
 30
0.0
  0
VERTEX
  5
1C3
  8
寸法線
  6
CONTINUOUS
 62
     7
 10
163.9993371666697
 20
82.08577211541315
 30
0.0
  0
SEQEND
  5
1C4
  8
寸法線
  6
CONTINUOUS
 62
     7
  0
POLYLINE
  5
1C5
  8
寸法線
  6
CONTINUOUS
 62
     7
 66
     1
 10
0.0
 20
0.0
 30
0.0
  0
VERTEX
  5
1C6
  8
寸法線
  6
CONTINUOUS
 62
     7
 10
165.7380768580753
 20
-65.17483440159108
 30
0.0
  0
VERTEX
  5
1C7
  8
寸法線
  6
CONTINUOUS
 62
     7
 10
164.8799035726996
 20
-68.38118476971312
 30
0.0
  0
VERTEX
  5
1C8
  8
寸法線
  6
CONTINUOUS
 62
     7
 10
164.0200077395812
 20
-65.17483440159108
 30
0.0
  0
SEQEND
  5
1C9
  8
寸法線
  6
CONTINUOUS
 62
     7
  0
LINE
  5
1CA
  8
寸法線
  6
CONTINUOUS
 62
     7
 10
93.54954606015018
 20
-68.46386706135911
 30
0.0
 11
166.3967791148551
 21
-68.46386706135911
 31
0.0
  0
LINE
  5
1CB
  8
寸法線
  6
CONTINUOUS
 62
     7
 10
76.39331505315458
 20
-85.9501382158417
 30
0.0
 11
178.16488078292
 21
-85.9501382158417
 31
0.0
  0
LINE
  5
1CC
  8
寸法線
  6
CONTINUOUS
 62
     7
 10
174.8331289391349
 20
85.29177797398667
 30
0.0
 11
174.8331289391349
 21
-85.73103014297982
 31
0.0
  0
LINE
  5
1CD
  8
寸法線
  6
CONTINUOUS
 62
     7
 10
175.6926802627047
 20
82.08508309631615
 30
0.0
 11
174.8331289391349
 21
85.29177797398667
 31
0.0
  0
LINE
  5
1CE
  8
寸法線
  6
CONTINUOUS
 62
     7
 10
174.8331289391349
 20
85.29177797398667
 30
0.0
 11
173.9749556537592
 21
82.08508309631615
 31
0.0
  0
LINE
  5
1CF
  8
寸法線
  6
CONTINUOUS
 62
     7
 10
175.6916467340591
 20
-82.5246797748578
 30
0.0
 11
174.8331289391349
 21
-85.73103014297982
 31
0.0
  0
LINE
  5
1D0
  8
寸法線
  6
CONTINUOUS
 62
     7
 10
174.8331289391349
 20
-85.73103014297982
 30
0.0
 11
173.973577615565
 21
-82.5246797748578
 31
0.0
  0
LINE
  5
1D1
  8
寸法線
  6
CONTINUOUS
 62
     7
 10
164.8799035726996
 20
-68.38118476971312
 30
0.0
 11
164.7803403131758
 21
-85.75445679227951
 31
0.0
  0
LINE
  5
1D2
  8
寸法線
  6
CONTINUOUS
 62
     7
 10
165.7394548962694
 20
-82.50400920194629
 30
0.0
 11
164.8799035726996
 21
-85.71173760826242
 31
0.0
  0
LINE
  5
1D3
  8
寸法線
  6
CONTINUOUS
 62
     7
 10
164.8799035726996
 20
-85.71173760826242
 30
0.0
 11
164.0213857777753
 21
-82.50400920194629
 31
0.0
  0
LINE
  5
1D4
  8
寸法線
  6
CONTINUOUS
 62
     7
 10
164.0175961727416
 20
-71.58787964738366
 30
0.0
 11
164.8799035726996
 21
-68.38118476971312
 31
0.0
  0
LINE
  5
1D5
  8
寸法線
  6
CONTINUOUS
 62
     7
 10
164.8799035726996
 20
-68.38118476971312
 30
0.0
 11
165.7356652912357
 21
-71.59029121422334
 31
0.0
  0
LINE
  5
1D6
  8
寸法線
  6
CONTINUOUS
 62
     7
 10
93.53025352543277
 20
-75.96073934681128
 30
0.0
 11
112.844492344389
 21
-75.96073934681128
 31
0.0
  0
LINE
  5
1D7
  8
寸法線
  6
CONTINUOUS
 62
     7
 10
111.2914432996383
 20
-68.9727076645305
 30
0.0
 11
111.3868724445798
 21
-75.96073934681128
 31
0.0
  0
POLYLINE
  5
1D8
  8
寸法線
  6
CONTINUOUS
 62
     7
 66
     1
 10
0.0
 20
0.0
 30
0.0
  0
VERTEX
  5
1D9
  8
寸法線
  6
CONTINUOUS
 62
     7
 10
110.4418827529758
 20
-71.68847643555296
 30
0.0
  0
VERTEX
  5
1DA
  8
寸法線
  6
CONTINUOUS
 62
     7
 10
111.3041901529338
 20
-68.48178155788241
 30
0.0
  0
VERTEX
  5
1DB
  8
寸法線
  6
CONTINUOUS
 62
     7
 10
112.1599518714698
 20
-71.69088800239263
 30
0.0
  0
SEQEND
  5
1DC
  8
寸法線
  6
CONTINUOUS
 62
     7
  0
POLYLINE
  5
1DD
  8
寸法線
  6
CONTINUOUS
 62
     7
 66
     1
 10
0.0
 20
0.0
 30
0.0
  0
VERTEX
  5
1DE
  8
寸法線
  6
CONTINUOUS
 62
     7
 10
112.2464237681496
 20
-72.75301094049516
 30
0.0
  0
VERTEX
  5
1DF
  8
寸法線
  6
CONTINUOUS
 62
     7
 10
111.3868724445798
 20
-75.96073934681128
 30
0.0
  0
VERTEX
  5
1E0
  8
寸法線
  6
CONTINUOUS
 62
     7
 10
110.5283546496555
 20
-72.75301094049516
 30
0.0
  0
SEQEND
  5
1E1
  8
寸法線
  6
CONTINUOUS
 62
     7
  0
LINE
  5
1E2
  8
寸法線
  6
CONTINUOUS
 62
     7
 10
14.40812355389387
 20
14.12919661156907
 30
0.0
 11
14.40812355389387
 21
-68.46386706135911
 31
0.0
  0
LINE
  5
1E3
  8
寸法線
  6
CONTINUOUS
 62
     7
 10
10.00839210968127
 20
84.83047968851177
 30
0.0
 11
20.34712366091607
 21
84.83047968851177
 31
0.0
  0
POLYLINE
  5
1E4
  8
寸法線
  6
CONTINUOUS
 62
     7
 66
     1
 10
0.0
 20
0.0
 30
0.0
  0
VERTEX
  5
1E5
  8
寸法線
  6
CONTINUOUS
 62
     7
 10
15.26801938701227
 20
10.92250173389847
 30
0.0
  0
VERTEX
  5
1E6
  8
寸法線
  6
CONTINUOUS
 62
     7
 10
14.40812355389387
 20
14.12919661156907
 30
0.0
  0
VERTEX
  5
1E7
  8
寸法線
  6
CONTINUOUS
 62
     7
 10
13.54995026851817
 20
10.92250173389847
 30
0.0
  0
SEQEND
  5
1E8
  8
寸法線
  6
CONTINUOUS
 62
     7
  0
POLYLINE
  5
1E9
  8
寸法線
  6
CONTINUOUS
 62
     7
 66
     1
 10
0.0
 20
0.0
 30
0.0
  0
VERTEX
  5
1EA
  8
寸法線
  6
CONTINUOUS
 62
     7
 10
15.26664134881817
 20
-65.25717218368855
 30
0.0
  0
VERTEX
  5
1EB
  8
寸法線
  6
CONTINUOUS
 62
     7
 10
14.40812355389387
 20
-68.46386706135911
 30
0.0
  0
VERTEX
  5
1EC
  8
寸法線
  6
CONTINUOUS
 62
     7
 10
13.54857223032407
 20
-65.25717218368855
 30
0.0
  0
SEQEND
  5
1ED
  8
寸法線
  6
CONTINUOUS
 62
     7
  0
LINE
  5
1EE
  8
寸法線
  6
CONTINUOUS
 62
     7
 10
14.40812355389387
 20
84.63204218856136
 30
0.0
 11
14.40812355389387
 21
14.12919661156907
 31
0.0
  0
LINE
  5
1EF
  8
寸法線
  6
CONTINUOUS
 62
     7
 10
15.26801938701227
 20
81.42569182043935
 30
0.0
 11
14.40812355389387
 21
84.63204218856136
 31
0.0
  0
LINE
  5
1F0
  8
寸法線
  6
CONTINUOUS
 62
     7
 10
14.40812355389387
 20
84.63204218856136
 30
0.0
 11
13.54995026851817
 21
81.42569182043935
 31
0.0
  0
LINE
  5
1F1
  8
寸法線
  6
CONTINUOUS
 62
     7
 10
15.26664134881817
 20
17.33554697969107
 30
0.0
 11
14.40812355389387
 21
14.12919661156907
 31
0.0
  0
LINE
  5
1F2
  8
寸法線
  6
CONTINUOUS
 62
     7
 10
14.40812355389387
 20
14.12919661156907
 30
0.0
 11
13.54857223032407
 21
17.33554697969107
 31
0.0
  0
LINE
  5
1F3
  8
寸法線
  6
CONTINUOUS
 62
     7
 10
10.00839210968127
 20
14.12919661156907
 30
0.0
 11
20.34712366091607
 21
14.12919661156907
 31
0.0
  0
LINE
  5
1F4
  8
寸法線
  6
CONTINUOUS
 62
     7
 10
10.66812789510668
 20
-68.46386706135911
 30
0.0
 11
21.00685944634138
 21
-68.46386706135911
 31
0.0
  0
LINE
  5
1F5
  8
寸法線
  6
CONTINUOUS
 62
     7
 10
72.31018788403638
 20
93.64510099707196
 30
0.0
 11
96.72523507845348
 21
93.64510099707196
 31
0.0
  0
LINE
  5
1F6
  8
寸法線
  6
CONTINUOUS
 62
     7
 10
92.40646337814427
 20
103.4243490415022
 30
0.0
 11
139.5457049028178
 21
103.4525988244813
 31
0.0
  0
LINE
  5
1F7
  8
寸法線
  6
CONTINUOUS
 62
     7
 10
139.5071198333829
 20
63.59422209833467
 30
0.0
 11
139.5071198333829
 21
117.7307970630992
 31
0.0
  0
LINE
  5
1F8
  8
寸法線
  6
CONTINUOUS
 62
     7
 10
92.40646337814427
 20
86.60470386341545
 30
0.0
 11
92.40646337814427
 21
106.9438585892334
 31
0.0
  0
LINE
  5
1F9
  8
寸法線
  6
CONTINUOUS
 62
     7
 10
22.78935185040966
 20
86.70220006564797
 30
0.0
 11
22.78935185040966
 21
117.989179224493
 31
0.0
  0
LINE
  5
1FA
  8
寸法線
  6
CONTINUOUS
 62
     7
 10
87.04761735083817
 20
86.41901321676046
 30
0.0
 11
87.04761735083817
 21
96.50418574028087
 31
0.0
  0
POLYLINE
  5
1FB
  8
寸法線
  6
CONTINUOUS
 62
     7
 66
     1
 10
0.0
 20
0.0
 30
0.0
  0
VERTEX
  5
1FC
  8
寸法線
  6
CONTINUOUS
 62
     7
 10
95.61315825581487
 20
102.5661757561265
 30
0.0
  0
VERTEX
  5
1FD
  8
寸法線
  6
CONTINUOUS
 62
     7
 10
92.40646337814427
 20
103.4243490415022
 30
0.0
  0
VERTEX
  5
1FE
  8
寸法線
  6
CONTINUOUS
 62
     7
 10
95.61315825581487
 20
104.2839003650721
 30
0.0
  0
SEQEND
  5
1FF
  8
寸法線
  6
CONTINUOUS
 62
     7
  0
POLYLINE
  5
200
  8
寸法線
  6
CONTINUOUS
 62
     7
 66
     1
 10
0.0
 20
0.0
 30
0.0
  0
VERTEX
  5
201
  8
寸法線
  6
CONTINUOUS
 62
     7
 10
136.3379764965017
 20
104.3118056385025
 30
0.0
  0
VERTEX
  5
202
  8
寸法線
  6
CONTINUOUS
 62
     7
 10
139.5457049028178
 20
103.4525988244813
 30
0.0
  0
VERTEX
  5
203
  8
寸法線
  6
CONTINUOUS
 62
     7
 10
136.3379764965017
 20
102.594081029557
 30
0.0
  0
SEQEND
  5
204
  8
寸法線
  6
CONTINUOUS
 62
     7
  0
POLYLINE
  5
205
  8
寸法線
  6
CONTINUOUS
 62
     7
 66
     1
 10
0.0
 20
0.0
 30
0.0
  0
VERTEX
  5
206
  8
寸法線
  6
CONTINUOUS
 62
     7
 10
83.83988894452206
 20
94.50430781109326
 30
0.0
  0
VERTEX
  5
207
  8
寸法線
  6
CONTINUOUS
 62
     7
 10
87.04761735083817
 20
93.64510099707196
 30
0.0
  0
VERTEX
  5
208
  8
寸法線
  6
CONTINUOUS
 62
     7
 10
83.83988894452206
 20
92.78658320214775
 30
0.0
  0
SEQEND
  5
209
  8
寸法線
  6
CONTINUOUS
 62
     7
  0
POLYLINE
  5
20A
  8
寸法線
  6
CONTINUOUS
 62
     7
 66
     1
 10
0.0
 20
0.0
 30
0.0
  0
VERTEX
  5
20B
  8
寸法線
  6
CONTINUOUS
 62
     7
 10
95.45468386349337
 20
92.78658320214775
 30
0.0
  0
VERTEX
  5
20C
  8
寸法線
  6
CONTINUOUS
 62
     7
 10
92.24798898582277
 20
93.64510099707196
 30
0.0
  0
VERTEX
  5
20D
  8
寸法線
  6
CONTINUOUS
 62
     7
 10
95.45468386349337
 20
94.50430781109326
 30
0.0
  0
SEQEND
  5
20E
  8
寸法線
  6
CONTINUOUS
 62
     7
  0
LINE
  5
20F
  8
寸法線
  6
CONTINUOUS
 62
     7
 10
22.78935185040966
 20
103.3943767107806
 30
0.0
 11
92.40646337814427
 21
103.4243490415022
 31
0.0
  0
POLYLINE
  5
210
  8
寸法線
  6
CONTINUOUS
 62
     7
 66
     1
 10
0.0
 20
0.0
 30
0.0
  0
VERTEX
  5
211
  8
寸法線
  6
CONTINUOUS
 62
     7
 10
25.99570221853166
 20
102.5362034254048
 30
0.0
  0
VERTEX
  5
212
  8
寸法線
  6
CONTINUOUS
 62
     7
 10
22.78935185040966
 20
103.3943767107806
 30
0.0
  0
VERTEX
  5
213
  8
寸法線
  6
CONTINUOUS
 62
     7
 10
25.99570221853166
 20
104.2539280343504
 30
0.0
  0
SEQEND
  5
214
  8
寸法線
  6
CONTINUOUS
 62
     7
  0
POLYLINE
  5
215
  8
寸法線
  6
CONTINUOUS
 62
     7
 66
     1
 10
0.0
 20
0.0
 30
0.0
  0
VERTEX
  5
216
  8
寸法線
  6
CONTINUOUS
 62
     7
 10
89.19873497182816
 20
104.2839003650721
 30
0.0
  0
VERTEX
  5
217
  8
寸法線
  6
CONTINUOUS
 62
     7
 10
92.40646337814427
 20
103.4243490415022
 30
0.0
  0
VERTEX
  5
218
  8
寸法線
  6
CONTINUOUS
 62
     7
 10
89.19873497182816
 20
102.5661757561265
 30
0.0
  0
SEQEND
  5
219
  8
寸法線
  6
CONTINUOUS
 62
     7
  0
LINE
  5
21A
  8
寸法線
  6
CONTINUOUS
 62
     7
 10
22.78935185040966
 20
113.7437880580195
 30
0.0
 11
139.5457049028178
 21
113.8099338913363
 31
0.0
  0
POLYLINE
  5
21B
  8
寸法線
  6
CONTINUOUS
 62
     7
 66
     1
 10
0.0
 20
0.0
 30
0.0
  0
VERTEX
  5
21C
  8
寸法線
  6
CONTINUOUS
 62
     7
 10
25.99570221853166
 20
112.8856147726438
 30
0.0
  0
VERTEX
  5
21D
  8
寸法線
  6
CONTINUOUS
 62
     7
 10
22.78935185040966
 20
113.7437880580195
 30
0.0
  0
VERTEX
  5
21E
  8
寸法線
  6
CONTINUOUS
 62
     7
 10
25.99570221853166
 20
114.6033393815894
 30
0.0
  0
SEQEND
  5
21F
  8
寸法線
  6
CONTINUOUS
 62
     7
  0
POLYLINE
  5
220
  8
寸法線
  6
CONTINUOUS
 62
     7
 66
     1
 10
0.0
 20
0.0
 30
0.0
  0
VERTEX
  5
221
  8
寸法線
  6
CONTINUOUS
 62
     7
 10
136.1950050338639
 20
114.6691407053577
 30
0.0
  0
VERTEX
  5
222
  8
寸法線
  6
CONTINUOUS
 62
     7
 10
139.5457049028178
 20
113.8099338913363
 30
0.0
  0
VERTEX
  5
223
  8
寸法線
  6
CONTINUOUS
 62
     7
 10
136.1950050338639
 20
112.9517606059606
 30
0.0
  0
SEQEND
  5
224
  8
寸法線
  6
CONTINUOUS
 62
     7
  0
LINE
  5
225
  8
寸法線
  6
CONTINUOUS
 62
     7
 10
-172.794231
 20
-100.6438149699808
 30
0.0
 11
-18.85496237529036
 21
-100.7275307902724
 31
0.0
  0
LINE
  5
226
  8
寸法線
  6
CONTINUOUS
 62
     7
 10
-18.85496237529036
 20
-84.73367499999999
 30
0.0
 11
-18.85496237529036
 21
-102.6647079816284
 31
0.0
  0
LINE
  5
227
  8
寸法線
  6
CONTINUOUS
 62
     7
 10
-172.794231
 20
-84.73367499999999
 30
0.0
 11
-172.794231
 21
-102.6647079816284
 31
0.0
  0
POLYLINE
  5
228
  8
寸法線
  6
CONTINUOUS
 62
     7
 66
     1
 10
0.0
 20
0.0
 30
0.0
  0
VERTEX
  5
229
  8
寸法線
  6
CONTINUOUS
 62
     7
 10
-169.5868471032324
 20
-99.78564168460505
 30
0.0
  0
VERTEX
  5
22A
  8
寸法線
  6
CONTINUOUS
 62
     7
 10
-172.794231
 20
-100.6438149699808
 30
0.0
  0
VERTEX
  5
22B
  8
寸法線
  6
CONTINUOUS
 62
     7
 10
-169.5868471032324
 20
-101.5033662935506
 30
0.0
  0
SEQEND
  5
22C
  8
寸法線
  6
CONTINUOUS
 62
     7
  0
POLYLINE
  5
22D
  8
寸法線
  6
CONTINUOUS
 62
     7
 66
     1
 10
0.0
 20
0.0
 30
0.0
  0
VERTEX
  5
22E
  8
寸法線
  6
CONTINUOUS
 62
     7
 10
-22.08405037361503
 20
-101.5874266233907
 30
0.0
  0
VERTEX
  5
22F
  8
寸法線
  6
CONTINUOUS
 62
     7
 10
-18.85496237529036
 20
-100.7275307902724
 30
0.0
  0
VERTEX
  5
230
  8
寸法線
  6
CONTINUOUS
 62
     7
 10
-22.08405037361503
 20
-99.86935750489663
 30
0.0
  0
SEQEND
  5
231
  8
寸法線
  6
CONTINUOUS
 62
     7
  0
LINE
  5
232
  8
寸法線
  6
CONTINUOUS
 62
     7
 10
-25.01341506472296
 20
86.43968378967197
 30
0.0
 11
-25.01341506472296
 21
115.5311035957672
 31
0.0
  0
LINE
  5
233
  8
寸法線
  6
CONTINUOUS
 62
     7
 10
-166.4214933713848
 20
86.48205846414056
 30
0.0
 11
-166.4214933713848
 21
115.7894857571609
 31
0.0
  0
LINE
  5
234
  8
寸法線
  6
CONTINUOUS
 62
     7
 10
-166.4214933713848
 20
111.5440945906874
 30
0.0
 11
-25.01341506472296
 21
111.6102404240043
 31
0.0
  0
POLYLINE
  5
235
  8
寸法線
  6
CONTINUOUS
 62
     7
 66
     1
 10
0.0
 20
0.0
 30
0.0
  0
VERTEX
  5
236
  8
寸法線
  6
CONTINUOUS
 62
     7
 10
-163.2147984937143
 20
110.6859213053117
 30
0.0
  0
VERTEX
  5
237
  8
寸法線
  6
CONTINUOUS
 62
     7
 10
-166.4214933713848
 20
111.5440945906874
 30
0.0
  0
VERTEX
  5
238
  8
寸法線
  6
CONTINUOUS
 62
     7
 10
-163.2147984937143
 20
112.4036459142574
 30
0.0
  0
SEQEND
  5
239
  8
寸法線
  6
CONTINUOUS
 62
     7
  0
POLYLINE
  5
23A
  8
寸法線
  6
CONTINUOUS
 62
     7
 66
     1
 10
0.0
 20
0.0
 30
0.0
  0
VERTEX
  5
23B
  8
寸法線
  6
CONTINUOUS
 62
     7
 10
-28.36480395277401
 20
112.4694472380256
 30
0.0
  0
VERTEX
  5
23C
  8
寸法線
  6
CONTINUOUS
 62
     7
 10
-25.01341506472296
 20
111.6102404240043
 30
0.0
  0
VERTEX
  5
23D
  8
寸法線
  6
CONTINUOUS
 62
     7
 10
-28.36480395277401
 20
110.7520671386286
 30
0.0
  0
SEQEND
  5
23E
  8
寸法線
  6
CONTINUOUS
 62
     7
  0
LINE
  5
23F
  8
寸法線
  6
CONTINUOUS
 62
     7
 10
-29.83379266768453
 20
-32.08469226576644
 30
0.0
 11
-161.5136103430979
 21
-32.00097644547483
 31
0.0
  0
POLYLINE
  5
240
  8
寸法線
  6
CONTINUOUS
 62
     7
 66
     1
 10
0.0
 20
0.0
 30
0.0
  0
VERTEX
  5
241
  8
寸法線
  6
CONTINUOUS
 62
     7
 10
-158.618352097294
 20
-31.09112672782034
 30
0.0
  0
VERTEX
  5
242
  8
寸法線
  6
CONTINUOUS
 62
     7
 10
-161.825391484513
 20
-31.94930001319604
 30
0.0
  0
VERTEX
  5
243
  8
寸法線
  6
CONTINUOUS
 62
     7
 10
-158.618352097294
 20
-32.80781780812033
 30
0.0
  0
SEQEND
  5
244
  8
寸法線
  6
CONTINUOUS
 62
     7
  0
LINE
  5
245
  8
寸法線
  6
CONTINUOUS
 62
     7
 10
-161.8336597136776
 20
-34.26784927476923
 30
0.0
 11
-161.8336597136776
 21
-21.03592653502163
 31
0.0
  0
POLYLINE
  5
246
  8
寸法線
  6
CONTINUOUS
 62
     7
 66
     1
 10
0.0
 20
0.0
 30
0.0
  0
VERTEX
  5
247
  8
寸法線
  6
CONTINUOUS
 62
     7
 10
-33.04083205490362
 20
-31.22651898039064
 30
0.0
  0
VERTEX
  5
248
  8
寸法線
  6
CONTINUOUS
 62
     7
 10
-29.83379266768453
 20
-32.08469226576644
 30
0.0
  0
VERTEX
  5
249
  8
寸法線
  6
CONTINUOUS
 62
     7
 10
-33.04083205490362
 20
-32.94321006069063
 30
0.0
  0
SEQEND
  5
24A
  8
寸法線
  6
CONTINUOUS
 62
     7
  0
LINE
  5
24B
  8
寸法線
  6
CONTINUOUS
 62
     7
 10
-29.83379266768453
 20
-34.32193727388764
 30
0.0
 11
-29.83379266768453
 21
-21.09001453414002
 31
0.0
  0
LINE
  5
24C
  8
寸法線
  6
CONTINUOUS
 62
     7
 10
-171.5491734916307
 20
-21.03592653502163
 30
0.0
 11
-171.5491734916307
 21
13.75402571322537
 31
0.0
  0
LINE
  5
24D
  8
寸法線
  6
CONTINUOUS
 62
     7
 10
-161.8336597136776
 20
-21.03592653502163
 30
0.0
 11
-174.9980585819143
 21
-21.03592653502163
 31
0.0
  0
POLYLINE
  5
24E
  8
寸法線
  6
CONTINUOUS
 62
     7
 66
     1
 10
0.0
 20
0.0
 30
0.0
  0
VERTEX
  5
24F
  8
寸法線
  6
CONTINUOUS
 62
     7
 10
-172.407691286555
 20
-17.82923165735114
 30
0.0
  0
VERTEX
  5
250
  8
寸法線
  6
CONTINUOUS
 62
     7
 10
-171.5491734916307
 20
-21.03592653502163
 30
0.0
  0
VERTEX
  5
251
  8
寸法線
  6
CONTINUOUS
 62
     7
 10
-170.6896221680609
 20
-17.82923165735114
 30
0.0
  0
SEQEND
  5
252
  8
寸法線
  6
CONTINUOUS
 62
     7
  0
POLYLINE
  5
253
  8
寸法線
  6
CONTINUOUS
 62
     7
 66
     1
 10
0.0
 20
0.0
 30
0.0
  0
VERTEX
  5
254
  8
寸法線
  6
CONTINUOUS
 62
     7
 10
-170.6896221680609
 20
10.54767534510326
 30
0.0
  0
VERTEX
  5
255
  8
寸法線
  6
CONTINUOUS
 62
     7
 10
-171.5491734916307
 20
13.75402571322537
 30
0.0
  0
VERTEX
  5
256
  8
寸法線
  6
CONTINUOUS
 62
     7
 10
-172.407691286555
 20
10.54767534510326
 30
0.0
  0
SEQEND
  5
257
  8
寸法線
  6
CONTINUOUS
 62
     7
  0
POLYLINE
  5
258
  8
寸法線
  6
CONTINUOUS
 62
     7
 66
     1
 10
0.0
 20
0.0
 30
0.0
  0
VERTEX
  5
259
  8
寸法線
  6
CONTINUOUS
 62
     7
 10
-38.33938891121787
 20
101.3517795975759
 30
0.0
  0
VERTEX
  5
25A
  8
寸法線
  6
CONTINUOUS
 62
     7
 10
-35.13131599535322
 20
100.4925727835546
 30
0.0
  0
VERTEX
  5
25B
  8
寸法線
  6
CONTINUOUS
 62
     7
 10
-38.33938891121787
 20
99.63405498863027
 30
0.0
  0
SEQEND
  5
25C
  8
寸法線
  6
CONTINUOUS
 62
     7
  0
LINE
  5
25D
  8
寸法線
  6
CONTINUOUS
 62
     7
 10
-35.13131599535322
 20
86.71219084255527
 30
0.0
 11
-35.13131599535322
 21
102.0077257779675
 31
0.0
  0
POLYLINE
  5
25E
  8
寸法線
  6
CONTINUOUS
 62
     7
 66
     1
 10
0.0
 20
0.0
 30
0.0
  0
VERTEX
  5
25F
  8
寸法線
  6
CONTINUOUS
 62
     7
 10
-153.1210132314808
 20
99.82973641219247
 30
0.0
  0
VERTEX
  5
260
  8
寸法線
  6
CONTINUOUS
 62
     7
 10
-156.3280526186999
 20
100.6879096975683
 30
0.0
  0
VERTEX
  5
261
  8
寸法線
  6
CONTINUOUS
 62
     7
 10
-153.1210132314808
 20
101.5474610211381
 30
0.0
  0
SEQEND
  5
262
  8
寸法線
  6
CONTINUOUS
 62
     7
  0
LINE
  5
263
  8
寸法線
  6
CONTINUOUS
 62
     7
 10
-156.2853334346828
 20
86.71219084255527
 30
0.0
 11
-156.2853334346828
 21
102.0077257779675
 31
0.0
  0
LINE
  5
264
  8
寸法線
  6
CONTINUOUS
 62
     7
 10
-156.3280526186999
 20
100.6879096975683
 30
0.0
 11
-35.13131599535322
 21
100.4925727835546
 31
0.0
  0
TEXT
  5
266
  8
寸法線
  6
CONTINUOUS
 62
     7
 10
163.3313331520798
 20
6.197553275878377
 30
0.0
 40
4.487093736586417
  1
1
 50
90.0
 41
0.5
  7
EXCESS_STANDARD
  0
TEXT
  5
267
  8
寸法線
  6
CONTINUOUS
 62
     7
 10
163.3313331520798
 20
8.441100144171585
 30
0.0
 40
4.487093736586417
  1
5
 50
90.0
 41
0.5
  7
EXCESS_STANDARD
  0
TEXT
  5
268
  8
寸法線
  6
CONTINUOUS
 62
     7
 10
163.3313331520798
 20
10.68464701246479
 30
0.0
 40
4.487093736586417
  1
4
 50
90.0
 41
0.5
  7
EXCESS_STANDARD
  0
TEXT
  5
269
  8
寸法線
  6
CONTINUOUS
 62
     7
 10
153.1751916615633
 20
4.914255207622759
 30
0.0
 40
4.487093736586417
  1
φ
 50
90.0
  7
EXCESS_STANDARD
  0
TEXT
  5
26A
  8
寸法線
  6
CONTINUOUS
 62
     7
 10
153.1751916615633
 20
9.401348944209175
 30
0.0
 40
4.487093736586417
  1
9
 50
90.0
 41
0.5
  7
EXCESS_STANDARD
  0
TEXT
  5
26B
  8
寸法線
  6
CONTINUOUS
 62
     7
 10
153.1751916615633
 20
11.64489581250238
 30
0.0
 40
4.487093736586417
  1
7
 50
90.0
 41
0.5
  7
EXCESS_STANDARD
  0
TEXT
  5
26C
  8
寸法線
  6
CONTINUOUS
 62
     7
 10
173.0737186748178
 20
6.622678058758154
 30
0.0
 40
4.487093736586417
  1
1
 50
90.0
 41
0.5
  7
EXCESS_STANDARD
  0
TEXT
  5
26D
  8
寸法線
  6
CONTINUOUS
 62
     7
 10
173.0737186748178
 20
8.866224927051363
 30
0.0
 40
4.487093736586417
  1
7
 50
90.0
 41
0.5
  7
EXCESS_STANDARD
  0
TEXT
  5
26E
  8
寸法線
  6
CONTINUOUS
 62
     7
 10
173.0737186748178
 20
11.10977179534457
 30
0.0
 40
4.487093736586417
  1
1
 50
90.0
 41
0.5
  7
EXCESS_STANDARD
  0
TEXT
  5
26F
  8
寸法線
  6
CONTINUOUS
 62
     7
 10
161.9112647930598
 20
-81.52835816052354
 30
0.0
 40
4.487093736586417
  1
1
 50
90.0
 41
0.5
  7
EXCESS_STANDARD
  0
TEXT
  5
270
  8
寸法線
  6
CONTINUOUS
 62
     7
 10
161.9112647930598
 20
-79.28481129223033
 30
0.0
 40
4.487093736586417
  1
7
 50
90.0
 41
0.5
  7
EXCESS_STANDARD
  0
TEXT
  5
271
  8
寸法線
  6
CONTINUOUS
 62
     7
 10
108.7748010476634
 20
-74.58545722909955
 30
0.0
 40
4.487093736586417
  1
7
 50
90.0
 41
0.5
  7
EXCESS_STANDARD
  0
TEXT
  5
272
  8
寸法線
  6
CONTINUOUS
 62
     7
 10
12.20808557701328
 20
-33.91507149707964
 30
0.0
 40
4.487093736586431
  1
8
 50
90.0
 41
0.5
  7
EXCESS_STANDARD
  0
TEXT
  5
273
  8
寸法線
  6
CONTINUOUS
 62
     7
 10
12.20808557701328
 20
-31.67152462878642
 30
0.0
 40
4.487093736586431
  1
2
 50
90.0
 41
0.5
  7
EXCESS_STANDARD
  0
TEXT
  5
274
  8
寸法線
  6
CONTINUOUS
 62
     7
 10
12.20808557701328
 20
-29.42797776049321
 30
0.0
 40
4.487093736586431
  1
.
 50
90.0
 41
0.5
  7
EXCESS_STANDARD
  0
TEXT
  5
275
  8
寸法線
  6
CONTINUOUS
 62
     7
 10
12.20808557701328
 20
-28.3062043263466
 30
0.0
 40
4.487093736586431
  1
5
 50
90.0
 41
0.5
  7
EXCESS_STANDARD
  0
TEXT
  5
276
  8
寸法線
  6
CONTINUOUS
 62
     7
 10
12.09784252148538
 20
39.77689897060846
 30
0.0
 40
4.487093736586431
  1
7
 50
90.0
 41
0.4999999999999984
  7
EXCESS_STANDARD
  0
TEXT
  5
277
  8
寸法線
  6
CONTINUOUS
 62
     7
 10
12.09784252148538
 20
42.02044583890167
 30
0.0
 40
4.487093736586431
  1
1
 50
90.0
 41
0.4999999999999984
  7
EXCESS_STANDARD
  0
TEXT
  5
278
  8
寸法線
  6
CONTINUOUS
 62
     7
 10
75.59784250561036
 20
115.5705499390732
 30
0.0
 40
4.487093736586417
  1
1
 41
0.5
  7
EXCESS_STANDARD
  0
TEXT
  5
279
  8
寸法線
  6
CONTINUOUS
 62
     7
 10
77.84138937390357
 20
115.5705499390732
 30
0.0
 40
4.487093736586417
  1
1
 41
0.5
  7
EXCESS_STANDARD
  0
TEXT
  5
27A
  8
寸法線
  6
CONTINUOUS
 62
     7
 10
80.08493624219678
 20
115.5705499390732
 30
0.0
 40
4.487093736586417
  1
7
 41
0.5
  7
EXCESS_STANDARD
  0
TEXT
  5
27B
  8
寸法線
  6
CONTINUOUS
 62
     7
 10
82.32848311048998
 20
115.5705499390732
 30
0.0
 40
4.487093736586417
  1
.
 41
0.5
  7
EXCESS_STANDARD
  0
TEXT
  5
27C
  8
寸法線
  6
CONTINUOUS
 62
     7
 10
83.45025654463659
 20
115.5705499390732
 30
0.0
 40
4.487093736586417
  1
5
 41
0.5
  7
EXCESS_STANDARD
  0
TEXT
  5
27D
  8
寸法線
  6
CONTINUOUS
 62
     7
 10
50.92062354476577
 20
105.5816678343657
 30
0.0
 40
4.487093736586417
  1
7
 41
0.5
  7
EXCESS_STANDARD
  0
TEXT
  5
27E
  8
寸法線
  6
CONTINUOUS
 62
     7
 10
53.16417041305898
 20
105.5816678343657
 30
0.0
 40
4.487093736586417
  1
0
 41
0.5
  7
EXCESS_STANDARD
  0
TEXT
  5
27F
  8
寸法線
  6
CONTINUOUS
 62
     7
 10
108.8753978358326
 20
105.1706679429754
 30
0.0
 40
4.487093736586417
  1
4
 41
0.5
  7
EXCESS_STANDARD
  0
TEXT
  5
280
  8
寸法線
  6
CONTINUOUS
 62
     7
 10
111.1189447041258
 20
105.1706679429754
 30
0.0
 40
4.487093736586417
  1
7
 41
0.5
  7
EXCESS_STANDARD
  0
TEXT
  5
281
  8
寸法線
  6
CONTINUOUS
 62
     7
 10
113.362491572419
 20
105.1706679429754
 30
0.0
 40
4.487093736586417
  1
.
 41
0.5
  7
EXCESS_STANDARD
  0
TEXT
  5
282
  8
寸法線
  6
CONTINUOUS
 62
     7
 10
114.4842650065656
 20
105.1706679429754
 30
0.0
 40
4.487093736586417
  1
5
 41
0.5
  7
EXCESS_STANDARD
  0
TEXT
  5
283
  8
寸法線
  6
CONTINUOUS
 62
     7
 10
72.86588178580716
 20
95.12787009392356
 30
0.0
 40
4.487093736586417
  1
5
 41
0.5
  7
EXCESS_STANDARD
  0
TEXT
  5
284
  8
寸法線
  6
CONTINUOUS
 62
     7
 10
75.10942865410037
 20
95.12787009392356
 30
0.0
 40
4.487093736586417
  1
.
 41
0.5
  7
EXCESS_STANDARD
  0
TEXT
  5
285
  8
寸法線
  6
CONTINUOUS
 62
     7
 10
76.23120208824697
 20
95.12787009392356
 30
0.0
 40
4.487093736586417
  1
5
 41
0.5
  7
EXCESS_STANDARD
  0
TEXT
  5
286
  8
寸法線
  6
CONTINUOUS
 62
     7
 10
-102.87825743892
 20
-99.51830227494968
 30
0.0
 40
4.487093736586431
  1
1
 41
0.4999999999999984
  7
EXCESS_STANDARD
  0
TEXT
  5
287
  8
寸法線
  6
CONTINUOUS
 62
     7
 10
-100.6347105706268
 20
-99.51830227494968
 30
0.0
 40
4.487093736586431
  1
5
 41
0.4999999999999984
  7
EXCESS_STANDARD
  0
TEXT
  5
288
  8
寸法線
  6
CONTINUOUS
 62
     7
 10
-98.39116370233353
 20
-99.51830227494968
 30
0.0
 40
4.487093736586431
  1
4
 41
0.4999999999999984
  7
EXCESS_STANDARD
  0
TEXT
  5
289
  8
寸法線
  6
CONTINUOUS
 62
     7
 10
-103.0549908373133
 20
113.6726468362491
 30
0.0
 40
4.487093736586417
  1
1
 41
0.5
  7
EXCESS_STANDARD
  0
TEXT
  5
28A
  8
寸法線
  6
CONTINUOUS
 62
     7
 10
-100.8114439690201
 20
113.6726468362491
 30
0.0
 40
4.487093736586417
  1
4
 41
0.5
  7
EXCESS_STANDARD
  0
TEXT
  5
28B
  8
寸法線
  6
CONTINUOUS
 62
     7
 10
-98.56789710072684
 20
113.6726468362491
 30
0.0
 40
4.487093736586417
  1
2
 41
0.5
  7
EXCESS_STANDARD
  0
TEXT
  5
28C
  8
寸法線
  6
CONTINUOUS
 62
     7
 10
-106.0685881130356
 20
102.0115153830013
 30
0.0
 40
4.487093736586417
  1
1
 41
0.5
  7
EXCESS_STANDARD
  0
TEXT
  5
28D
  8
寸法線
  6
CONTINUOUS
 62
     7
 10
-103.8250412447424
 20
102.0115153830013
 30
0.0
 40
4.487093736586417
  1
2
 41
0.5
  7
EXCESS_STANDARD
  0
TEXT
  5
28E
  8
寸法線
  6
CONTINUOUS
 62
     7
 10
-101.5814943764491
 20
102.0115153830013
 30
0.0
 40
4.487093736586417
  1
1
 41
0.5
  7
EXCESS_STANDARD
  0
TEXT
  5
28F
  8
寸法線
  6
CONTINUOUS
 62
     7
 10
-99.33794750815592
 20
102.0115153830013
 30
0.0
 40
4.487093736586417
  1
.
 41
0.5
  7
EXCESS_STANDARD
  0
TEXT
  5
290
  8
寸法線
  6
CONTINUOUS
 62
     7
 10
-98.21617407400932
 20
102.0115153830013
 30
0.0
 40
4.487093736586417
  1
5
 41
0.5
  7
EXCESS_STANDARD
  0
TEXT
  5
291
  8
寸法線
  6
CONTINUOUS
 62
     7
 10
-91.88065137613115
 20
-29.77096613787263
 30
0.0
 40
4.487093736586431
  1
1
 41
0.4999999999999984
  7
EXCESS_STANDARD
  0
TEXT
  5
292
  8
寸法線
  6
CONTINUOUS
 62
     7
 10
-89.63710450783795
 20
-29.77096613787263
 30
0.0
 40
4.487093736586431
  1
3
 41
0.4999999999999984
  7
EXCESS_STANDARD
  0
TEXT
  5
293
  8
寸法線
  6
CONTINUOUS
 62
     7
 10
-87.39355763954472
 20
-29.77096613787263
 30
0.0
 40
4.487093736586431
  1
2
 41
0.4999999999999984
  7
EXCESS_STANDARD
  0
TEXT
  5
294
  8
寸法線
  6
CONTINUOUS
 62
     7
 10
-173.3089282654963
 20
-8.021044810844828
 30
0.0
 40
4.487093736586417
  1
3
 50
90.0
 41
0.5
  7
EXCESS_STANDARD
  0
TEXT
  5
295
  8
寸法線
  6
CONTINUOUS
 62
     7
 10
-173.3089282654963
 20
-5.777497942551619
 30
0.0
 40
4.487093736586417
  1
5
 50
90.0
 41
0.5
  7
EXCESS_STANDARD
  0
LINE
  5
296
  8
新図面
  6
CONTINUOUS
 62
     7
 10
-146.4747350213368
 20
84.90868335602697
 30
0.0
 11
-146.4747350213368
 21
-68.58995755611926
 31
0.0
  0
LINE
  5
297
  8
新図面
  6
CONTINUOUS
 62
     7
 10
-146.4747350213368
 20
-68.58995755611926
 30
0.0
 11
-45.19512892686504
 21
-68.58995755611926
 31
0.0
  0
LINE
  5
298
  8
新図面
  6
CONTINUOUS
 62
     7
 10
-146.4747350213368
 20
84.90868335602697
 30
0.0
 11
-45.19512892686504
 21
84.90868335602697
 31
0.0
  0
LINE
  5
299
  8
新図面
  6
CONTINUOUS
 62
     7
 10
-156.5836787037054
 20
-68.58995755611926
 30
0.0
 11
-156.5836787037054
 21
84.90868335602697
 31
0.0
  0
LINE
  5
29A
  8
新図面
  6
CONTINUOUS
 62
     7
 10
-146.4747350213368
 20
-68.58995755611926
 30
0.0
 11
-156.5836787037054
 21
-68.58995755611926
 31
0.0
  0
LINE
  5
29B
  8
新図面
  6
CONTINUOUS
 62
     7
 10
-156.5836787037054
 20
84.90868335602697
 30
0.0
 11
-146.4747350213368
 21
84.90868335602697
 31
0.0
  0
LINE
  5
29C
  8
新図面
  6
CONTINUOUS
 62
     7
 10
-35.08377367765677
 20
84.90868335602697
 30
0.0
 11
-35.08377367765677
 21
-68.58995755611926
 31
0.0
  0
LINE
  5
29D
  8
新図面
  6
CONTINUOUS
 62
     7
 10
-35.08377367765677
 20
-68.58995755611926
 30
0.0
 11
-45.19512892686504
 21
-68.58995755611926
 31
0.0
  0
LINE
  5
29E
  8
新図面
  6
CONTINUOUS
 62
     7
 10
-45.19512892686504
 20
84.90868335602697
 30
0.0
 11
-35.08377367765677
 21
84.90868335602697
 31
0.0
  0
LINE
  5
29F
  8
新図面
  6
CONTINUOUS
 62
     7
 10
-166.8342158105178
 20
84.90868335602697
 30
0.0
 11
-166.8342158105178
 21
-68.58995755611926
 31
0.0
  0
POLYLINE
  5
2A0
  8
新図面
  6
CONTINUOUS
 62
     7
 66
     1
 10
0.0
 20
0.0
 30
0.0
  0
VERTEX
  5
2A1
  8
新図面
  6
CONTINUOUS
 62
     7
 10
-164.0836508022811
 20
-21.09001478931914
 30
0.0
 42
0.0498074435621625
  0
VERTEX
  5
2A2
  8
新図面
  6
CONTINUOUS
 62
     7
 10
-164.0388033302815
 20
-21.53910645137078
 30
0.0
 42
0.0502624821105849
  0
VERTEX
  5
2A3
  8
新図面
  6
CONTINUOUS
 62
     7
 10
-163.9068858022812
 20
-21.96630778931915
 30
0.0
 42
0.072341527657009
  0
VERTEX
  5
2A4
  8
新図面
  6
CONTINUOUS
 62
     7
 10
-163.5719016120266
 20
-22.5196340841086
 30
0.0
 42
0.0721120516101618
  0
VERTEX
  5
2A5
  8
新図面
  6
CONTINUOUS
 62
     7
 10
-163.0918068022811
 20
-22.95625378931916
 30
0.0
 42
0.0745575197094189
  0
VERTEX
  5
2A6
  8
新図面
  6
CONTINUOUS
 62
     7
 10
-162.493127122151
 20
-23.24191057768953
 30
0.0
 42
0.07422465195654
  0
VERTEX
  5
2A7
  8
新図面
  6
CONTINUOUS
 62
     7
 10
-161.8336588022811
 20
-23.34035178931914
 30
0.0
 42
0.0498294969455235
  0
VERTEX
  5
2A8
  8
新図面
  6
CONTINUOUS
 62
     7
 10
-161.3849410313993
 20
-23.29552171561095
 30
0.0
 42
0.0502840544772233
  0
VERTEX
  5
2A9
  8
新図面
  6
CONTINUOUS
 62
     7
 10
-160.9580178022811
 20
-23.16362878931913
 30
0.0
 42
0.0723742389996361
  0
VERTEX
  5
2AA
  8
新図面
  6
CONTINUOUS
 62
     7
 10
-160.4049807324915
 20
-22.82864288668485
 30
0.0
 42
0.0721047622922051
  0
VERTEX
  5
2AB
  8
新図面
  6
CONTINUOUS
 62
     7
 10
-159.9686348022811
 20
-22.34857478931914
 30
0.0
 42
0.07454510752914
  0
VERTEX
  5
2AC
  8
新図面
  6
CONTINUOUS
 62
     7
 10
-159.6831132233335
 20
-21.74979720008791
 30
0.0
 42
0.0741690340199474
  0
VERTEX
  5
2AD
  8
新図面
  6
CONTINUOUS
 62
     7
 10
-159.5847008022811
 20
-21.09001478931914
 30
0.0
 42
0.04980599120657
  0
VERTEX
  5
2AE
  8
新図面
  6
CONTINUOUS
 62
     7
 10
-159.6294988516687
 20
-20.64140488700737
 30
0.0
 42
0.050231502385411
  0
VERTEX
  5
2AF
  8
新図面
  6
CONTINUOUS
 62
     7
 10
-159.7613538022811
 20
-20.21430378931915
 30
0.0
 42
0.0482800065619284
  0
VERTEX
  5
2B0
  8
新図面
  6
CONTINUOUS
 62
     7
 10
-159.9672138265537
 20
-19.83414341097954
 30
0.0
 42
0.0480710395413928
  0
VERTEX
  5
2B1
  8
新図面
  6
CONTINUOUS
 62
     7
 10
-160.2431878022811
 20
-19.49898378931913
 30
0.0
 42
0.0480992803722921
  0
VERTEX
  5
2B2
  8
新図面
  6
CONTINUOUS
 62
     7
 10
-160.5781752707483
 20
-19.22264746600229
 30
0.0
 42
0.0483288768070319
  0
VERTEX
  5
2B3
  8
新図面
  6
CONTINUOUS
 62
     7
 10
-160.9580178022811
 20
-19.01659478931915
 30
0.0
 42
0.0503170024648437
  0
VERTEX
  5
2B4
  8
新図面
  6
CONTINUOUS
 62
     7
 10
-161.385033965273
 20
-18.88454590113498
 30
0.0
 42
0.0498816514349206
  0
VERTEX
  5
2B5
  8
新図面
  6
CONTINUOUS
 62
     7
 10
-161.8336588022811
 20
-18.83967878931914
 30
0.0
 42
0.0498652020589412
  0
VERTEX
  5
2B6
  8
新図面
  6
CONTINUOUS
 62
     7
 10
-162.2824280167897
 20
-18.88454628919805
 30
0.0
 42
0.0502947145948917
  0
VERTEX
  5
2B7
  8
新図面
  6
CONTINUOUS
 62
     7
 10
-162.7096068022811
 20
-19.01659478931914
 30
0.0
 42
0.0723156506800615
  0
VERTEX
  5
2B8
  8
新図面
  6
CONTINUOUS
 62
     7
 10
-163.2627605190841
 20
-19.3517058016349
 30
0.0
 42
0.0720625985757536
  0
VERTEX
  5
2B9
  8
新図面
  6
CONTINUOUS
 62
     7
 10
-163.6994808022811
 20
-19.83206178931912
 30
0.0
 42
0.0745357278066991
  0
VERTEX
  5
2BA
  8
新図面
  6
CONTINUOUS
 62
     7
 10
-163.9852759629184
 20
-20.43105400108781
 30
0.0
 42
0.0742320857628131
  0
VERTEX
  5
2BB
  8
新図面
  6
CONTINUOUS
 62
     7
 10
-164.0836508022811
 20
-21.09001478914071
 30
0.0
  0
SEQEND
  5
2BC
  8
新図面
  6
CONTINUOUS
 62
     7
  0
LINE
  5
2BD
  8
新図面
  6
CONTINUOUS
 62
     7
 10
-166.8342158105178
 20
-68.58995755611926
 30
0.0
 11
-156.5836787037054
 21
-68.58995755611926
 31
0.0
  0
LINE
  5
2BE
  8
新図面
  6
CONTINUOUS
 62
     7
 10
-166.8342158105178
 20
84.90868335602697
 30
0.0
 11
-156.5836787037054
 21
84.90868335602697
 31
0.0
  0
LINE
  5
2BF
  8
新図面
  6
CONTINUOUS
 62
     7
 10
-24.8346146090385
 20
84.90868335602697
 30
0.0
 11
-24.8346146090385
 21
-68.58995755611926
 31
0.0
  0
POLYLINE
  5
2C0
  8
新図面
  6
CONTINUOUS
 62
     7
 66
     1
 10
0.0
 20
0.0
 30
0.0
  0
VERTEX
  5
2C1
  8
新図面
  6
CONTINUOUS
 62
     7
 10
-32.08412980228113
 20
-21.09001478931914
 30
0.0
 42
0.0497695958601192
  0
VERTEX
  5
2C2
  8
新図面
  6
CONTINUOUS
 62
     7
 10
-32.03930948572012
 20
-21.53917752910276
 30
0.0
 42
0.0502418608589029
  0
VERTEX
  5
2C3
  8
新図面
  6
CONTINUOUS
 62
     7
 10
-31.90750380228111
 20
-21.96630778931915
 30
0.0
 42
0.0723691698861974
  0
VERTEX
  5
2C4
  8
新図面
  6
CONTINUOUS
 62
     7
 10
-31.57260458177832
 20
-22.51972164492823
 30
0.0
 42
0.0721507113505665
  0
VERTEX
  5
2C5
  8
新図面
  6
CONTINUOUS
 62
     7
 10
-31.09265480228113
 20
-22.95625378931915
 30
0.0
 42
0.0746009774681671
  0
VERTEX
  5
2C6
  8
新図面
  6
CONTINUOUS
 62
     7
 10
-30.49384375201812
 20
-23.24189055403112
 30
0.0
 42
0.0741745143509924
  0
VERTEX
  5
2C7
  8
新図面
  6
CONTINUOUS
 62
     7
 10
-29.83379280228112
 20
-23.34035178931914
 30
0.0
 42
0.0498577922669354
  0
VERTEX
  5
2C8
  8
新図面
  6
CONTINUOUS
 62
     7
 10
-29.38558969720815
 20
-23.29554758042907
 30
0.0
 42
0.0502774868574975
  0
VERTEX
  5
2C9
  8
新図面
  6
CONTINUOUS
 62
     7
 10
-28.95873380228113
 20
-23.16362878931913
 30
0.0
 42
0.0723183717205601
  0
VERTEX
  5
2CA
  8
新図面
  6
CONTINUOUS
 62
     7
 10
-28.405698777173
 20
-22.82866303917042
 30
0.0
 42
0.0720570082500043
  0
VERTEX
  5
2CB
  8
新図面
  6
CONTINUOUS
 62
     7
 10
-27.96913180228113
 20
-22.34857478931913
 30
0.0
 42
0.0745592372441393
  0
VERTEX
  5
2CC
  8
新図面
  6
CONTINUOUS
 62
     7
 10
-27.68331214790526
 20
-21.74962877100815
 30
0.0
 42
0.074236671575994
  0
VERTEX
  5
2CD
  8
新図面
  6
CONTINUOUS
 62
     7
 10
-27.58483480228112
 20
-21.09001478931914
 30
0.0
 42
0.0498592385533721
  0
VERTEX
  5
2CE
  8
新図面
  6
CONTINUOUS
 62
     7
 10
-27.62967304248042
 20
-20.64148432477886
 30
0.0
 42
0.0502624254142645
  0
VERTEX
  5
2CF
  8
新図面
  6
CONTINUOUS
 62
     7
 10
-27.76168080228113
 20
-20.21430378931915
 30
0.0
 42
0.0482671920978076
  0
VERTEX
  5
2D0
  8
新図面
  6
CONTINUOUS
 62
     7
 10
-27.96764108272814
 20
-19.8342430551631
 30
0.0
 42
0.0480528403919798
  0
VERTEX
  5
2D1
  8
新図面
  6
CONTINUOUS
 62
     7
 10
-28.24383880228113
 20
-19.49898378931913
 30
0.0
 42
0.0480597875126871
  0
VERTEX
  5
2D2
  8
新図面
  6
CONTINUOUS
 62
     7
 10
-28.5789391064195
 20
-19.22262917166718
 30
0.0
 42
0.0482940021433665
  0
VERTEX
  5
2D3
  8
新図面
  6
CONTINUOUS
 62
     7
 10
-28.95873380228113
 20
-19.01659478931914
 30
0.0
 42
0.0503094672643769
  0
VERTEX
  5
2D4
  8
新図面
  6
CONTINUOUS
 62
     7
 10
-29.38567546544822
 20
-18.88452158351483
 30
0.0
 42
0.0499106504405566
  0
VERTEX
  5
2D5
  8
新図面
  6
CONTINUOUS
 62
     7
 10
-29.83379280228112
 20
-18.83967878931914
 30
0.0
 42
0.0498303178653432
  0
VERTEX
  5
2D6
  8
新図面
  6
CONTINUOUS
 62
     7
 10
-30.28304945865909
 20
-18.88456344461817
 30
0.0
 42
0.0502972764204491
  0
VERTEX
  5
2D7
  8
新図面
  6
CONTINUOUS
 62
     7
 10
-30.71037580228113
 20
-19.01659478931914
 30
0.0
 42
0.0723401420469233
  0
VERTEX
  5
2D8
  8
新図面
  6
CONTINUOUS
 62
     7
 10
-31.26349835808141
 20
-19.3516261271286
 30
0.0
 42
0.072122783229723
  0
VERTEX
  5
2D9
  8
新図面
  6
CONTINUOUS
 62
     7
 10
-31.70021380228113
 20
-19.83206178931913
 30
0.0
 42
0.0745299476228029
  0
VERTEX
  5
2DA
  8
新図面
  6
CONTINUOUS
 62
     7
 10
-31.98579568853523
 20
-20.43091046794292
 30
0.0
 42
0.0741852171440297
  0
VERTEX
  5
2DB
  8
新図面
  6
CONTINUOUS
 62
     7
 10
-32.08412980228113
 20
-21.09001478944926
 30
0.0
  0
SEQEND
  5
2DC
  8
新図面
  6
CONTINUOUS
 62
     7
  0
LINE
  5
2DD
  8
新図面
  6
CONTINUOUS
 62
     7
 10
-35.08377367765677
 20
-68.58995755611926
 30
0.0
 11
-24.8346146090385
 21
-68.58995755611926
 31
0.0
  0
LINE
  5
2DE
  8
新図面
  6
CONTINUOUS
 62
     7
 10
-35.08377367765677
 20
84.90868335602697
 30
0.0
 11
-24.8346146090385
 21
84.90868335602697
 31
0.0
  0
LINE
  5
2DF
  8
新図面
  6
CONTINUOUS
 62
     7
 10
-156.0841398583442
 20
85.40925573003376
 30
0.0
 11
-156.0841398583442
 21
84.90868335602697
 31
0.0
  0
LINE
  5
2E0
  8
新図面
  6
CONTINUOUS
 62
     7
 10
-35.58434605166357
 20
85.40925573003376
 30
0.0
 11
-156.0841398583442
 21
85.40925573003376
 31
0.0
  0
LINE
  5
2E1
  8
新図面
  6
CONTINUOUS
 62
     7
 10
-35.58434605166357
 20
85.40925573003376
 30
0.0
 11
-35.58434605166357
 21
84.90868335602697
 31
0.0
  0
CIRCLE
  5
2E2
  8
新図面
  6
CONTINUOUS
 62
     7
 10
-161.8329652403227
 20
13.91103832398797
 30
0.0
 40
2.901121296295158
  0
LINE
  5
2E3
  8
新図面
  6
CONTINUOUS
 62
     7
 10
-161.4836380123762
 20
13.55937781830868
 30
0.0
 11
-160.0838957167192
 21
13.55937781830868
 31
0.0
  0
LINE
  5
2E4
  8
新図面
  6
CONTINUOUS
 62
     7
 10
-160.0838957167192
 20
13.55937781830868
 30
0.0
 11
-160.0838957167192
 21
14.25942122091148
 31
0.0
  0
LINE
  5
2E5
  8
新図面
  6
CONTINUOUS
 62
     7
 10
-160.0838957167192
 20
14.25942122091148
 30
0.0
 11
-161.4836380123762
 21
14.25942122091148
 31
0.0
  0
LINE
  5
2E6
  8
新図面
  6
CONTINUOUS
 62
     7
 10
-161.4836380123762
 20
14.25942122091148
 30
0.0
 11
-161.4836380123762
 21
15.66019704521408
 31
0.0
  0
LINE
  5
2E7
  8
新図面
  6
CONTINUOUS
 62
     7
 10
-161.4836380123762
 20
15.66019704521408
 30
0.0
 11
-162.1833369054305
 21
15.66019704521408
 31
0.0
  0
LINE
  5
2E8
  8
新図面
  6
CONTINUOUS
 62
     7
 10
-162.1833369054305
 20
15.66019704521408
 30
0.0
 11
-162.1833369054305
 21
14.25942122091148
 31
0.0
  0
LINE
  5
2E9
  8
新図面
  6
CONTINUOUS
 62
     7
 10
-162.1833369054305
 20
14.25942122091148
 30
0.0
 11
-163.5844572392816
 21
14.25942122091148
 31
0.0
  0
LINE
  5
2EA
  8
新図面
  6
CONTINUOUS
 62
     7
 10
-162.1833369054305
 20
13.55937781830868
 30
0.0
 11
-162.1833369054305
 21
12.15998003220015
 31
0.0
  0
LINE
  5
2EB
  8
新図面
  6
CONTINUOUS
 62
     7
 10
-162.1833369054305
 20
12.15998003220015
 30
0.0
 11
-161.4836380123762
 21
12.15998003220015
 31
0.0
  0
LINE
  5
2EC
  8
新図面
  6
CONTINUOUS
 62
     7
 10
-161.4836380123762
 20
12.15998003220015
 30
0.0
 11
-161.4836380123762
 21
13.55937781830868
 31
0.0
  0
LINE
  5
2ED
  8
新図面
  6
CONTINUOUS
 62
     7
 10
-163.5844572392816
 20
13.55937781830868
 30
0.0
 11
-162.1833369054305
 21
13.55937781830868
 31
0.0
  0
LINE
  5
2EE
  8
新図面
  6
CONTINUOUS
 62
     7
 10
-163.5844572392816
 20
14.25942122091148
 30
0.0
 11
-163.5844572392816
 21
13.55937781830868
 31
0.0
  0
LINE
  5
2EF
  8
新図面
  6
CONTINUOUS
 62
     7
 10
-28.08540670892025
 20
13.55937781830868
 30
0.0
 11
-28.08540670892025
 21
14.25942122091148
 31
0.0
  0
LINE
  5
2F0
  8
新図面
  6
CONTINUOUS
 62
     7
 10
-28.08540670892025
 20
14.25942122091148
 30
0.0
 11
-29.48514900457725
 21
14.25942122091148
 31
0.0
  0
LINE
  5
2F1
  8
新図面
  6
CONTINUOUS
 62
     7
 10
-29.48514900457725
 20
14.25942122091148
 30
0.0
 11
-29.48514900457725
 21
15.66019704521408
 31
0.0
  0
LINE
  5
2F2
  8
新図面
  6
CONTINUOUS
 62
     7
 10
-29.48514900457725
 20
15.66019704521408
 30
0.0
 11
-30.18450338808297
 21
15.66019704521408
 31
0.0
  0
LINE
  5
2F3
  8
新図面
  6
CONTINUOUS
 62
     7
 10
-30.18450338808297
 20
15.66019704521408
 30
0.0
 11
-30.18450338808297
 21
14.25942122091148
 31
0.0
  0
LINE
  5
2F4
  8
新図面
  6
CONTINUOUS
 62
     7
 10
-31.58459019328851
 20
13.55937781830868
 30
0.0
 11
-30.18450338808297
 21
13.55937781830868
 31
0.0
  0
LINE
  5
2F5
  8
新図面
  6
CONTINUOUS
 62
     7
 10
-30.18450338808297
 20
13.55937781830868
 30
0.0
 11
-30.18450338808297
 21
12.15998003220015
 31
0.0
  0
LINE
  5
2F6
  8
新図面
  6
CONTINUOUS
 62
     7
 10
-30.18450338808297
 20
14.25942122091148
 30
0.0
 11
-31.58459019328851
 21
14.25942122091148
 31
0.0
  0
LINE
  5
2F7
  8
新図面
  6
CONTINUOUS
 62
     7
 10
-30.18450338808297
 20
12.15998003220015
 30
0.0
 11
-29.48514900457725
 21
12.15998003220015
 31
0.0
  0
LINE
  5
2F8
  8
新図面
  6
CONTINUOUS
 62
     7
 10
-31.58459019328851
 20
14.25942122091148
 30
0.0
 11
-31.58459019328851
 21
13.55937781830868
 31
0.0
  0
LINE
  5
2F9
  8
新図面
  6
CONTINUOUS
 62
     7
 10
-29.48514900457725
 20
13.55937781830868
 30
0.0
 11
-28.08540670892025
 21
13.55937781830868
 31
0.0
  0
LINE
  5
2FA
  8
新図面
  6
CONTINUOUS
 62
     7
 10
-29.48514900457725
 20
12.15998003220015
 30
0.0
 11
-29.48514900457725
 21
13.55937781830868
 31
0.0
  0
POLYLINE
  5
2FB
  8
新図面
  6
CONTINUOUS
 62
     7
 66
     1
 10
0.0
 20
0.0
 30
0.0
  0
VERTEX
  5
2FC
  8
新図面
  6
CONTINUOUS
 62
     7
 10
-32.73559680228112
 20
13.90871021068087
 30
0.0
 42
0.0499044325815328
  0
VERTEX
  5
2FD
  8
新図面
  6
CONTINUOUS
 62
     7
 10
-32.67777331672546
 20
13.33081085451086
 30
0.0
 42
0.0503220382242826
  0
VERTEX
  5
2FE
  8
新図面
  6
CONTINUOUS
 62
     7
 10
-32.50756380228113
 20
12.78059221068087
 30
0.0
 42
0.072348831448956
  0
VERTEX
  5
2FF
  8
新図面
  6
CONTINUOUS
 62
     7
 10
-32.07554825194646
 20
12.06801235607772
 30
0.0
 42
0.0720507474004973
  0
VERTEX
  5
300
  8
新図面
  6
CONTINUOUS
 62
     7
 10
-31.45623580228113
 20
11.50537921068086
 30
0.0
 42
0.0744966378231444
  0
VERTEX
  5
301
  8
新図面
  6
CONTINUOUS
 62
     7
 10
-30.68401697900201
 20
11.13719322017279
 30
0.0
 42
0.0741829830171801
  0
VERTEX
  5
302
  8
新図面
  6
CONTINUOUS
 62
     7
 10
-29.83379280228112
 20
11.01035121068087
 30
0.0
 42
0.0498328430577483
  0
VERTEX
  5
303
  8
新図面
  6
CONTINUOUS
 62
     7
 10
-29.25564507042522
 20
11.06811614943227
 30
0.0
 42
0.0502692450800836
  0
VERTEX
  5
304
  8
新図面
  6
CONTINUOUS
 62
     7
 10
-28.70527680228113
 20
11.23813621068085
 30
0.0
 42
0.0723042898775152
  0
VERTEX
  5
305
  8
新図面
  6
CONTINUOUS
 62
     7
 10
-27.99245630355178
 20
11.66972871534516
 30
0.0
 42
0.07206955945197
  0
VERTEX
  5
306
  8
新図面
  6
CONTINUOUS
 62
     7
 10
-27.42980980228113
 20
12.28826621068087
 30
0.0
 42
0.0365292365756448
  0
VERTEX
  5
307
  8
新図面
  6
CONTINUOUS
 62
     7
 10
-27.21930362348519
 20
12.6549017195223
 30
0.0
 42
0.0366620025317446
  0
VERTEX
  5
308
  8
新図面
  6
CONTINUOUS
 62
     7
 10
-27.06506580228114
 20
13.04687421068085
 30
0.0
 42
0.0378957071278013
  0
VERTEX
  5
309
  8
新図面
  6
CONTINUOUS
 62
     7
 10
-26.96767048228344
 20
13.47077960482109
 30
0.0
 42
0.037538306815147
  0
VERTEX
  5
30A
  8
新図面
  6
CONTINUOUS
 62
     7
 10
-26.93474580228113
 20
13.90871021068087
 30
0.0
 42
0.0497837428085919
  0
VERTEX
  5
30B
  8
新図面
  6
CONTINUOUS
 62
     7
 10
-26.99252963662215
 20
14.48762029676438
 30
0.0
 42
0.050249845717798
  0
VERTEX
  5
30C
  8
新図面
  6
CONTINUOUS
 62
     7
 10
-27.16254180228113
 20
15.03842121068085
 30
0.0
 42
0.0483019352380882
  0
VERTEX
  5
30D
  8
新図面
  6
CONTINUOUS
 62
     7
 10
-27.4279335413153
 20
15.52848334927604
 30
0.0
 42
0.0481094831038789
  0
VERTEX
  5
30E
  8
新図面
  6
CONTINUOUS
 62
     7
 10
-27.78378880228114
 20
15.96052321068088
 30
0.0
 42
0.0481104791287668
  0
VERTEX
  5
30F
  8
新図面
  6
CONTINUOUS
 62
     7
 10
-28.21556513270181
 20
16.31651923444558
 30
0.0
 42
0.0483307035344021
  0
VERTEX
  5
310
  8
新図面
  6
CONTINUOUS
 62
     7
 10
-28.70527680228113
 20
16.58199621068086
 30
0.0
 42
0.0502857245598302
  0
VERTEX
  5
311
  8
新図面
  6
CONTINUOUS
 62
     7
 10
-29.25558369880464
 20
16.75204166275428
 30
0.0
 42
0.0498425303835746
  0
VERTEX
  5
312
  8
新図面
  6
CONTINUOUS
 62
     7
 10
-29.83379280228112
 20
16.80982521068087
 30
0.0
 42
0.0498036079067787
  0
VERTEX
  5
313
  8
新図面
  6
CONTINUOUS
 62
     7
 10
-30.41256958314196
 20
16.75203151551726
 30
0.0
 42
0.050241830875615
  0
VERTEX
  5
314
  8
新図面
  6
CONTINUOUS
 62
     7
 10
-30.96332180228113
 20
16.58199621068086
 30
0.0
 42
0.0723273427605605
  0
VERTEX
  5
315
  8
新図面
  6
CONTINUOUS
 62
     7
 10
-31.67700521607487
 20
16.15005935748194
 30
0.0
 42
0.0720880213433273
  0
VERTEX
  5
316
  8
新図面
  6
CONTINUOUS
 62
     7
 10
-32.24002380228113
 20
15.53123721068086
 30
0.0
 42
0.0365585970750774
  0
VERTEX
  5
317
  8
新図面
  6
CONTINUOUS
 62
     7
 10
-32.45078613812343
 20
15.16415877683831
 30
0.0
 42
0.0366632961905854
  0
VERTEX
  5
318
  8
新図面
  6
CONTINUOUS
 62
     7
 10
-32.60514080228113
 20
14.77182321068086
 30
0.0
 42
0.0379005389387342
  0
VERTEX
  5
319
  8
新図面
  6
CONTINUOUS
 62
     7
 10
-32.70263759166207
 20
14.34733825516689
 30
0.0
 42
0.0375182934417077
  0
VERTEX
  5
31A
  8
新図面
  6
CONTINUOUS
 62
     7
 10
-32.73559680228112
 20
13.90871021059307
 30
0.0
  0
SEQEND
  5
31B
  8
新図面
  6
CONTINUOUS
 62
     7
  0
POLYLINE
  5
31C
  8
新図面
  6
CONTINUOUS
 62
     7
 66
     1
 10
0.0
 20
0.0
 30
0.0
  0
VERTEX
  5
31D
  8
新図面
  6
CONTINUOUS
 62
     7
 10
-32.38557580228112
 20
74.90929321068087
 30
0.0
 42
0.0498807738518106
  0
VERTEX
  5
31E
  8
新図面
  6
CONTINUOUS
 62
     7
 10
-32.33473109291494
 20
74.40089890205819
 30
0.0
 42
0.0502911043297409
  0
VERTEX
  5
31F
  8
新図面
  6
CONTINUOUS
 62
     7
 10
-32.18505480228113
 20
73.91678821068088
 30
0.0
 42
0.0723060128963319
  0
VERTEX
  5
320
  8
新図面
  6
CONTINUOUS
 62
     7
 10
-31.80516513519231
 20
73.28975613312294
 30
0.0
 42
0.0720512204914704
  0
VERTEX
  5
321
  8
新図面
  6
CONTINUOUS
 62
     7
 10
-31.26055280228113
 20
72.79460021068085
 30
0.0
 42
0.0745431905162331
  0
VERTEX
  5
322
  8
新図面
  6
CONTINUOUS
 62
     7
 10
-30.58128333410193
 20
72.4704832495632
 30
0.0
 42
0.0742344755585599
  0
VERTEX
  5
323
  8
新図面
  6
CONTINUOUS
 62
     7
 10
-29.83379280228112
 20
72.35888921068086
 30
0.0
 42
0.0498796374781382
  0
VERTEX
  5
324
  8
新図面
  6
CONTINUOUS
 62
     7
 10
-29.32547723511164
 20
72.40972488115237
 30
0.0
 42
0.0503054579985319
  0
VERTEX
  5
325
  8
新図面
  6
CONTINUOUS
 62
     7
 10
-28.84144980228113
 20
72.55938821068086
 30
0.0
 42
0.0723139946904809
  0
VERTEX
  5
326
  8
新図面
  6
CONTINUOUS
 62
     7
 10
-28.21469255793988
 20
72.93917136629052
 30
0.0
 42
0.0720487919902707
  0
VERTEX
  5
327
  8
新図面
  6
CONTINUOUS
 62
     7
 10
-27.71980680228113
 20
73.48357521068085
 30
0.0
 42
0.0745258808074809
  0
VERTEX
  5
328
  8
新図面
  6
CONTINUOUS
 62
     7
 10
-27.39591933849793
 20
74.1624371578316
 30
0.0
 42
0.074232473320408
  0
VERTEX
  5
329
  8
新図面
  6
CONTINUOUS
 62
     7
 10
-27.28442280228113
 20
74.90929321068087
 30
0.0
 42
0.0498364925626099
  0
VERTEX
  5
32A
  8
新図面
  6
CONTINUOUS
 62
     7
 10
-27.33522066757725
 20
75.41767268576176
 30
0.0
 42
0.0502614721695434
  0
VERTEX
  5
32B
  8
新図面
  6
CONTINUOUS
 62
     7
 10
-27.48475980228113
 20
75.90174421068086
 30
0.0
 42
0.0482824212999551
  0
VERTEX
  5
32C
  8
新図面
  6
CONTINUOUS
 62
     7
 10
-27.71811946334476
 20
76.33243079425172
 30
0.0
 42
0.0480797845029478
  0
VERTEX
  5
32D
  8
新図面
  6
CONTINUOUS
 62
     7
 10
-28.03110380228112
 20
76.71232721068087
 30
0.0
 42
0.0480814023515934
  0
VERTEX
  5
32E
  8
新図面
  6
CONTINUOUS
 62
     7
 10
-28.41084303499396
 20
77.02541809973205
 30
0.0
 42
0.0483109650785899
  0
VERTEX
  5
32F
  8
新図面
  6
CONTINUOUS
 62
     7
 10
-28.84144980228113
 20
77.25890721068087
 30
0.0
 42
0.0502943513460212
  0
VERTEX
  5
330
  8
新図面
  6
CONTINUOUS
 62
     7
 10
-29.32544675287572
 20
77.40852535422643
 30
0.0
 42
0.0498675444213555
  0
VERTEX
  5
331
  8
新図面
  6
CONTINUOUS
 62
     7
 10
-29.83379280228112
 20
77.45935321068087
 30
0.0
 42
0.0498261258946795
  0
VERTEX
  5
332
  8
新図面
  6
CONTINUOUS
 62
     7
 10
-30.34270193683152
 20
77.40851305151052
 30
0.0
 42
0.050251445060118
  0
VERTEX
  5
333
  8
新図面
  6
CONTINUOUS
 62
     7
 10
-30.82709480228112
 20
77.25890721068087
 30
0.0
 42
0.0722829808285886
  0
VERTEX
  5
334
  8
新図面
  6
CONTINUOUS
 62
     7
 10
-31.45454389711995
 20
76.8791278476853
 30
0.0
 42
0.072062810847906
  0
VERTEX
  5
335
  8
新図面
  6
CONTINUOUS
 62
     7
 10
-31.94979180228111
 20
76.33490221068085
 30
0.0
 42
0.0745791612346071
  0
VERTEX
  5
336
  8
新図面
  6
CONTINUOUS
 62
     7
 10
-32.27397691922062
 20
75.65610128933234
 30
0.0
 42
0.0743041917689823
  0
VERTEX
  5
337
  8
新図面
  6
CONTINUOUS
 62
     7
 10
-32.38557580228112
 20
74.90929321076062
 30
0.0
  0
SEQEND
  5
338
  8
新図面
  6
CONTINUOUS
 62
     7
  0
POLYLINE
  5
339
  8
新図面
  6
CONTINUOUS
 62
     7
 66
     1
 10
0.0
 20
0.0
 30
0.0
  0
VERTEX
  5
33A
  8
新図面
  6
CONTINUOUS
 62
     7
 10
-164.3840638022811
 20
74.90929321068087
 30
0.0
 42
0.0498388039131922
  0
VERTEX
  5
33B
  8
新図面
  6
CONTINUOUS
 62
     7
 10
-164.333260141068
 20
74.40087942768328
 30
0.0
 42
0.0502616897830441
  0
VERTEX
  5
33C
  8
新図面
  6
CONTINUOUS
 62
     7
 10
-164.1837098022811
 20
73.91678821068088
 30
0.0
 42
0.0722939428572547
  0
VERTEX
  5
33D
  8
新図面
  6
CONTINUOUS
 62
     7
 10
-163.8040438893349
 20
73.289689226202
 30
0.0
 42
0.072068147046823
  0
VERTEX
  5
33E
  8
新図面
  6
CONTINUOUS
 62
     7
 10
-163.2598318022811
 20
72.79460021068085
 30
0.0
 42
0.0745778198212618
  0
VERTEX
  5
33F
  8
新図面
  6
CONTINUOUS
 62
     7
 10
-162.5809396357953
 20
72.47050023139177
 30
0.0
 42
0.0742664141131835
  0
VERTEX
  5
340
  8
新図面
  6
CONTINUOUS
 62
     7
 10
-161.8336588022811
 20
72.35888921068086
 30
0.0
 42
0.0498796374766546
  0
VERTEX
  5
341
  8
新図面
  6
CONTINUOUS
 62
     7
 10
-161.3253432351265
 20
72.40972488114936
 30
0.0
 42
0.0503054579999893
  0
VERTEX
  5
342
  8
新図面
  6
CONTINUOUS
 62
     7
 10
-160.8413158022811
 20
72.55938821068086
 30
0.0
 42
0.0723139946896314
  0
VERTEX
  5
343
  8
新図面
  6
CONTINUOUS
 62
     7
 10
-160.2145585579465
 20
72.93917136628505
 30
0.0
 42
0.0720487919911296
  0
VERTEX
  5
344
  8
新図面
  6
CONTINUOUS
 62
     7
 10
-159.7196728022811
 20
73.48357521068085
 30
0.0
 42
0.0745258808064355
  0
VERTEX
  5
345
  8
新図面
  6
CONTINUOUS
 62
     7
 10
-159.395785338501
 20
74.16243715782151
 30
0.0
 42
0.0742324733214547
  0
VERTEX
  5
346
  8
新図面
  6
CONTINUOUS
 62
     7
 10
-159.2842888022811
 20
74.90929321068087
 30
0.0
 42
0.0498364925623775
  0
VERTEX
  5
347
  8
新図面
  6
CONTINUOUS
 62
     7
 10
-159.3350866675768
 20
75.41767268575943
 30
0.0
 42
0.0502614721697666
  0
VERTEX
  5
348
  8
新図面
  6
CONTINUOUS
 62
     7
 10
-159.4846258022811
 20
75.90174421068086
 30
0.0
 42
0.0482824213005814
  0
VERTEX
  5
349
  8
新図面
  6
CONTINUOUS
 62
     7
 10
-159.7179854633483
 20
76.33243079425698
 30
0.0
 42
0.0480797845023148
  0
VERTEX
  5
34A
  8
新図面
  6
CONTINUOUS
 62
     7
 10
-160.0309698022811
 20
76.71232721068087
 30
0.0
 42
0.048081402351531
  0
VERTEX
  5
34B
  8
新図面
  6
CONTINUOUS
 62
     7
 10
-160.4107090349934
 20
77.02541809973171
 30
0.0
 42
0.0483109650786568
  0
VERTEX
  5
34C
  8
新図面
  6
CONTINUOUS
 62
     7
 10
-160.8413158022811
 20
77.25890721068089
 30
0.0
 42
0.0502943513454945
  0
VERTEX
  5
34D
  8
新図面
  6
CONTINUOUS
 62
     7
 10
-161.3253127528705
 20
77.40852535422538
 30
0.0
 42
0.0498675444218849
  0
VERTEX
  5
34E
  8
新図面
  6
CONTINUOUS
 62
     7
 10
-161.8336588022811
 20
77.45935321068087
 30
0.0
 42
0.0498463318827663
  0
VERTEX
  5
34F
  8
新図面
  6
CONTINUOUS
 62
     7
 10
-162.3424534054071
 20
77.40850377799693
 30
0.0
 42
0.0502739219425092
  0
VERTEX
  5
350
  8
新図面
  6
CONTINUOUS
 62
     7
 10
-162.8266008022811
 20
77.25890721068087
 30
0.0
 42
0.0723183890123108
  0
VERTEX
  5
351
  8
新図面
  6
CONTINUOUS
 62
     7
 10
-163.4536903195448
 20
76.87913873936957
 30
0.0
 42
0.0720695296773838
  0
VERTEX
  5
352
  8
新図面
  6
CONTINUOUS
 62
     7
 10
-163.9486248022811
 20
76.33490221068087
 30
0.0
 42
0.0745501230111185
  0
VERTEX
  5
353
  8
新図面
  6
CONTINUOUS
 62
     7
 10
-164.2725366754859
 20
75.65618599697713
 30
0.0
 42
0.0742483801873551
  0
VERTEX
  5
354
  8
新図面
  6
CONTINUOUS
 62
     7
 10
-164.3840638022811
 20
74.90929321071037
 30
0.0
  0
SEQEND
  5
355
  8
新図面
  6
CONTINUOUS
 62
     7
  0
POLYLINE
  5
356
  8
新図面
  6
CONTINUOUS
 62
     7
 66
     1
 10
0.0
 20
0.0
 30
0.0
  0
VERTEX
  5
357
  8
新図面
  6
CONTINUOUS
 62
     7
 10
-164.3840638022811
 20
-58.58884578931914
 30
0.0
 42
0.0497895493764071
  0
VERTEX
  5
358
  8
新図面
  6
CONTINUOUS
 62
     7
 10
-164.3332328253951
 20
-59.09803865778908
 30
0.0
 42
0.050244239702376
  0
VERTEX
  5
359
  8
新図面
  6
CONTINUOUS
 62
     7
 10
-164.1837098022811
 20
-59.58243878931915
 30
0.0
 42
0.0723264908436824
  0
VERTEX
  5
35A
  8
新図面
  6
CONTINUOUS
 62
     7
 10
-163.8039663631438
 20
-60.20995034067934
 30
0.0
 42
0.0721077852895241
  0
VERTEX
  5
35B
  8
新図面
  6
CONTINUOUS
 62
     7
 10
-163.2598318022811
 20
-60.70502578931914
 30
0.0
 42
0.0745859846373799
  0
VERTEX
  5
35C
  8
新図面
  6
CONTINUOUS
 62
     7
 10
-162.581117183022
 20
-61.02901045683652
 30
0.0
 42
0.074253113281477
  0
VERTEX
  5
35D
  8
新図面
  6
CONTINUOUS
 62
     7
 10
-161.8336588022811
 20
-61.14062778931914
 30
0.0
 42
0.0498610766934609
  0
VERTEX
  5
35E
  8
新図面
  6
CONTINUOUS
 62
     7
 10
-161.3252815179063
 20
-61.08980495978112
 30
0.0
 42
0.0503018578902084
  0
VERTEX
  5
35F
  8
新図面
  6
CONTINUOUS
 62
     7
 10
-160.8413158022811
 20
-60.94020378931915
 30
0.0
 42
0.0723564924576535
  0
VERTEX
  5
360
  8
新図面
  6
CONTINUOUS
 62
     7
 10
-160.2144717879807
 20
-60.56037256464657
 30
0.0
 42
0.0720803419981235
  0
VERTEX
  5
361
  8
新図面
  6
CONTINUOUS
 62
     7
 10
-159.7196728022811
 20
-60.01590878931914
 30
0.0
 42
0.074539153409396
  0
VERTEX
  5
362
  8
新図面
  6
CONTINUOUS
 62
     7
 10
-159.395844229428
 20
-59.33676258660142
 30
0.0
 42
0.0741673014552594
  0
VERTEX
  5
363
  8
新図面
  6
CONTINUOUS
 62
     7
 10
-159.2842888022811
 20
-58.58884578931914
 30
0.0
 42
0.0498599298342779
  0
VERTEX
  5
364
  8
新図面
  6
CONTINUOUS
 62
     7
 10
-159.3350864683002
 20
-58.08070846793146
 30
0.0
 42
0.0502760882627094
  0
VERTEX
  5
365
  8
新図面
  6
CONTINUOUS
 62
     7
 10
-159.4846258022811
 20
-57.59684678931912
 30
0.0
 42
0.0482902820600793
  0
VERTEX
  5
366
  8
新図面
  6
CONTINUOUS
 62
     7
 10
-159.7179736271821
 20
-57.16635437214345
 30
0.0
 42
0.0480806307653094
  0
VERTEX
  5
367
  8
新図面
  6
CONTINUOUS
 62
     7
 10
-160.0309698022811
 20
-56.78658678931913
 30
0.0
 42
0.0480773709141848
  0
VERTEX
  5
368
  8
新図面
  6
CONTINUOUS
 62
     7
 10
-160.4107125216075
 20
-56.47360693589135
 30
0.0
 42
0.0482984132115028
  0
VERTEX
  5
369
  8
新図面
  6
CONTINUOUS
 62
     7
 10
-160.8413158022811
 20
-56.24020078931913
 30
0.0
 42
0.0502809340575751
  0
VERTEX
  5
36A
  8
新図面
  6
CONTINUOUS
 62
     7
 10
-161.3253208621952
 20
-56.09062944092851
 30
0.0
 42
0.0498513370243074
  0
VERTEX
  5
36B
  8
新図面
  6
CONTINUOUS
 62
     7
 10
-161.8336588022811
 20
-56.03981978931914
 30
0.0
 42
0.0498310666594622
  0
VERTEX
  5
36C
  8
新図面
  6
CONTINUOUS
 62
     7
 10
-162.3424583834711
 20
-56.09065406940277
 30
0.0
 42
0.0502587940176441
  0
VERTEX
  5
36D
  8
新図面
  6
CONTINUOUS
 62
     7
 10
-162.8266008022811
 20
-56.24020078931913
 30
0.0
 42
0.0723093588592308
  0
VERTEX
  5
36E
  8
新図面
  6
CONTINUOUS
 62
     7
 10
-163.4537618377288
 20
-56.61989456740972
 30
0.0
 42
0.072061923571139
  0
VERTEX
  5
36F
  8
新図面
  6
CONTINUOUS
 62
     7
 10
-163.9486248022811
 20
-57.16386578931913
 30
0.0
 42
0.0745583247795696
  0
VERTEX
  5
370
  8
新図面
  6
CONTINUOUS
 62
     7
 10
-164.272525942881
 20
-57.84226666252327
 30
0.0
 42
0.0742866120563644
  0
VERTEX
  5
371
  8
新図面
  6
CONTINUOUS
 62
     7
 10
-164.3840638022811
 20
-58.58884578938874
 30
0.0
  0
SEQEND
  5
372
  8
新図面
  6
CONTINUOUS
 62
     7
  0
POLYLINE
  5
373
  8
新図面
  6
CONTINUOUS
 62
     7
 66
     1
 10
0.0
 20
0.0
 30
0.0
  0
VERTEX
  5
374
  8
新図面
  6
CONTINUOUS
 62
     7
 10
-32.38557580228112
 20
-58.58884578931914
 30
0.0
 42
0.0498303050635127
  0
VERTEX
  5
375
  8
新図面
  6
CONTINUOUS
 62
     7
 10
-32.33470612533384
 20
-59.09800747775388
 30
0.0
 42
0.0502748331477898
  0
VERTEX
  5
376
  8
新図面
  6
CONTINUOUS
 62
     7
 10
-32.18505480228113
 20
-59.58243878931914
 30
0.0
 42
0.0723395750047391
  0
VERTEX
  5
377
  8
新図面
  6
CONTINUOUS
 62
     7
 10
-31.80508120092207
 20
-60.20989114492194
 30
0.0
 42
0.0720898797176128
  0
VERTEX
  5
378
  8
新図面
  6
CONTINUOUS
 62
     7
 10
-31.26055280228113
 20
-60.70502578931914
 30
0.0
 42
0.0745565314480211
  0
VERTEX
  5
379
  8
新図面
  6
CONTINUOUS
 62
     7
 10
-30.58141074467861
 20
-61.02904280736972
 30
0.0
 42
0.0742159989237313
  0
VERTEX
  5
37A
  8
新図面
  6
CONTINUOUS
 62
     7
 10
-29.83379280228112
 20
-61.14062778931914
 30
0.0
 42
0.0498610766942008
  0
VERTEX
  5
37B
  8
新図面
  6
CONTINUOUS
 62
     7
 10
-29.32541551789889
 20
-61.08980495977963
 30
0.0
 42
0.0503018578894891
  0
VERTEX
  5
37C
  8
新図面
  6
CONTINUOUS
 62
     7
 10
-28.84144980228113
 20
-60.94020378931914
 30
0.0
 42
0.0723564924577985
  0
VERTEX
  5
37D
  8
新図面
  6
CONTINUOUS
 62
     7
 10
-28.21460578797954
 20
-60.56037256464562
 30
0.0
 42
0.0720803419979679
  0
VERTEX
  5
37E
  8
新図面
  6
CONTINUOUS
 62
     7
 10
-27.71980680228113
 20
-60.01590878931914
 30
0.0
 42
0.0745391534088212
  0
VERTEX
  5
37F
  8
新図面
  6
CONTINUOUS
 62
     7
 10
-27.39597822942972
 20
-59.33676258660695
 30
0.0
 42
0.0741673011847981
  0
VERTEX
  5
380
  8
新図面
  6
CONTINUOUS
 62
     7
 10
-27.28442280228113
 20
-58.58884578931914
 30
0.0
 42
0.0498599298328205
  0
VERTEX
  5
381
  8
新図面
  6
CONTINUOUS
 62
     7
 10
-27.33522046829724
 20
-58.0807084679461
 30
0.0
 42
0.0502760882641495
  0
VERTEX
  5
382
  8
新図面
  6
CONTINUOUS
 62
     7
 10
-27.48475980228113
 20
-57.59684678931913
 30
0.0
 42
0.0482907525268502
  0
VERTEX
  5
383
  8
新図面
  6
CONTINUOUS
 62
     7
 10
-27.71811029411485
 20
-57.16635041665442
 30
0.0
 42
0.0480801559335708
  0
VERTEX
  5
384
  8
新図面
  6
CONTINUOUS
 62
     7
 10
-28.03110380228112
 20
-56.78658678931913
 30
0.0
 42
0.0480747242542691
  0
VERTEX
  5
385
  8
新図面
  6
CONTINUOUS
 62
     7
 10
-28.41082421389099
 20
-56.47362196523112
 30
0.0
 42
0.0483010555074529
  0
VERTEX
  5
386
  8
新図面
  6
CONTINUOUS
 62
     7
 10
-28.84144980228113
 20
-56.24020078931913
 30
0.0
 42
0.050280934056687
  0
VERTEX
  5
387
  8
新図面
  6
CONTINUOUS
 62
     7
 10
-29.32545486218643
 20
-56.09062944093029
 30
0.0
 42
0.0498513370252114
  0
VERTEX
  5
388
  8
新図面
  6
CONTINUOUS
 62
     7
 10
-29.83379280228112
 20
-56.03981978931914
 30
0.0
 42
0.0498099311872872
  0
VERTEX
  5
389
  8
新図面
  6
CONTINUOUS
 62
     7
 10
-30.3426975954403
 20
-56.09064290842024
 30
0.0
 42
0.0502372599861916
  0
VERTEX
  5
38A
  8
新図面
  6
CONTINUOUS
 62
     7
 10
-30.82709480228112
 20
-56.24020078931913
 30
0.0
 42
0.0722740056231641
  0
VERTEX
  5
38B
  8
新図面
  6
CONTINUOUS
 62
     7
 10
-31.4546159576594
 20
-56.61990586904241
 30
0.0
 42
0.0720551235047354
  0
VERTEX
  5
38C
  8
新図面
  6
CONTINUOUS
 62
     7
 10
-31.94979180228113
 20
-57.16386578931913
 30
0.0
 42
0.0745876401684827
  0
VERTEX
  5
38D
  8
新図面
  6
CONTINUOUS
 62
     7
 10
-32.27396704214155
 20
-57.84235414262588
 30
0.0
 42
0.0743421601891123
  0
VERTEX
  5
38E
  8
新図面
  6
CONTINUOUS
 62
     7
 10
-32.38557580228112
 20
-58.58884578961869
 30
0.0
  0
SEQEND
  5
38F
  8
新図面
  6
CONTINUOUS
 62
     7
  0
POLYLINE
  5
390
  8
新図面
  6
CONTINUOUS
 62
     7
 66
     1
 10
0.0
 20
0.0
 30
0.0
  0
VERTEX
  5
391
  8
新図面
  6
CONTINUOUS
 62
     7
 10
-20.58267776114315
 20
-82.77065959250463
 30
0.0
  0
VERTEX
  5
392
  8
新図面
  6
CONTINUOUS
 62
     7
 10
-31.28624492426587
 20
-83.40214559495092
 30
0.0
  0
VERTEX
  5
393
  8
新図面
  6
CONTINUOUS
 62
     7
 10
-42.01151618894566
 20
-83.93854696200432
 30
0.0
  0
VERTEX
  5
394
  8
新図面
  6
CONTINUOUS
 62
     7
 10
-52.75504645969728
 20
-84.37676310772811
 30
0.0
  0
VERTEX
  5
395
  8
新図面
  6
CONTINUOUS
 62
     7
 10
-63.51339064103547
 20
-84.71679403212227
 30
0.0
  0
VERTEX
  5
396
  8
新図面
  6
CONTINUOUS
 62
     7
 10
-74.28069207063533
 20
-84.96174032112353
 30
0.0
  0
VERTEX
  5
397
  8
新図面
  6
CONTINUOUS
 62
     7
 10
-85.05522820075419
 20
-85.10850138879518
 30
0.0
  0
VERTEX
  5
398
  8
新図面
  6
CONTINUOUS
 62
     7
 10
-95.8345874645524
 20
-85.15638821604014
 30
0.0
  0
VERTEX
  5
399
  8
新図面
  6
CONTINUOUS
 62
     7
 10
-106.612224180608
 20
-85.10850138879518
 30
0.0
  0
VERTEX
  5
39A
  8
新図面
  6
CONTINUOUS
 62
     7
 10
-117.3877938393724
 20
-84.96174032112353
 30
0.0
  0
VERTEX
  5
39B
  8
新図面
  6
CONTINUOUS
 62
     7
 10
-128.1564733071664
 20
-84.71679403212227
 30
0.0
  0
VERTEX
  5
39C
  8
新図面
  6
CONTINUOUS
 62
     7
 10
-138.9134394503105
 20
-84.37676310772811
 30
0.0
  0
VERTEX
  5
39D
  8
新図面
  6
CONTINUOUS
 62
     7
 10
-149.656280701965
 20
-83.93854696200432
 30
0.0
  0
VERTEX
  5
39E
  8
新図面
  6
CONTINUOUS
 62
     7
 10
-160.3829300048389
 20
-83.40214559495092
 30
0.0
  0
VERTEX
  5
39F
  8
新図面
  6
CONTINUOUS
 62
     7
 10
-171.0858081488646
 20
-82.77065959250463
 30
0.0
  0
SEQEND
  5
3A0
  8
新図面
  6
CONTINUOUS
 62
     7
  0
POLYLINE
  5
3A1
  8
新図面
  6
CONTINUOUS
 62
     7
 66
     1
 10
0.0
 20
0.0
 30
0.0
  0
VERTEX
  5
3A2
  8
新図面
  6
CONTINUOUS
 62
     7
 10
-172.8348831267259
 20
-81.77709405455857
 30
0.0
  0
VERTEX
  5
3A3
  8
新図面
  6
CONTINUOUS
 62
     7
 10
-172.8011211909705
 20
-81.95761705798567
 30
0.0
  0
VERTEX
  5
3A4
  8
新図面
  6
CONTINUOUS
 62
     7
 10
-172.7046585173835
 20
-82.13159437999079
 30
0.0
  0
VERTEX
  5
3A5
  8
新図面
  6
CONTINUOUS
 62
     7
 10
-172.5479066728046
 20
-82.29248033915195
 30
0.0
  0
VERTEX
  5
3A6
  8
新図面
  6
CONTINUOUS
 62
     7
 10
-172.3346552622677
 20
-82.43820787817802
 30
0.0
  0
VERTEX
  5
3A7
  8
新図面
  6
CONTINUOUS
 62
     7
 10
-172.0731725149372
 20
-82.5618868060985
 30
0.0
  0
VERTEX
  5
3A8
  8
新図面
  6
CONTINUOUS
 62
     7
 10
-171.7713821504293
 20
-82.66007202742811
 30
0.0
  0
VERTEX
  5
3A9
  8
新図面
  6
CONTINUOUS
 62
     7
 10
-171.4389304361027
 20
-82.73069648487574
 30
0.0
  0
VERTEX
  5
3AA
  8
新図面
  6
CONTINUOUS
 62
     7
 10
-171.0858081488646
 20
-82.77065959250463
 30
0.0
  0
SEQEND
  5
3AB
  8
新図面
  6
CONTINUOUS
 62
     7
  0
LINE
  5
3AC
  8
新図面
  6
CONTINUOUS
 62
     7
 10
-172.8348831267259
 20
-81.77709405455857
 30
0.0
 11
-172.8348831267259
 21
-81.75125583841921
 31
0.0
  0
LINE
  5
3AD
  8
新図面
  6
CONTINUOUS
 62
     7
 10
-172.8348831267259
 20
-81.75125583841921
 30
0.0
 11
-172.3332772240736
 21
-81.75125583841921
 31
0.0
  0
LINE
  5
3AE
  8
新図面
  6
CONTINUOUS
 62
     7
 10
-19.33520868593419
 20
-75.3020370900315
 30
0.0
 11
-172.3332772240736
 21
-75.3020370900315
 31
0.0
  0
LINE
  5
3AF
  8
新図面
  6
CONTINUOUS
 62
     7
 10
-18.83463631192738
 20
-81.75125583841921
 30
0.0
 11
-19.33520868593419
 21
-81.75125583841921
 31
0.0
  0
LINE
  5
3B0
  8
新図面
  6
CONTINUOUS
 62
     7
 10
-18.83463631192738
 20
-81.77709405455857
 30
0.0
 11
-18.83463631192738
 21
-81.75125583841921
 31
0.0
  0
POLYLINE
  5
3B1
  8
新図面
  6
CONTINUOUS
 62
     7
 66
     1
 10
0.0
 20
0.0
 30
0.0
  0
VERTEX
  5
3B2
  8
新図面
  6
CONTINUOUS
 62
     7
 10
-20.58267776114315
 20
-82.77065959250463
 30
0.0
  0
VERTEX
  5
3B3
  8
新図面
  6
CONTINUOUS
 62
     7
 10
-20.23024449300209
 20
-82.73069648487574
 30
0.0
  0
VERTEX
  5
3B4
  8
新図面
  6
CONTINUOUS
 62
     7
 10
-19.89710375957843
 20
-82.66007202742811
 30
0.0
  0
VERTEX
  5
3B5
  8
新図面
  6
CONTINUOUS
 62
     7
 10
-19.59565790461907
 20
-82.5618868060985
 30
0.0
  0
VERTEX
  5
3B6
  8
新図面
  6
CONTINUOUS
 62
     7
 10
-19.33383064774009
 20
-82.43820787817802
 30
0.0
  0
VERTEX
  5
3B7
  8
新図面
  6
CONTINUOUS
 62
     7
 10
-19.12057923720312
 20
-82.29248033915195
 30
0.0
  0
VERTEX
  5
3B8
  8
新図面
  6
CONTINUOUS
 62
     7
 10
-18.96417190217278
 20
-82.13159437999079
 30
0.0
  0
VERTEX
  5
3B9
  8
新図面
  6
CONTINUOUS
 62
     7
 10
-18.86736471903725
 20
-81.95761705798567
 30
0.0
  0
VERTEX
  5
3BA
  8
新図面
  6
CONTINUOUS
 62
     7
 10
-18.83463631192738
 20
-81.77709405455857
 30
0.0
  0
SEQEND
  5
3BB
  8
新図面
  6
CONTINUOUS
 62
     7
  0
LINE
  5
3BC
  8
新図面
  6
CONTINUOUS
 62
     7
 10
-172.8348831267259
 20
-76.73657485008954
 30
0.0
 11
-172.3332772240736
 21
-76.73657485008954
 31
0.0
  0
LINE
  5
3BD
  8
新図面
  6
CONTINUOUS
 62
     7
 10
-172.3332772240736
 20
-76.73657485008954
 30
0.0
 11
-172.3332772240736
 21
-81.75125583841921
 31
0.0
  0
LINE
  5
3BE
  8
新図面
  6
CONTINUOUS
 62
     7
 10
-172.8348831267259
 20
-81.75125583841921
 30
0.0
 11
-172.8348831267259
 21
-76.73657485008954
 31
0.0
  0
LINE
  5
3BF
  8
新図面
  6
CONTINUOUS
 62
     7
 10
-19.33520868593419
 20
-76.73657485008954
 30
0.0
 11
-18.83463631192738
 21
-76.73657485008954
 31
0.0
  0
LINE
  5
3C0
  8
新図面
  6
CONTINUOUS
 62
     7
 10
-18.83463631192738
 20
-76.73657485008954
 30
0.0
 11
-18.83463631192738
 21
-81.75125583841921
 31
0.0
  0
LINE
  5
3C1
  8
新図面
  6
CONTINUOUS
 62
     7
 10
-19.33520868593419
 20
-81.75125583841921
 30
0.0
 11
-19.33520868593419
 21
-76.73657485008954
 31
0.0
  0
LINE
  5
3C2
  8
新図面
  6
CONTINUOUS
 62
     7
 10
-18.83463631192738
 20
-73.28011054973838
 30
0.0
 11
-19.33520868593419
 21
-73.28011054973838
 31
0.0
  0
LINE
  5
3C3
  8
新図面
  6
CONTINUOUS
 62
     7
 10
-18.83463631192738
 20
-73.28011054973838
 30
0.0
 11
-18.83463631192738
 21
-76.73657485008954
 31
0.0
  0
LINE
  5
3C4
  8
新図面
  6
CONTINUOUS
 62
     7
 10
-19.33520868593419
 20
-76.73657485008954
 30
0.0
 11
-19.33520868593419
 21
-73.28011054973838
 31
0.0
  0
LINE
  5
3C5
  8
新図面
  6
CONTINUOUS
 62
     7
 10
-172.3332772240736
 20
-73.28011054973838
 30
0.0
 11
-172.8348831267259
 21
-73.28011054973838
 31
0.0
  0
LINE
  5
3C6
  8
新図面
  6
CONTINUOUS
 62
     7
 10
-172.3332772240736
 20
-76.73657485008954
 30
0.0
 11
-172.3332772240736
 21
-73.28011054973838
 31
0.0
  0
LINE
  5
3C7
  8
新図面
  6
CONTINUOUS
 62
     7
 10
-172.8348831267259
 20
-73.28011054973838
 30
0.0
 11
-172.8348831267259
 21
-76.73657485008954
 31
0.0
  0
LINE
  5
3C8
  8
新図面
  6
CONTINUOUS
 62
     7
 10
-172.3332772240736
 20
-71.58925768557776
 30
0.0
 11
-172.8348831267259
 21
-71.58925768557776
 31
0.0
  0
LINE
  5
3C9
  8
新図面
  6
CONTINUOUS
 62
     7
 10
-172.3332772240736
 20
-73.28011054973838
 30
0.0
 11
-172.3332772240736
 21
-71.58925768557776
 31
0.0
  0
LINE
  5
3CA
  8
新図面
  6
CONTINUOUS
 62
     7
 10
-172.8348831267259
 20
-71.58925768557776
 30
0.0
 11
-172.8348831267259
 21
-73.28011054973838
 31
0.0
  0
LINE
  5
3CB
  8
新図面
  6
CONTINUOUS
 62
     7
 10
-18.83463631192738
 20
-71.58925768557776
 30
0.0
 11
-19.33520868593419
 21
-71.58925768557776
 31
0.0
  0
LINE
  5
3CC
  8
新図面
  6
CONTINUOUS
 62
     7
 10
-18.83463631192738
 20
-71.58925768557776
 30
0.0
 11
-18.83463631192738
 21
-73.28011054973838
 31
0.0
  0
LINE
  5
3CD
  8
新図面
  6
CONTINUOUS
 62
     7
 10
-19.33520868593419
 20
-73.28011054973838
 30
0.0
 11
-19.33520868593419
 21
-71.58925768557776
 31
0.0
  0
LINE
  5
3CE
  8
新図面
  6
CONTINUOUS
 62
     7
 10
-19.33520868593419
 20
-70.5901799948553
 30
0.0
 11
-18.83463631192738
 21
-70.5901799948553
 31
0.0
  0
LINE
  5
3CF
  8
新図面
  6
CONTINUOUS
 62
     7
 10
-18.83463631192738
 20
-70.5901799948553
 30
0.0
 11
-18.83463631192738
 21
-71.58925768557776
 31
0.0
  0
LINE
  5
3D0
  8
新図面
  6
CONTINUOUS
 62
     7
 10
-19.33520868593419
 20
-71.58925768557776
 30
0.0
 11
-19.33520868593419
 21
-70.5901799948553
 31
0.0
  0
LINE
  5
3D1
  8
新図面
  6
CONTINUOUS
 62
     7
 10
-172.8348831267259
 20
-70.5901799948553
 30
0.0
 11
-172.3332772240736
 21
-70.5901799948553
 31
0.0
  0
LINE
  5
3D2
  8
新図面
  6
CONTINUOUS
 62
     7
 10
-172.3332772240736
 20
-70.5901799948553
 30
0.0
 11
-172.3332772240736
 21
-71.58925768557776
 31
0.0
  0
LINE
  5
3D3
  8
新図面
  6
CONTINUOUS
 62
     7
 10
-172.8348831267259
 20
-71.58925768557776
 30
0.0
 11
-172.8348831267259
 21
-70.5901799948553
 31
0.0
  0
POLYLINE
  5
3D4
  8
新図面
  6
CONTINUOUS
 62
     7
 66
     1
 10
0.0
 20
0.0
 30
0.0
  0
VERTEX
  5
3D5
  8
新図面
  6
CONTINUOUS
 62
     7
 10
-170.8339708022811
 20
-68.58995778931914
 30
0.0
 42
0.0498579295935745
  0
VERTEX
  5
3D6
  8
新図面
  6
CONTINUOUS
 62
     7
 10
-171.2328151494279
 20
-68.62982800598544
 30
0.0
 42
0.0502546590293823
  0
VERTEX
  5
3D7
  8
新図面
  6
CONTINUOUS
 62
     7
 10
-171.6125738022811
 20
-68.74717278931915
 30
0.0
 42
0.1473677198662625
  0
VERTEX
  5
3D8
  8
新図面
  6
CONTINUOUS
 62
     7
 10
-172.5019021847484
 20
-69.48528127284281
 30
0.0
 42
0.1474096194209479
  0
VERTEX
  5
3D9
  8
新図面
  6
CONTINUOUS
 62
     7
 10
-172.8348828022811
 20
-70.59018078917262
 30
0.0
  0
SEQEND
  5
3DA
  8
新図面
  6
CONTINUOUS
 62
     7
  0
POLYLINE
  5
3DB
  8
新図面
  6
CONTINUOUS
 62
     7
 66
     1
 10
0.0
 20
0.0
 30
0.0
  0
VERTEX
  5
3DC
  8
新図面
  6
CONTINUOUS
 62
     7
 10
-18.83463680228112
 20
-70.59018078931913
 30
0.0
 42
0.0498633262151459
  0
VERTEX
  5
3DD
  8
新図面
  6
CONTINUOUS
 62
     7
 10
-18.87450927417667
 20
-70.19135726567815
 30
0.0
 42
0.0502736113570514
  0
VERTEX
  5
3DE
  8
新図面
  6
CONTINUOUS
 62
     7
 10
-18.99185180228113
 20
-69.81168578931914
 30
0.0
 42
0.0722917108658962
  0
VERTEX
  5
3DF
  8
新図面
  6
CONTINUOUS
 62
     7
 10
-19.28968015109938
 20
-69.31991536661486
 30
0.0
 42
0.0720550720017961
  0
VERTEX
  5
3E0
  8
新図面
  6
CONTINUOUS
 62
     7
 10
-19.71660180228113
 20
-68.93161578931914
 30
0.0
 42
0.0745608788267957
  0
VERTEX
  5
3E1
  8
新図面
  6
CONTINUOUS
 62
     7
 10
-20.24909265100224
 20
-68.67744072236835
 30
0.0
 42
0.074261605830865
  0
VERTEX
  5
3E2
  8
新図面
  6
CONTINUOUS
 62
     7
 10
-20.83485880228113
 20
-68.58995778931914
 30
0.0
  0
SEQEND
  5
3E3
  8
新図面
  6
CONTINUOUS
 62
     7
  0
LINE
  5
3E4
  8
新図面
  6
CONTINUOUS
 62
     7
 10
-20.83485875066344
 20
-68.58995755611926
 30
0.0
 11
-24.8346146090385
 21
-68.58995755611926
 31
0.0
  0
LINE
  5
3E5
  8
新図面
  6
CONTINUOUS
 62
     7
 10
-166.8342158105178
 20
-68.58995755611926
 30
0.0
 11
-170.8339716688928
 21
-68.58995755611926
 31
0.0
  0
LINE
  5
3E6
  8
新図面
  6
CONTINUOUS
 62
     7
 10
-45.45420010735583
 20
-68.58995755611926
 30
0.0
 11
-45.45420010735583
 21
84.90868335602697
 31
0.0
  0
POLYLINE
  5
3E7
  8
新図面
  6
DASHDOT
 62
     7
 66
     1
 10
0.0
 20
0.0
 30
0.0
  0
VERTEX
  5
3E8
  8
新図面
  6
DASHDOT
 62
     7
 10
-163.4838598022811
 20
74.90929321068087
 30
0.0
 42
0.0984040235553588
  0
VERTEX
  5
3E9
  8
新図面
  6
DASHDOT
 62
     7
 10
-163.358325945386
 20
74.27762052140541
 30
0.0
 42
0.0984512084281527
  0
VERTEX
  5
3EA
  8
新図面
  6
DASHDOT
 62
     7
 10
-163.0008578022811
 20
73.74213821068086
 30
0.0
 42
0.0481189705846377
  0
VERTEX
  5
3EB
  8
新図面
  6
DASHDOT
 62
     7
 10
-162.7550518357214
 20
73.53937348799279
 30
0.0
 42
0.0483305913550474
  0
VERTEX
  5
3EC
  8
新図面
  6
DASHDOT
 62
     7
 10
-162.4763638022811
 20
73.38821321068086
 30
0.0
 42
0.0503080314513074
  0
VERTEX
  5
3ED
  8
新図面
  6
DASHDOT
 62
     7
 10
-162.1630621029868
 20
73.29134307810354
 30
0.0
 42
0.0498758225114984
  0
VERTEX
  5
3EE
  8
新図面
  6
DASHDOT
 62
     7
 10
-161.8336588022811
 20
73.25840321068087
 30
0.0
 42
0.3032118587117934
  0
VERTEX
  5
3EF
  8
新図面
  6
DASHDOT
 62
     7
 10
-160.3103907659579
 20
74.2756743735094
 30
0.0
 42
0.3032847099823507
  0
VERTEX
  5
3F0
  8
新図面
  6
DASHDOT
 62
     7
 10
-160.6673648022811
 20
76.07601821068086
 30
0.0
 42
0.0480922475929587
  0
VERTEX
  5
3F1
  8
新図面
  6
DASHDOT
 62
     7
 10
-160.9130841201325
 20
76.27882287885608
 30
0.0
 42
0.0483242431005222
  0
VERTEX
  5
3F2
  8
新図面
  6
DASHDOT
 62
     7
 10
-161.1915528022811
 20
76.42998521068087
 30
0.0
 42
0.0503513431870372
  0
VERTEX
  5
3F3
  8
新図面
  6
DASHDOT
 62
     7
 10
-161.5047554085682
 20
76.52691752617865
 30
0.0
 42
0.0499216051757333
  0
VERTEX
  5
3F4
  8
新図面
  6
DASHDOT
 62
     7
 10
-161.8336588022811
 20
76.55983821068087
 30
0.0
 42
0.1988504074097181
  0
VERTEX
  5
3F5
  8
新図面
  6
DASHDOT
 62
     7
 10
-163.000076400712
 20
76.07685511266831
 30
0.0
 42
0.198974191950192
  0
VERTEX
  5
3F6
  8
新図面
  6
DASHDOT
 62
     7
 10
-163.4838598022811
 20
74.9092932104724
 30
0.0
  0
SEQEND
  5
3F7
  8
新図面
  6
DASHDOT
 62
     7
  0
POLYLINE
  5
3F8
  8
新図面
  6
DASHDOT
 62
     7
 66
     1
 10
0.0
 20
0.0
 30
0.0
  0
VERTEX
  5
3F9
  8
新図面
  6
DASHDOT
 62
     7
 10
-163.4838598022811
 20
-58.58884578931914
 30
0.0
 42
0.0497510576558076
  0
VERTEX
  5
3FA
  8
新図面
  6
DASHDOT
 62
     7
 10
-163.4509873231196
 20
-58.91839772054156
 30
0.0
 42
0.0502389882776147
  0
VERTEX
  5
3FB
  8
新図面
  6
DASHDOT
 62
     7
 10
-163.3543028022811
 20
-59.23180278931913
 30
0.0
 42
0.0723585687344143
  0
VERTEX
  5
3FC
  8
新図面
  6
DASHDOT
 62
     7
 10
-163.1086795235574
 20
-59.63778660490086
 30
0.0
 42
0.0721544485933016
  0
VERTEX
  5
3FD
  8
新図面
  6
DASHDOT
 62
     7
 10
-162.7566888022811
 20
-59.95801178931913
 30
0.0
 42
0.0746000256326945
  0
VERTEX
  5
3FE
  8
新図面
  6
DASHDOT
 62
     7
 10
-162.3176111279453
 20
-60.16751529341592
 30
0.0
 42
0.0742032539539828
  0
VERTEX
  5
3FF
  8
新図面
  6
DASHDOT
 62
     7
 10
-161.8336588022811
 20
-60.23973578931914
 30
0.0
 42
0.0498359730691041
  0
VERTEX
  5
400
  8
新図面
  6
DASHDOT
 62
     7
 10
-161.5046293396305
 20
-60.20685912917079
 30
0.0
 42
0.0502988922299091
  0
VERTEX
  5
401
  8
新図面
  6
DASHDOT
 62
     7
 10
-161.1915528022811
 20
-60.11011878931913
 30
0.0
 42
0.0723790666247023
  0
VERTEX
  5
402
  8
新図面
  6
DASHDOT
 62
     7
 10
-160.786087268458
 20
-59.86446923362377
 30
0.0
 42
0.0721259293730914
  0
VERTEX
  5
403
  8
新図面
  6
DASHDOT
 62
     7
 10
-160.4660338022811
 20
-59.51224478931913
 30
0.0
 42
0.074544642303713
  0
VERTEX
  5
404
  8
新図面
  6
DASHDOT
 62
     7
 10
-160.2566526443872
 20
-59.07293450456895
 30
0.0
 42
0.0741223619596209
  0
VERTEX
  5
405
  8
新図面
  6
DASHDOT
 62
     7
 10
-160.1844918022811
 20
-58.58884578931914
 30
0.0
 42
0.0498023276817125
  0
VERTEX
  5
406
  8
新図面
  6
DASHDOT
 62
     7
 10
-160.2173446813784
 20
-58.25983109711682
 30
0.0
 42
0.0502588245989759
  0
VERTEX
  5
407
  8
新図面
  6
DASHDOT
 62
     7
 10
-160.3140328022811
 20
-57.94668578931913
 30
0.0
 42
0.0483052951565453
  0
VERTEX
  5
408
  8
新図面
  6
DASHDOT
 62
     7
 10
-160.4649691656405
 20
-57.66804953315199
 30
0.0
 42
0.0481047040413643
  0
VERTEX
  5
409
  8
新図面
  6
DASHDOT
 62
     7
 10
-160.6673648022811
 20
-57.42237978931914
 30
0.0
 42
0.0481242908068875
  0
VERTEX
  5
40A
  8
新図面
  6
DASHDOT
 62
     7
 10
-160.9130541420371
 20
-57.21986438180225
 30
0.0
 42
0.0483089839636233
  0
VERTEX
  5
40B
  8
新図面
  6
DASHDOT
 62
     7
 10
-161.1915528022811
 20
-57.06892878931912
 30
0.0
 42
0.0502835701274676
  0
VERTEX
  5
40C
  8
新図面
  6
DASHDOT
 62
     7
 10
-161.5046606135688
 20
-56.97220164137987
 30
0.0
 42
0.0498264672763893
  0
VERTEX
  5
40D
  8
新図面
  6
DASHDOT
 62
     7
 10
-161.8336588022811
 20
-56.93933378931914
 30
0.0
 42
0.0497925701854588
  0
VERTEX
  5
40E
  8
新図面
  6
DASHDOT
 62
     7
 10
-162.1631024488527
 20
-56.9722230233868
 30
0.0
 42
0.0502517730661149
  0
VERTEX
  5
40F
  8
新図面
  6
DASHDOT
 62
     7
 10
-162.4763638022811
 20
-57.06892878931913
 30
0.0
 42
0.0723496705283613
  0
VERTEX
  5
410
  8
新図面
  6
DASHDOT
 62
     7
 10
-162.8821546950858
 20
-57.31454525396706
 30
0.0
 42
0.072120159833034
  0
VERTEX
  5
411
  8
新図面
  6
DASHDOT
 62
     7
 10
-163.2022638022811
 20
-57.66648778931913
 30
0.0
 42
0.074572122058806
  0
VERTEX
  5
412
  8
新図面
  6
DASHDOT
 62
     7
 10
-163.4117020826258
 20
-58.10541724027167
 30
0.0
 42
0.0742206339732595
  0
VERTEX
  5
413
  8
新図面
  6
DASHDOT
 62
     7
 10
-163.4838598022811
 20
-58.58884578937332
 30
0.0
  0
SEQEND
  5
414
  8
新図面
  6
DASHDOT
 62
     7
  0
POLYLINE
  5
415
  8
新図面
  6
DASHDOT
 62
     7
 66
     1
 10
0.0
 20
0.0
 30
0.0
  0
VERTEX
  5
416
  8
新図面
  6
DASHDOT
 62
     7
 10
-31.48399380228113
 20
-58.58884578931914
 30
0.0
 42
0.0497332710105855
  0
VERTEX
  5
417
  8
新図面
  6
DASHDOT
 62
     7
 10
-31.45113092485848
 20
-58.91841987295744
 30
0.0
 42
0.0502284617003429
  0
VERTEX
  5
418
  8
新図面
  6
DASHDOT
 62
     7
 10
-31.35448480228114
 20
-59.23180278931913
 30
0.0
 42
0.0723734939104488
  0
VERTEX
  5
419
  8
新図面
  6
DASHDOT
 62
     7
 10
-31.10887370870559
 20
-59.63784524345395
 30
0.0
 42
0.0721632636903929
  0
VERTEX
  5
41A
  8
新図面
  6
DASHDOT
 62
     7
 10
-30.75697480228114
 20
-59.95801178931913
 30
0.0
 42
0.0746123498731855
  0
VERTEX
  5
41B
  8
新図面
  6
DASHDOT
 62
     7
 10
-30.31793113116362
 20
-60.16749544305426
 30
0.0
 42
0.0741955805359133
  0
VERTEX
  5
41C
  8
新図面
  6
DASHDOT
 62
     7
 10
-29.83379280228112
 20
-60.23973578931914
 30
0.0
 42
0.0983622954891781
  0
VERTEX
  5
41D
  8
新図面
  6
DASHDOT
 62
     7
 10
-29.20377021357517
 20
-60.11458399194103
 30
0.0
 42
0.0986937273840028
  0
VERTEX
  5
41E
  8
新図面
  6
DASHDOT
 62
     7
 10
-28.66775780228113
 20
-59.75651778931913
 30
0.0
 42
0.0481088703508785
  0
VERTEX
  5
41F
  8
新図面
  6
DASHDOT
 62
     7
 10
-28.46527001285993
 20
-59.51066064937599
 30
0.0
 42
0.0482953005236818
  0
VERTEX
  5
420
  8
新図面
  6
DASHDOT
 62
     7
 10
-28.31426380228113
 20
-59.23180278931913
 30
0.0
 42
0.0502470877209579
  0
VERTEX
  5
421
  8
新図面
  6
DASHDOT
 62
     7
 10
-28.21751580587238
 20
-58.91835478464598
 30
0.0
 42
0.0497834530879384
  0
VERTEX
  5
422
  8
新図面
  6
DASHDOT
 62
     7
 10
-28.18462580228113
 20
-58.58884578931914
 30
0.0
 42
0.0498403482814535
  0
VERTEX
  5
423
  8
新図面
  6
DASHDOT
 62
     7
 10
-28.2175010287
 20
-58.25985970169859
 30
0.0
 42
0.0502789566104537
  0
VERTEX
  5
424
  8
新図面
  6
DASHDOT
 62
     7
 10
-28.31426380228115
 20
-57.94668578931913
 30
0.0
 42
0.0482968050975677
  0
VERTEX
  5
425
  8
新図面
  6
DASHDOT
 62
     7
 10
-28.46525122658385
 20
-57.66809794366085
 30
0.0
 42
0.0480920347142292
  0
VERTEX
  5
426
  8
新図面
  6
DASHDOT
 62
     7
 10
-28.66775780228113
 20
-57.42237978931914
 30
0.0
 42
0.0984007746702749
  0
VERTEX
  5
427
  8
新図面
  6
DASHDOT
 62
     7
 10
-29.20231524192741
 20
-57.06506109115867
 30
0.0
 42
0.0985814621847676
  0
VERTEX
  5
428
  8
新図面
  6
DASHDOT
 62
     7
 10
-29.83379280228112
 20
-56.93933378931914
 30
0.0
 42
0.0497800503257586
  0
VERTEX
  5
429
  8
新図面
  6
DASHDOT
 62
     7
 10
-30.1633461655382
 20
-56.9722256631552
 30
0.0
 42
0.050257046876837
  0
VERTEX
  5
42A
  8
新図面
  6
DASHDOT
 62
     7
 10
-30.47664280228113
 20
-57.06892878931913
 30
0.0
 42
0.0723555363260529
  0
VERTEX
  5
42B
  8
新図面
  6
DASHDOT
 62
     7
 10
-30.88236762938175
 20
-57.31449548077968
 30
0.0
 42
0.0721491143597337
  0
VERTEX
  5
42C
  8
新図面
  6
DASHDOT
 62
     7
 10
-31.20248880228112
 20
-57.66648778931913
 30
0.0
 42
0.0745672393281673
  0
VERTEX
  5
42D
  8
新図面
  6
DASHDOT
 62
     7
 10
-31.41185239667723
 20
-58.1053745989781
 30
0.0
 42
0.0741978806434182
  0
VERTEX
  5
42E
  8
新図面
  6
DASHDOT
 62
     7
 10
-31.48399380228113
 20
-58.58884578934
 30
0.0
  0
SEQEND
  5
42F
  8
新図面
  6
DASHDOT
 62
     7
  0
POLYLINE
  5
430
  8
新図面
  6
DASHDOT
 62
     7
 66
     1
 10
0.0
 20
0.0
 30
0.0
  0
VERTEX
  5
431
  8
新図面
  6
DASHDOT
 62
     7
 10
-31.48399380228113
 20
74.90929321068087
 30
0.0
 42
0.0984116312404573
  0
VERTEX
  5
432
  8
新図面
  6
DASHDOT
 62
     7
 10
-31.35839796702965
 20
74.27735846392507
 30
0.0
 42
0.0984255280700993
  0
VERTEX
  5
433
  8
新図面
  6
DASHDOT
 62
     7
 10
-31.00112080228112
 20
73.74213821068086
 30
0.0
 42
0.0481325533925953
  0
VERTEX
  5
434
  8
新図面
  6
DASHDOT
 62
     7
 10
-30.75534232614848
 20
73.53937756513388
 30
0.0
 42
0.0483425713504311
  0
VERTEX
  5
435
  8
新図面
  6
DASHDOT
 62
     7
 10
-30.47664280228113
 20
73.38821321068086
 30
0.0
 42
0.0503178082831925
  0
VERTEX
  5
436
  8
新図面
  6
DASHDOT
 62
     7
 10
-30.16327617356285
 20
73.29133977731483
 30
0.0
 42
0.0498585872062462
  0
VERTEX
  5
437
  8
新図面
  6
DASHDOT
 62
     7
 10
-29.83379280228112
 20
73.25840321068087
 30
0.0
 42
0.1989830091153776
  0
VERTEX
  5
438
  8
新図面
  6
DASHDOT
 62
     7
 10
-28.66819949294535
 20
73.74139336599451
 30
0.0
 42
0.1988418490316993
  0
VERTEX
  5
439
  8
新図面
  6
DASHDOT
 62
     7
 10
-28.18462580228113
 20
74.90929321068087
 30
0.0
 42
0.098409710570896
  0
VERTEX
  5
43A
  8
新図面
  6
DASHDOT
 62
     7
 10
-28.30998549534058
 20
75.54005236041506
 30
0.0
 42
0.098427695882863
  0
VERTEX
  5
43B
  8
新図面
  6
DASHDOT
 62
     7
 10
-28.66775780228114
 20
76.07601821068086
 30
0.0
 42
0.0984588836682558
  0
VERTEX
  5
43C
  8
新図面
  6
DASHDOT
 62
     7
 10
-29.20296254039519
 20
76.43412719240392
 30
0.0
 42
0.0986697626992539
  0
VERTEX
  5
43D
  8
新図面
  6
DASHDOT
 62
     7
 10
-29.83379280228112
 20
76.55983821068087
 30
0.0
 42
0.1988504060508162
  0
VERTEX
  5
43E
  8
新図面
  6
DASHDOT
 62
     7
 10
-31.00021039461002
 20
76.07685511876734
 30
0.0
 42
0.198974193254381
  0
VERTEX
  5
43F
  8
新図面
  6
DASHDOT
 62
     7
 10
-31.48399380228113
 20
74.90929321082466
 30
0.0
  0
SEQEND
  5
440
  8
新図面
  6
DASHDOT
 62
     7
  0
LINE
  5
441
  8
新図面
  6
DASHDOT
 62
     7
 10
-155.5842565034344
 20
75.10531964319996
 30
0.0
 11
-156.0841398583442
 21
75.10531964319996
 31
0.0
  0
LINE
  5
442
  8
新図面
  6
DASHDOT
 62
     7
 10
-36.08560744476742
 20
75.10531964319996
 30
0.0
 11
-35.58434605166357
 21
75.10531964319996
 31
0.0
  0
LINE
  5
443
  8
新図面
  6
DASHDOT
 62
     7
 10
-155.5842565034344
 20
82.00033374737897
 30
0.0
 11
-156.0841398583442
 21
82.00033374737897
 31
0.0
  0
LINE
  5
444
  8
新図面
  6
DASHDOT
 62
     7
 10
-155.5842565034344
 20
84.90868335602697
 30
0.0
 11
-155.5842565034344
 21
82.00033374737897
 31
0.0
  0
LINE
  5
445
  8
新図面
  6
DASHDOT
 62
     7
 10
-35.58434605166357
 20
82.00033374737897
 30
0.0
 11
-36.08560744476742
 21
82.00033374737897
 31
0.0
  0
LINE
  5
446
  8
新図面
  6
DASHDOT
 62
     7
 10
-36.08560744476742
 20
82.00033374737897
 30
0.0
 11
-36.08560744476742
 21
84.90868335602697
 31
0.0
  0
LINE
  5
447
  8
新図面
  6
DASHDOT
 62
     7
 10
-155.5842565034344
 20
75.10531964319996
 30
0.0
 11
-155.5842565034344
 21
82.00033374737897
 31
0.0
  0
LINE
  5
448
  8
新図面
  6
DASHDOT
 62
     7
 10
-36.08560744476742
 20
75.10531964319996
 30
0.0
 11
-36.08560744476742
 21
82.00033374737897
 31
0.0
  0
LINE
  5
449
  8
新図面
  6
DASHDOT
 62
     7
 10
-155.6834752534096
 20
82.40961109102666
 30
0.0
 11
-155.6834752534096
 21
79.40858841382557
 31
0.0
  0
LINE
  5
44A
  8
新図面
  6
DASHDOT
 62
     7
 10
-35.98535516614665
 20
82.40961109102666
 30
0.0
 11
-35.98535516614665
 21
79.40858841382557
 31
0.0
  0
LINE
  5
44B
  8
新図面
  6
DOT
 62
     7
 10
-152.5839228453303
 20
85.30865894186446
 30
0.0
 11
-151.083583761504
 21
85.30865894186446
 31
0.0
  0
LINE
  5
44C
  8
新図面
  6
DOT
 62
     7
 10
-154.0846064387052
 20
85.30865894186446
 30
0.0
 11
-152.5839228453303
 21
85.30865894186446
 31
0.0
  0
LINE
  5
44D
  8
新図面
  6
DOT
 62
     7
 10
-113.5840639141081
 20
85.30865894186446
 30
0.0
 11
-112.0837248302818
 21
85.30865894186446
 31
0.0
  0
LINE
  5
44E
  8
新図面
  6
DOT
 62
     7
 10
-115.0833694692888
 20
85.30865894186446
 30
0.0
 11
-113.5840639141081
 21
85.30865894186446
 31
0.0
  0
LINE
  5
44F
  8
新図面
  6
DOT
 62
     7
 10
-78.08476650544819
 20
85.30865894186446
 30
0.0
 11
-76.58511644071893
 21
85.30865894186446
 31
0.0
  0
LINE
  5
450
  8
新図面
  6
DOT
 62
     7
 10
-79.58476107972596
 20
85.30865894186446
 30
0.0
 11
-78.08476650544819
 21
85.30865894186446
 31
0.0
  0
LINE
  5
451
  8
新図面
  6
DOT
 62
     7
 10
-39.08559659332298
 20
85.30865894186446
 30
0.0
 11
-37.58387947130257
 21
85.30865894186446
 31
0.0
  0
LINE
  5
452
  8
新図面
  6
DOT
 62
     7
 10
-40.5849021485037
 20
85.30865894186446
 30
0.0
 11
-39.08559659332298
 21
85.30865894186446
 31
0.0
  0
LINE
  5
453
  8
新図面
  6
DASHDOT
 62
     7
 10
-155.5842565034344
 20
82.40961109102666
 30
0.0
 11
-155.6834752534096
 21
82.40961109102666
 31
0.0
  0
LINE
  5
454
  8
新図面
  6
DASHDOT
 62
     7
 10
-155.6834752534096
 20
79.40858841382557
 30
0.0
 11
-155.5842565034344
 21
79.40858841382557
 31
0.0
  0
LINE
  5
455
  8
新図面
  6
DASHDOT
 62
     7
 10
-36.08560744476742
 20
79.40858841382557
 30
0.0
 11
-35.98535516614665
 21
79.40858841382557
 31
0.0
  0
LINE
  5
456
  8
新図面
  6
DASHDOT
 62
     7
 10
-35.98535516614665
 20
82.40961109102666
 30
0.0
 11
-36.08560744476742
 21
82.40961109102666
 31
0.0
  0
LINE
  5
457
  8
新図面
  6
DOT
 62
     7
 10
-154.0846064387052
 20
85.40925573003376
 30
0.0
 11
-154.0846064387052
 21
85.30865894186446
 31
0.0
  0
LINE
  5
458
  8
新図面
  6
DOT
 62
     7
 10
-151.083583761504
 20
85.30865894186446
 30
0.0
 11
-151.083583761504
 21
85.40925573003376
 31
0.0
  0
LINE
  5
459
  8
新図面
  6
DOT
 62
     7
 10
-115.0833694692888
 20
85.40925573003376
 30
0.0
 11
-115.0833694692888
 21
85.30865894186446
 31
0.0
  0
LINE
  5
45A
  8
新図面
  6
DOT
 62
     7
 10
-112.0837248302818
 20
85.30865894186446
 30
0.0
 11
-112.0837248302818
 21
85.40925573003376
 31
0.0
  0
LINE
  5
45B
  8
新図面
  6
DOT
 62
     7
 10
-79.58476107972596
 20
85.40925573003376
 30
0.0
 11
-79.58476107972596
 21
85.30865894186446
 31
0.0
  0
LINE
  5
45C
  8
新図面
  6
DOT
 62
     7
 10
-76.58511644071893
 20
85.30865894186446
 30
0.0
 11
-76.58511644071893
 21
85.40925573003376
 31
0.0
  0
LINE
  5
45D
  8
新図面
  6
DOT
 62
     7
 10
-40.5849021485037
 20
85.40925573003376
 30
0.0
 11
-40.5849021485037
 21
85.30865894186446
 31
0.0
  0
LINE
  5
45E
  8
新図面
  6
DOT
 62
     7
 10
-37.58387947130257
 20
85.30865894186446
 30
0.0
 11
-37.58387947130257
 21
85.40925573003376
 31
0.0
  0
LINE
  5
45F
  8
新図面
  6
DASHDOT
 62
     7
 10
-173.2637975146395
 20
13.90871050051307
 30
0.0
 11
-17.97508498835755
 21
13.90871050051307
 31
0.0
  0
LINE
  5
460
  8
新図面
  6
DASHDOT
 62
     7
 10
-95.8345874645524
 20
13.91008853870717
 30
0.0
 11
-95.8345874645524
 21
-90.91348728144115
 31
0.0
  0
LINE
  5
461
  8
新図面
  6
DASHDOT
 62
     7
 10
-95.8345874645524
 20
13.91008853870717
 30
0.0
 11
-95.8345874645524
 21
93.84973966889585
 31
0.0
  0
LINE
  5
462
  8
新図面
  6
DASHDOT
 62
     7
 10
18.80682146946087
 20
13.90871050051307
 30
0.0
 11
142.8619538169193
 21
13.90871050051307
 31
0.0
  0
LINE
  5
463
  8
新図面
  6
CONTINUOUS
 62
     7
 10
22.31875180712457
 20
84.90868335602697
 30
0.0
 11
22.31875180712457
 21
-68.58995755611926
 31
0.0
  0
POLYLINE
  5
464
  8
新図面
  6
CONTINUOUS
 62
     7
 66
     1
 10
0.0
 20
0.0
 30
0.0
  0
VERTEX
  5
465
  8
新図面
  6
CONTINUOUS
 62
     7
 10
96.31940219771887
 20
-34.59031078931913
 30
0.0
 42
0.0654757022259551
  0
VERTEX
  5
466
  8
新図面
  6
CONTINUOUS
 62
     7
 10
94.24473880746878
 20
-34.86316059961381
 30
0.0
 42
0.0657237936457413
  0
VERTEX
  5
467
  8
新図面
  6
CONTINUOUS
 62
     7
 10
92.31895719771886
 20
-35.66104678931913
 30
0.0
  0
SEQEND
  5
468
  8
新図面
  6
CONTINUOUS
 62
     7
  0
POLYLINE
  5
469
  8
新図面
  6
CONTINUOUS
 62
     7
 66
     1
 10
0.0
 20
0.0
 30
0.0
  0
VERTEX
  5
46A
  8
新図面
  6
CONTINUOUS
 62
     7
 10
92.31895719771886
 20
63.48087821068087
 30
0.0
 42
0.0657028083982212
  0
VERTEX
  5
46B
  8
新図面
  6
CONTINUOUS
 62
     7
 10
94.24531395795474
 20
62.68266004418946
 30
0.0
 42
0.0654966658611691
  0
VERTEX
  5
46C
  8
新図面
  6
CONTINUOUS
 62
     7
 10
96.31940219771887
 20
62.40979821068088
 30
0.0
  0
SEQEND
  5
46D
  8
新図面
  6
CONTINUOUS
 62
     7
  0
POLYLINE
  5
46E
  8
新図面
  6
CONTINUOUS
 62
     7
 66
     1
 10
0.0
 20
0.0
 30
0.0
  0
VERTEX
  5
46F
  8
新図面
  6
CONTINUOUS
 62
     7
 10
139.8178671977189
 20
58.39901721068087
 30
0.0
 42
0.0378952296564388
  0
VERTEX
  5
470
  8
新図面
  6
CONTINUOUS
 62
     7
 10
139.7812513997717
 20
58.74143682609857
 30
0.0
 42
0.0338954232307052
  0
VERTEX
  5
471
  8
新図面
  6
CONTINUOUS
 62
     7
 10
139.6860041977189
 20
59.11438221068086
 30
0.0
 42
0.0253970407882714
  0
VERTEX
  5
472
  8
新図面
  6
CONTINUOUS
 62
     7
 10
139.5693795067264
 20
59.41632762229062
 30
0.0
 42
0.0229616741051665
  0
VERTEX
  5
473
  8
新図面
  6
CONTINUOUS
 62
     7
 10
139.4087661977189
 20
59.73623921068086
 30
0.0
 42
0.017834049814873
  0
VERTEX
  5
474
  8
新図面
  6
CONTINUOUS
 62
     7
 10
139.2508057624044
 20
59.99569739989249
 30
0.0
 42
0.0166048421234517
  0
VERTEX
  5
475
  8
新図面
  6
CONTINUOUS
 62
     7
 10
139.0623771977189
 20
60.26202721068086
 30
0.0
 42
0.0261266132077094
  0
VERTEX
  5
476
  8
新図面
  6
CONTINUOUS
 62
     7
 10
138.7025744941445
 20
60.68817072798883
 30
0.0
 42
0.0244457718068679
  0
VERTEX
  5
477
  8
新図面
  6
CONTINUOUS
 62
     7
 10
138.2740641977189
 20
61.10242521068086
 30
0.0
 42
0.0176782530257943
  0
VERTEX
  5
478
  8
新図面
  6
CONTINUOUS
 62
     7
 10
137.9326880328494
 20
61.38088950958283
 30
0.0
 42
0.0178058691904806
  0
VERTEX
  5
479
  8
新図面
  6
CONTINUOUS
 62
     7
 10
137.5751551977189
 20
61.63252921068086
 30
0.0
 42
0.0283775320780666
  0
VERTEX
  5
47A
  8
新図面
  6
CONTINUOUS
 62
     7
 10
136.9962940682151
 20
61.96468552740974
 30
0.0
 42
0.0314727371920576
  0
VERTEX
  5
47B
  8
新図面
  6
CONTINUOUS
 62
     7
 10
136.4422181977189
 20
62.19977821068085
 30
0.0
 42
0.0180734973141643
  0
VERTEX
  5
47C
  8
新図面
  6
CONTINUOUS
 62
     7
 10
136.147514622235
 20
62.29165441869002
 30
0.0
 42
0.0196923246989391
  0
VERTEX
  5
47D
  8
新図面
  6
CONTINUOUS
 62
     7
 10
135.8714441977189
 20
62.35533021068086
 30
0.0
 42
0.0222797690570769
  0
VERTEX
  5
47E
  8
新図面
  6
CONTINUOUS
 62
     7
 10
135.5828364926021
 20
62.39681187160035
 30
0.0
 42
0.024554161101836
  0
VERTEX
  5
47F
  8
新図面
  6
CONTINUOUS
 62
     7
 10
135.3185721977189
 20
62.40979821068088
 30
0.0
  0
SEQEND
  5
480
  8
新図面
  6
CONTINUOUS
 62
     7
  0
POLYLINE
  5
481
  8
新図面
  6
CONTINUOUS
 62
     7
 66
     1
 10
0.0
 20
0.0
 30
0.0
  0
VERTEX
  5
482
  8
新図面
  6
CONTINUOUS
 62
     7
 10
135.3185721977189
 20
-34.59031078931913
 30
0.0
 42
0.049855080185152
  0
VERTEX
  5
483
  8
新図面
  6
CONTINUOUS
 62
     7
 10
136.2156813555757
 20
-34.5006370045251
 30
0.0
 42
0.0502761206065339
  0
VERTEX
  5
484
  8
新図面
  6
CONTINUOUS
 62
     7
 10
137.0697791977188
 20
-34.23669278931915
 30
0.0
 42
0.0723075407475358
  0
VERTEX
  5
485
  8
新図面
  6
CONTINUOUS
 62
     7
 10
138.1761362999534
 20
-33.56664268370909
 30
0.0
 42
0.0720485021267029
  0
VERTEX
  5
486
  8
新図面
  6
CONTINUOUS
 62
     7
 10
139.0493821977189
 20
-32.60648778931913
 30
0.0
 42
0.0365228676580759
  0
VERTEX
  5
487
  8
新図面
  6
CONTINUOUS
 62
     7
 10
139.3761419177771
 20
-32.03733263983671
 30
0.0
 42
0.0366570444328155
  0
VERTEX
  5
488
  8
新図面
  6
CONTINUOUS
 62
     7
 10
139.6155631977189
 20
-31.42886178931915
 30
0.0
 42
0.0378935310812032
  0
VERTEX
  5
489
  8
新図面
  6
CONTINUOUS
 62
     7
 10
139.7667557701299
 20
-30.77081723152846
 30
0.0
 42
0.0375402996915587
  0
VERTEX
  5
48A
  8
新図面
  6
CONTINUOUS
 62
     7
 10
139.8178671977189
 20
-30.09101578902059
 30
0.0
  0
SEQEND
  5
48B
  8
新図面
  6
CONTINUOUS
 62
     7
  0
LINE
  5
48C
  8
新図面
  6
CONTINUOUS
 62
     7
 10
110.8184316895136
 20
62.40979827050587
 30
0.0
 11
96.31940283029108
 21
62.40979827050587
 31
0.0
  0
LINE
  5
48D
  8
新図面
  6
CONTINUOUS
 62
     7
 10
135.3185727424163
 20
62.40979827050587
 30
0.0
 11
127.8189443805759
 21
62.40979827050587
 31
0.0
  0
LINE
  5
48E
  8
新図面
  6
CONTINUOUS
 62
     7
 10
96.31940283029108
 20
-34.59031021218864
 30
0.0
 11
135.3185727424163
 21
-34.59031021218864
 31
0.0
  0
LINE
  5
48F
  8
新図面
  6
CONTINUOUS
 62
     7
 10
86.81817399152057
 20
16.80982540864186
 30
0.0
 11
85.51902848403286
 21
16.80982540864186
 31
0.0
  0
LINE
  5
490
  8
新図面
  6
CONTINUOUS
 62
     7
 10
85.51902848403286
 20
11.01035166877237
 30
0.0
 11
86.81817399152057
 21
11.01035166877237
 31
0.0
  0
POLYLINE
  5
491
  8
新図面
  6
CONTINUOUS
 62
     7
 66
     1
 10
0.0
 20
0.0
 30
0.0
  0
VERTEX
  5
492
  8
新図面
  6
CONTINUOUS
 62
     7
 10
84.51788319771886
 20
12.01046221068087
 30
0.0
 42
0.1989977454011874
  0
VERTEX
  5
493
  8
新図面
  6
CONTINUOUS
 62
     7
 10
84.81082730069049
 20
11.30356101979355
 30
0.0
 42
0.1988272009635648
  0
VERTEX
  5
494
  8
新図面
  6
CONTINUOUS
 62
     7
 10
85.51902819771887
 20
11.01035121068086
 30
0.0
  0
SEQEND
  5
495
  8
新図面
  6
CONTINUOUS
 62
     7
  0
POLYLINE
  5
496
  8
新図面
  6
CONTINUOUS
 62
     7
 66
     1
 10
0.0
 20
0.0
 30
0.0
  0
VERTEX
  5
497
  8
新図面
  6
CONTINUOUS
 62
     7
 10
85.51902819771887
 20
16.80982521068087
 30
0.0
 42
0.1989240895535793
  0
VERTEX
  5
498
  8
新図面
  6
CONTINUOUS
 62
     7
 10
84.8105629317554
 20
16.51635057029229
 30
0.0
 42
0.1989008799944195
  0
VERTEX
  5
499
  8
新図面
  6
CONTINUOUS
 62
     7
 10
84.51788319771886
 20
15.80971321071827
 30
0.0
  0
SEQEND
  5
49A
  8
新図面
  6
CONTINUOUS
 62
     7
  0
LINE
  5
49B
  8
新図面
  6
CONTINUOUS
 62
     7
 10
86.71895524154537
 20
72.35888952235875
 30
0.0
 11
86.81817399152057
 21
72.35888952235875
 31
0.0
  0
LINE
  5
49C
  8
新図面
  6
CONTINUOUS
 62
     7
 10
86.81817399152057
 20
77.45935338827117
 30
0.0
 11
86.71895524154537
 21
77.45935338827117
 31
0.0
  0
ARC
  5
49D
  8
新図面
  6
CONTINUOUS
 62
     7
 10
89.88236042471591
 20
74.90912145531495
 30
0.0
 40
4.063350251304919
 50
141.1253961073978
 51
218.8746038926019
  0
ARC
  5
49E
  8
新図面
  6
CONTINUOUS
 62
     7
 10
89.88284857057876
 20
-58.59022340063306
 30
0.0
 40
4.063838397167758
 50
141.1278248615498
 51
218.8721751384504
  0
LINE
  5
49F
  8
新図面
  6
CONTINUOUS
 62
     7
 10
86.71895524154537
 20
-61.14062758836353
 30
0.0
 11
86.81817399152057
 21
-61.14062758836353
 31
0.0
  0
LINE
  5
4A0
  8
新図面
  6
CONTINUOUS
 62
     7
 10
86.81817399152057
 20
-56.03981921290261
 30
0.0
 11
86.71895524154537
 21
-56.03981921290261
 31
0.0
  0
LINE
  5
4A1
  8
新図面
  6
CONTINUOUS
 62
     7
 10
74.74724843030218
 20
-85.15638821604014
 30
0.0
 11
74.99736236253126
 21
-85.58943671853605
 31
0.0
  0
LINE
  5
4A2
  8
新図面
  6
CONTINUOUS
 62
     7
 10
86.81817399152057
 20
84.90868335602697
 30
0.0
 11
86.81817399152057
 21
-68.58995755611926
 31
0.0
  0
LINE
  5
4A3
  8
新図面
  6
CONTINUOUS
 62
     7
 10
92.31895795281896
 20
84.90868335602697
 30
0.0
 11
92.31895795281896
 21
-68.58995755611926
 31
0.0
  0
LINE
  5
4A4
  8
新図面
  6
CONTINUOUS
 62
     7
 10
86.81817399152057
 20
-68.58995755611926
 30
0.0
 11
91.81769655971506
 21
-68.58995755611926
 31
0.0
  0
LINE
  5
4A5
  8
新図面
  6
CONTINUOUS
 62
     7
 10
39.31960900773548
 20
84.90868335602697
 30
0.0
 11
39.31960900773548
 21
-68.58995755611926
 31
0.0
  0
LINE
  5
4A6
  8
新図面
  6
CONTINUOUS
 62
     7
 10
39.31960900773548
 20
-68.58995755611926
 30
0.0
 11
86.81817399152057
 21
-68.58995755611926
 31
0.0
  0
LINE
  5
4A7
  8
新図面
  6
CONTINUOUS
 62
     7
 10
39.31960900773548
 20
84.90868335602697
 30
0.0
 11
86.81817399152057
 21
84.90868335602697
 31
0.0
  0
LINE
  5
4A8
  8
新図面
  6
CONTINUOUS
 62
     7
 10
29.20894277762416
 20
-68.58995755611926
 30
0.0
 11
29.20894277762416
 21
84.90868335602697
 31
0.0
  0
LINE
  5
4A9
  8
新図面
  6
CONTINUOUS
 62
     7
 10
39.31960900773548
 20
-68.58995755611926
 30
0.0
 11
29.20894277762416
 21
-68.58995755611926
 31
0.0
  0
LINE
  5
4AA
  8
新図面
  6
CONTINUOUS
 62
     7
 10
29.20894277762416
 20
84.90868335602697
 30
0.0
 11
39.31960900773548
 21
84.90868335602697
 31
0.0
  0
LINE
  5
4AB
  8
新図面
  6
CONTINUOUS
 62
     7
 10
22.31875180712457
 20
-68.58995755611926
 30
0.0
 11
29.20894277762416
 21
-68.58995755611926
 31
0.0
  0
LINE
  5
4AC
  8
新図面
  6
CONTINUOUS
 62
     7
 10
22.31875180712457
 20
84.90868335602697
 30
0.0
 11
29.20894277762416
 21
84.90868335602697
 31
0.0
  0
POLYLINE
  5
4AD
  8
新図面
  6
CONTINUOUS
 62
     7
 66
     1
 10
0.0
 20
0.0
 30
0.0
  0
VERTEX
  5
4AE
  8
新図面
  6
CONTINUOUS
 62
     7
 10
87.20746919771888
 20
85.40925521068087
 30
0.0
 42
0.0052822064609064
  0
VERTEX
  5
4AF
  8
新図面
  6
CONTINUOUS
 62
     7
 10
86.15598856975838
 20
85.17637040751885
 30
0.0
 42
0.0050218444367601
  0
VERTEX
  5
4B0
  8
新図面
  6
CONTINUOUS
 62
     7
 10
85.05531819771888
 20
84.90868321068092
 30
0.0
  0
SEQEND
  5
4B1
  8
新図面
  6
CONTINUOUS
 62
     7
  0
LINE
  5
4B2
  8
新図面
  6
CONTINUOUS
 62
     7
 10
92.31895795281896
 20
85.40925573003376
 30
0.0
 11
87.20746978135377
 21
85.40925573003376
 31
0.0
  0
LINE
  5
4B3
  8
新図面
  6
CONTINUOUS
 62
     7
 10
92.31895795281896
 20
84.90868335602697
 30
0.0
 11
92.31895795281896
 21
85.40925573003376
 31
0.0
  0
LINE
  5
4B4
  8
新図面
  6
CONTINUOUS
 62
     7
 10
139.8178674461525
 20
58.54646819334666
 30
0.0
 11
139.8178674461525
 21
-30.09101550845233
 31
0.0
  0
LINE
  5
4B5
  8
新図面
  6
CONTINUOUS
 62
     7
 10
110.8184316895136
 20
62.36294497190646
 30
0.0
 11
110.8184316895136
 21
62.40979827050587
 31
0.0
  0
POLYLINE
  5
4B6
  8
新図面
  6
CONTINUOUS
 62
     7
 66
     1
 10
0.0
 20
0.0
 30
0.0
  0
VERTEX
  5
4B7
  8
新図面
  6
CONTINUOUS
 62
     7
 10
110.8184311977189
 20
62.36294421068085
 30
0.0
 42
0.0336861988820332
  0
VERTEX
  5
4B8
  8
新図面
  6
CONTINUOUS
 62
     7
 10
111.2508209449173
 20
62.30739439093999
 30
0.0
 42
0.0326124548186095
  0
VERTEX
  5
4B9
  8
新図面
  6
CONTINUOUS
 62
     7
 10
111.7010641977189
 20
62.30954521068087
 30
0.0
  0
SEQEND
  5
4BA
  8
新図面
  6
CONTINUOUS
 62
     7
  0
POLYLINE
  5
4BB
  8
新図面
  6
CONTINUOUS
 62
     7
 66
     1
 10
0.0
 20
0.0
 30
0.0
  0
VERTEX
  5
4BC
  8
新図面
  6
CONTINUOUS
 62
     7
 10
126.7003218765153
 20
62.16519649105307
 30
0.0
  0
VERTEX
  5
4BD
  8
新図面
  6
CONTINUOUS
 62
     7
 10
119.2072391960969
 20
62.24546721585936
 30
0.0
  0
VERTEX
  5
4BE
  8
新図面
  6
CONTINUOUS
 62
     7
 10
111.7010651528346
 20
62.30954599188506
 30
0.0
  0
SEQEND
  5
4BF
  8
新図面
  6
CONTINUOUS
 62
     7
  0
LINE
  5
4C0
  8
新図面
  6
CONTINUOUS
 62
     7
 10
127.8189443805759
 20
62.15141610911208
 30
0.0
 11
126.7003218765153
 21
62.16519649105307
 31
0.0
  0
LINE
  5
4C1
  8
新図面
  6
CONTINUOUS
 62
     7
 10
127.8189443805759
 20
62.40979827050587
 30
0.0
 11
127.8189443805759
 21
62.15141610911208
 31
0.0
  0
LINE
  5
4C2
  8
新図面
  6
CONTINUOUS
 62
     7
 10
84.51788373601916
 20
12.01046288814037
 30
0.0
 11
84.51788373601916
 21
15.80971418927386
 31
0.0
  0
LINE
  5
4C3
  8
新図面
  6
CONTINUOUS
 62
     7
 10
86.71895524154537
 20
77.45935338827117
 30
0.0
 11
86.71895524154537
 21
72.35888952235875
 31
0.0
  0
LINE
  5
4C4
  8
新図面
  6
CONTINUOUS
 62
     7
 10
86.71895524154537
 20
-56.03981921290261
 30
0.0
 11
86.71895524154537
 21
-61.14062758836353
 31
0.0
  0
LINE
  5
4C5
  8
新図面
  6
CONTINUOUS
 62
     7
 10
91.81769655971506
 20
-68.58995755611926
 30
0.0
 11
92.31895795281896
 21
-68.58995755611926
 31
0.0
  0
LINE
  5
4C6
  8
新図面
  6
CONTINUOUS
 62
     7
 10
92.31895795281896
 20
-68.58995755611926
 30
0.0
 11
92.31895795281896
 21
-70.5901799948553
 31
0.0
  0
LINE
  5
4C7
  8
新図面
  6
CONTINUOUS
 62
     7
 10
92.31895795281896
 20
-70.5901799948553
 30
0.0
 11
91.81769655971506
 21
-70.5901799948553
 31
0.0
  0
LINE
  5
4C8
  8
新図面
  6
CONTINUOUS
 62
     7
 10
92.31895795281896
 20
-75.59073609169545
 30
0.0
 11
80.85126861106788
 21
-82.21014255705448
 31
0.0
  0
LINE
  5
4C9
  8
新図面
  6
CONTINUOUS
 62
     7
 10
80.60115467883868
 20
-81.77709405455857
 30
0.0
 11
80.85126861106788
 21
-82.21014255705448
 31
0.0
  0
ARC
  5
4CA
  8
新図面
  6
CONTINUOUS
 62
     7
 10
84.33128261230091
 20
-80.1992541620663
 30
0.0
 40
3.997218933768341
 50
119.9717165377545
 51
202.8469195339331
  0
LINE
  5
4CB
  8
新図面
  6
CONTINUOUS
 62
     7
 10
88.31851307534687
 20
-73.28011054973838
 30
0.0
 11
82.33438221746788
 21
-76.73657485008954
 31
0.0
  0
LINE
  5
4CC
  8
新図面
  6
CONTINUOUS
 62
     7
 10
88.31851307534687
 20
-71.58925768557776
 30
0.0
 11
88.31851307534687
 21
-73.28011054973838
 31
0.0
  0
POLYLINE
  5
4CD
  8
新図面
  6
CONTINUOUS
 62
     7
 66
     1
 10
0.0
 20
0.0
 30
0.0
  0
VERTEX
  5
4CE
  8
新図面
  6
CONTINUOUS
 62
     7
 10
89.31862419771888
 20
-70.59018078931913
 30
0.0
 42
0.0985497524786113
  0
VERTEX
  5
4CF
  8
新図面
  6
CONTINUOUS
 62
     7
 10
88.9366362156256
 20
-70.66620881980514
 30
0.0
 42
0.0983421716139545
  0
VERTEX
  5
4D0
  8
新図面
  6
CONTINUOUS
 62
     7
 10
88.61173319771886
 20
-70.88327178931914
 30
0.0
 42
0.0983581328751677
  0
VERTEX
  5
4D1
  8
新図面
  6
CONTINUOUS
 62
     7
 10
88.39455018113715
 20
-71.20787272041731
 30
0.0
 42
0.0987142949438842
  0
VERTEX
  5
4D2
  8
新図面
  6
CONTINUOUS
 62
     7
 10
88.31851219771887
 20
-71.58925778933097
 30
0.0
  0
SEQEND
  5
4D3
  8
新図面
  6
CONTINUOUS
 62
     7
  0
LINE
  5
4D4
  8
新図面
  6
CONTINUOUS
 62
     7
 10
92.31895795281896
 20
-70.5901799948553
 30
0.0
 11
92.31895795281896
 21
-75.59073609169545
 31
0.0
  0
LINE
  5
4D5
  8
新図面
  6
CONTINUOUS
 62
     7
 10
80.60115467883868
 20
-81.77709405455857
 30
0.0
 11
80.64766346788956
 21
-81.75125583841921
 31
0.0
  0
LINE
  5
4D6
  8
新図面
  6
CONTINUOUS
 62
     7
 10
89.31862429471487
 20
-70.5901799948553
 30
0.0
 11
91.81769655971506
 21
-70.5901799948553
 31
0.0
  0
LINE
  5
4D7
  8
新図面
  6
CONTINUOUS
 62
     7
 10
79.13319949257378
 20
-83.20233005680643
 30
0.0
 11
78.88446359853866
 21
-82.77065959250463
 31
0.0
  0
POLYLINE
  5
4D8
  8
新図面
  6
CONTINUOUS
 62
     7
 66
     1
 10
0.0
 20
0.0
 30
0.0
  0
VERTEX
  5
4D9
  8
新図面
  6
CONTINUOUS
 62
     7
 10
80.85126861106788
 20
-82.21014255705448
 30
0.0
  0
VERTEX
  5
4DA
  8
新図面
  6
CONTINUOUS
 62
     7
 10
80.54052099829828
 20
-82.39066556048158
 30
0.0
  0
VERTEX
  5
4DB
  8
新図面
  6
CONTINUOUS
 62
     7
 10
80.24010867198446
 20
-82.5646428824867
 30
0.0
  0
VERTEX
  5
4DC
  8
新図面
  6
CONTINUOUS
 62
     7
 10
79.95933338993656
 20
-82.72552884164786
 30
0.0
  0
VERTEX
  5
4DD
  8
新図面
  6
CONTINUOUS
 62
     7
 10
79.70680789086778
 20
-82.86987834247982
 30
0.0
  0
VERTEX
  5
4DE
  8
新図面
  6
CONTINUOUS
 62
     7
 10
79.49286746123379
 20
-82.99493530859439
 30
0.0
  0
VERTEX
  5
4DF
  8
新図面
  6
CONTINUOUS
 62
     7
 10
79.32267974426246
 20
-83.0927760203755
 30
0.0
  0
VERTEX
  5
4E0
  8
新図面
  6
CONTINUOUS
 62
     7
 10
79.20141238318168
 20
-83.16374498737164
 30
0.0
  0
VERTEX
  5
4E1
  8
新図面
  6
CONTINUOUS
 62
     7
 10
79.13319949257378
 20
-83.20233005680643
 30
0.0
  0
SEQEND
  5
4E2
  8
新図面
  6
CONTINUOUS
 62
     7
  0
POLYLINE
  5
4E3
  8
新図面
  6
CONTINUOUS
 62
     7
 66
     1
 10
0.0
 20
0.0
 30
0.0
  0
VERTEX
  5
4E4
  8
新図面
  6
CONTINUOUS
 62
     7
 10
78.88446359853866
 20
-82.77065959250463
 30
0.0
  0
VERTEX
  5
4E5
  8
新図面
  6
CONTINUOUS
 62
     7
 10
78.95026492230697
 20
-82.73069648487574
 30
0.0
  0
VERTEX
  5
4E6
  8
新図面
  6
CONTINUOUS
 62
     7
 10
79.07256581203326
 20
-82.66007202742811
 30
0.0
  0
VERTEX
  5
4E7
  8
新図面
  6
CONTINUOUS
 62
     7
 10
79.24137549081057
 20
-82.5618868060985
 30
0.0
  0
VERTEX
  5
4E8
  8
新図面
  6
CONTINUOUS
 62
     7
 10
79.45669395863867
 20
-82.43820787817802
 30
0.0
  0
VERTEX
  5
4E9
  8
新図面
  6
CONTINUOUS
 62
     7
 10
79.70921945770748
 20
-82.29248033915195
 30
0.0
  0
VERTEX
  5
4EA
  8
新図面
  6
CONTINUOUS
 62
     7
 10
79.99033924930386
 20
-82.13159437999079
 30
0.0
  0
VERTEX
  5
4EB
  8
新図面
  6
CONTINUOUS
 62
     7
 10
80.29040706606916
 20
-81.95761705798567
 30
0.0
  0
VERTEX
  5
4EC
  8
新図面
  6
CONTINUOUS
 62
     7
 10
80.60115467883868
 20
-81.77709405455857
 30
0.0
  0
SEQEND
  5
4ED
  8
新図面
  6
CONTINUOUS
 62
     7
  0
POLYLINE
  5
4EE
  8
新図面
  6
CONTINUOUS
 62
     7
 66
     1
 10
0.0
 20
0.0
 30
0.0
  0
VERTEX
  5
4EF
  8
新図面
  6
CONTINUOUS
 62
     7
 10
74.99736236253126
 20
-85.58943671853605
 30
0.0
  0
VERTEX
  5
4F0
  8
新図面
  6
CONTINUOUS
 62
     7
 10
75.08383425921106
 20
-85.5405163626455
 30
0.0
  0
VERTEX
  5
4F1
  8
新図面
  6
CONTINUOUS
 62
     7
 10
75.33498172008576
 20
-85.39478882361944
 30
0.0
  0
VERTEX
  5
4F2
  8
新図面
  6
CONTINUOUS
 62
     7
 10
75.75907297432006
 20
-85.14984253461817
 30
0.0
  0
VERTEX
  5
4F3
  8
新図面
  6
CONTINUOUS
 62
     7
 10
76.34921783094326
 20
-84.80946710067549
 30
0.0
  0
VERTEX
  5
4F4
  8
新図面
  6
CONTINUOUS
 62
     7
 10
77.10989491408647
 20
-84.37159546450023
 30
0.0
  0
VERTEX
  5
4F5
  8
新図面
  6
CONTINUOUS
 62
     7
 10
78.03628109007018
 20
-83.83519409744683
 30
0.0
  0
VERTEX
  5
4F6
  8
新図面
  6
CONTINUOUS
 62
     7
 10
79.13319949257378
 20
-83.20233005680643
 30
0.0
  0
SEQEND
  5
4F7
  8
新図面
  6
CONTINUOUS
 62
     7
  0
POLYLINE
  5
4F8
  8
新図面
  6
CONTINUOUS
 62
     7
 66
     1
 10
0.0
 20
0.0
 30
0.0
  0
VERTEX
  5
4F9
  8
新図面
  6
CONTINUOUS
 62
     7
 10
78.88446359853866
 20
-82.77065959250463
 30
0.0
  0
VERTEX
  5
4FA
  8
新図面
  6
CONTINUOUS
 62
     7
 10
77.78651166738958
 20
-83.40214559495092
 30
0.0
  0
VERTEX
  5
4FB
  8
新図面
  6
CONTINUOUS
 62
     7
 10
76.85840294366328
 20
-83.93854696200432
 30
0.0
  0
VERTEX
  5
4FC
  8
新図面
  6
CONTINUOUS
 62
     7
 10
76.09944840826266
 20
-84.37676310772811
 30
0.0
  0
VERTEX
  5
4FD
  8
新図面
  6
CONTINUOUS
 62
     7
 10
75.50895904209086
 20
-84.71679403212227
 30
0.0
  0
VERTEX
  5
4FE
  8
新図面
  6
CONTINUOUS
 62
     7
 10
75.08624582605079
 20
-84.96174032112353
 30
0.0
  0
VERTEX
  5
4FF
  8
新図面
  6
CONTINUOUS
 62
     7
 10
74.83372032698186
 20
-85.10850138879518
 30
0.0
  0
VERTEX
  5
500
  8
新図面
  6
CONTINUOUS
 62
     7
 10
74.74724843030218
 20
-85.15638821604014
 30
0.0
  0
SEQEND
  5
501
  8
新図面
  6
CONTINUOUS
 62
     7
  0
LINE
  5
502
  8
新図面
  6
CONTINUOUS
 62
     7
 10
135.3185727424163
 20
-34.59031021218864
 30
0.0
 11
135.3185727424163
 21
62.40979827050587
 31
0.0
  0
LINE
  5
503
  8
新図面
  6
CONTINUOUS
 62
     7
 10
85.51902848403286
 20
16.80982540864186
 30
0.0
 11
85.51902848403286
 21
11.01035166877237
 31
0.0
  0
LINE
  5
504
  8
新図面
  6
DOT
 62
     7
 10
85.51902848403286
 20
13.56075585650275
 30
0.0
 11
85.51902848403286
 21
14.25942122091148
 31
0.0
  0
LINE
  5
505
  8
新図面
  6
DOT
 62
     7
 10
85.51902848403286
 20
13.56075585650275
 30
0.0
 11
84.51788373601916
 21
13.56075585650275
 31
0.0
  0
LINE
  5
506
  8
新図面
  6
DOT
 62
     7
 10
85.51902848403286
 20
14.25942122091148
 30
0.0
 11
84.51788373601916
 21
14.25942122091148
 31
0.0
  0
LINE
  5
507
  8
新図面
  6
DOT
 62
     7
 10
85.51902848403286
 20
12.15998003220015
 30
0.0
 11
85.51902848403286
 21
13.56075585650275
 31
0.0
  0
LINE
  5
508
  8
新図面
  6
DOT
 62
     7
 10
85.51902848403286
 20
15.66019704521408
 30
0.0
 11
84.51788373601916
 21
15.66019704521408
 31
0.0
  0
LINE
  5
509
  8
新図面
  6
DOT
 62
     7
 10
85.51902848403286
 20
14.25942122091148
 30
0.0
 11
85.51902848403286
 21
15.66019704521408
 31
0.0
  0
LINE
  5
50A
  8
新図面
  6
DOT
 62
     7
 10
85.51902848403286
 20
12.15998003220015
 30
0.0
 11
84.51788373601916
 21
12.15998003220015
 31
0.0
  0
LINE
  5
50B
  8
新図面
  6
DOT
 62
     7
 10
78.88446359853866
 20
-82.77065959250463
 30
0.0
 11
79.13319949257378
 21
-83.20233005680643
 31
0.0
  0
LINE
  5
50C
  8
新図面
  6
DASHDOT
 62
     7
 10
84.81932959097857
 20
-43.59131118650083
 30
0.0
 11
84.81932959097857
 21
71.40907669707546
 31
0.0
  0
LINE
  5
50D
  8
新図面
  6
DASHDOT
 62
     7
 10
85.31955745543688
 20
70.90884883261715
 30
0.0
 11
85.31955745543688
 21
-43.08970528384843
 31
0.0
  0
LINE
  5
50E
  8
新図面
  6
DOT
 62
     7
 10
91.81769655971506
 20
-70.5901799948553
 30
0.0
 11
92.31895795281896
 21
-70.5901799948553
 31
0.0
  0
LINE
  5
50F
  8
新図面
  6
DOT
 62
     7
 10
80.85126861106788
 20
-82.21014255705448
 30
0.0
 11
80.60115467883868
 21
-81.77709405455857
 31
0.0
  0
LINE
  5
510
  8
新図面
  6
DASHDOT
 62
     7
 10
86.81817399152057
 20
71.40907669707546
 30
0.0
 11
84.81932959097857
 21
71.40907669707546
 31
0.0
  0
LINE
  5
511
  8
新図面
  6
DASHDOT
 62
     7
 10
84.81932959097857
 20
-43.59131118650083
 30
0.0
 11
86.81817399152057
 21
-43.59131118650083
 31
0.0
  0
LINE
  5
512
  8
新図面
  6
DASHDOT
 62
     7
 10
86.81817399152057
 20
70.90884883261715
 30
0.0
 11
85.31955745543688
 21
70.90884883261715
 31
0.0
  0
LINE
  5
513
  8
新図面
  6
DASHDOT
 62
     7
 10
85.31955745543688
 20
-43.08970528384843
 30
0.0
 11
86.81817399152057
 21
-43.08970528384843
 31
0.0
  0
LINE
  5
514
  8
新図面
  6
DASHDOT
 62
     7
 10
84.81932959097857
 20
-38.09052722520244
 30
0.0
 11
85.31955745543688
 21
-38.09052722520244
 31
0.0
  0
LINE
  5
515
  8
新図面
  6
DOT
 62
     7
 10
85.51902848403286
 20
15.66019704521408
 30
0.0
 11
85.51902848403286
 21
16.80982540864186
 31
0.0
  0
LINE
  5
516
  8
新図面
  6
DOT
 62
     7
 10
85.51902848403286
 20
11.01035166877237
 30
0.0
 11
85.51902848403286
 21
12.15998003220015
 31
0.0
  0
LINE
  5
517
  8
新図面
  6
DASHDOT
 62
     7
 10
-155.5901131657594
 20
84.48562563043826
 30
0.0
 11
-155.5901131657594
 21
83.98539776597995
 31
0.0
  0
LINE
  5
518
  8
新図面
  6
DASHDOT
 62
     7
 10
-36.00533671996109
 20
84.48562563043826
 30
0.0
 11
-36.00533671996109
 21
83.98539776597995
 31
0.0
  0
LINE
  5
519
  8
新図面
  6
DOT
 62
     7
 10
-143.5140199613131
 20
62.34124087034935
 30
0.0
 11
-143.5140199613131
 21
61.76005326198766
 31
0.0
  0
ARC
  5
51A
  8
新図面
  6
DASHDOT
 62
     7
 10
-95.79772494286021
 20
-34.0004112015999
 30
0.0
 40
107.5107377625163
 50
63.65160962370025
 51
116.3483903762997
  0
LINE
  5
51B
  8
新図面
  6
DOT
 62
     7
 10
-48.08142992440735
 20
61.76005326198766
 30
0.0
 11
-48.08142992440735
 21
62.34124087034935
 31
0.0
  0
ARC
  5
51C
  8
新図面
  6
DASHDOT
 62
     7
 10
-95.79772494286021
 20
-34.30372384204279
 30
0.0
 40
107.2618015967515
 50
63.58573139107848
 51
116.4142686089215
  0
POLYLINE
  5
51D
  8
新図面
  6
DASHDOT
 62
     7
 66
     1
 10
0.0
 20
0.0
 30
0.0
  0
VERTEX
  5
51E
  8
新図面
  6
DASHDOT
 62
     7
 10
-150.7363181365909
 20
55.38938269066365
 30
0.0
  0
VERTEX
  5
51F
  8
新図面
  6
DASHDOT
 62
     7
 10
-142.2079842628549
 20
58.29911033750567
 30
0.0
  0
VERTEX
  5
520
  8
新図面
  6
DASHDOT
 62
     7
 10
-133.4684660358731
 20
60.64590938205787
 30
0.0
  0
VERTEX
  5
521
  8
新図面
  6
DASHDOT
 62
     7
 10
-125.8585946185047
 20
62.22651919069055
 30
0.0
  0
VERTEX
  5
522
  8
新図面
  6
DASHDOT
 62
     7
 10
-118.1663854190389
 20
63.42782398639717
 30
0.0
  0
VERTEX
  5
523
  8
新図面
  6
DASHDOT
 62
     7
 10
-110.4214662586487
 20
64.26153709382756
 30
0.0
  0
VERTEX
  5
524
  8
新図面
  6
DASHDOT
 62
     7
 10
-102.4495153057806
 20
64.74867359544196
 30
0.0
  0
VERTEX
  5
525
  8
新図面
  6
DASHDOT
 62
     7
 10
-94.45379319406427
 20
64.86994095652265
 30
0.0
  0
VERTEX
  5
526
  8
新図面
  6
DASHDOT
 62
     7
 10
-86.46771734970662
 20
64.62637270571555
 30
0.0
  0
VERTEX
  5
527
  8
新図面
  6
DASHDOT
 62
     7
 10
-78.78205383166275
 20
64.04311804006277
 30
0.0
  0
VERTEX
  5
528
  8
新図面
  6
DASHDOT
 62
     7
 10
-71.13497538305369
 20
63.10949716356005
 30
0.0
  0
VERTEX
  5
529
  8
新図面
  6
DASHDOT
 62
     7
 10
-63.55542080595552
 20
61.81414126110617
 30
0.0
  0
VERTEX
  5
52A
  8
新図面
  6
DASHDOT
 62
     7
 10
-55.87354689294544
 20
60.09745018080618
 30
0.0
  0
VERTEX
  5
52B
  8
新図面
  6
DASHDOT
 62
     7
 10
-48.29571486358989
 20
57.96252450859676
 30
0.0
  0
VERTEX
  5
52C
  8
新図面
  6
DASHDOT
 62
     7
 10
-40.85844273003255
 20
55.38938269066365
 30
0.0
  0
SEQEND
  5
52D
  8
新図面
  6
DASHDOT
 62
     7
  0
LINE
  5
52E
  8
新図面
  6
DASHDOT
 62
     7
 10
-150.7363181365909
 20
55.38938269066365
 30
0.0
 11
-150.7363181365909
 21
55.65741111941615
 31
0.0
  0
POLYLINE
  5
52F
  8
新図面
  6
DASHDOT
 62
     7
 66
     1
 10
0.0
 20
0.0
 30
0.0
  0
VERTEX
  5
530
  8
新図面
  6
DASHDOT
 62
     7
 10
-143.5140199613131
 20
61.76005326198766
 30
0.0
  0
VERTEX
  5
531
  8
新図面
  6
DASHDOT
 62
     7
 10
-147.1413609977326
 20
58.75076235562197
 30
0.0
  0
VERTEX
  5
532
  8
新図面
  6
DASHDOT
 62
     7
 10
-150.7363181365909
 20
55.65741111941615
 30
0.0
  0
SEQEND
  5
533
  8
新図面
  6
DASHDOT
 62
     7
  0
POLYLINE
  5
534
  8
新図面
  6
DASHDOT
 62
     7
 66
     1
 10
0.0
 20
0.0
 30
0.0
  0
VERTEX
  5
535
  8
新図面
  6
DASHDOT
 62
     7
 10
-40.85844273003255
 20
55.65741111941615
 30
0.0
  0
VERTEX
  5
536
  8
新図面
  6
DASHDOT
 62
     7
 10
-44.45408888798779
 20
58.75076235562197
 30
0.0
  0
VERTEX
  5
537
  8
新図面
  6
DASHDOT
 62
     7
 10
-48.08142992440735
 20
61.76005326198766
 30
0.0
  0
SEQEND
  5
538
  8
新図面
  6
DASHDOT
 62
     7
  0
LINE
  5
539
  8
新図面
  6
DASHDOT
 62
     7
 10
-40.85844273003255
 20
55.38938269066365
 30
0.0
 11
-40.85844273003255
 21
55.65741111941615
 31
0.0
  0
POLYLINE
  5
53A
  8
新図面
  6
DASHDOT
 62
     7
 66
     1
 10
0.0
 20
0.0
 30
0.0
  0
VERTEX
  5
53B
  8
新図面
  6
DASHDOT
 62
     7
 10
-40.79057434897312
 20
57.57012813282687
 30
0.0
  0
VERTEX
  5
53C
  8
新図面
  6
DASHDOT
 62
     7
 10
-48.08763109628079
 20
59.84113507670357
 30
0.0
  0
VERTEX
  5
53D
  8
新図面
  6
DASHDOT
 62
     7
 10
-55.49630893731058
 20
61.73111445991155
 30
0.0
  0
VERTEX
  5
53E
  8
新図面
  6
DASHDOT
 62
     7
 10
-62.98663554134078
 20
63.26142587445956
 30
0.0
  0
VERTEX
  5
53F
  8
新図面
  6
DASHDOT
 62
     7
 10
-70.70330491875188
 20
64.47306595662197
 30
0.0
  0
VERTEX
  5
540
  8
新図面
  6
DASHDOT
 62
     7
 10
-78.4778519003152
 20
65.34536413348717
 30
0.0
  0
VERTEX
  5
541
  8
新図面
  6
DASHDOT
 62
     7
 10
-86.28478277943985
 20
65.89072274880228
 30
0.0
  0
VERTEX
  5
542
  8
新図面
  6
DASHDOT
 62
     7
 10
-94.2405417835273
 20
66.11809905082877
 30
0.0
  0
VERTEX
  5
543
  8
新図面
  6
DASHDOT
 62
     7
 10
-102.2031909785852
 20
66.01888030085355
 30
0.0
  0
VERTEX
  5
544
  8
新図面
  6
DASHDOT
 62
     7
 10
-110.1479256771199
 20
65.59031042248846
 30
0.0
  0
VERTEX
  5
545
  8
新図面
  6
DASHDOT
 62
     7
 10
-118.2232294945455
 20
64.81068531417647
 30
0.0
  0
VERTEX
  5
546
  8
新図面
  6
DASHDOT
 62
     7
 10
-126.2520245229203
 20
63.66932517991317
 30
0.0
  0
VERTEX
  5
547
  8
新図面
  6
DASHDOT
 62
     7
 10
-134.2050274506195
 20
62.15244963775767
 30
0.0
  0
VERTEX
  5
548
  8
新図面
  6
DASHDOT
 62
     7
 10
-142.5569724355107
 20
60.10537390042215
 30
0.0
  0
VERTEX
  5
549
  8
新図面
  6
DASHDOT
 62
     7
 10
-150.8045310271988
 20
57.57012813282687
 30
0.0
  0
SEQEND
  5
54A
  8
新図面
  6
DASHDOT
 62
     7
  0
LINE
  5
54B
  8
新図面
  6
DASHDOT
 62
     7
 10
-150.7363181365909
 20
55.17027461780175
 30
0.0
 11
-150.7363181365909
 21
55.38938269066365
 31
0.0
  0
LINE
  5
54C
  8
新図面
  6
DASHDOT
 62
     7
 10
-40.85844273003255
 20
55.38938269066365
 30
0.0
 11
-40.85844273003255
 21
55.14064679662867
 31
0.0
  0
LINE
  5
54D
  8
新図面
  6
DASHDOT
 62
     7
 10
-150.7363181365909
 20
55.65741111941615
 30
0.0
 11
-150.7363181365909
 21
56.24790048558798
 31
0.0
  0
POLYLINE
  5
54E
  8
新図面
  6
DASHDOT
 62
     7
 66
     1
 10
0.0
 20
0.0
 30
0.0
  0
VERTEX
  5
54F
  8
新図面
  6
DASHDOT
 62
     7
 10
-150.7363181365909
 20
56.24790048558798
 30
0.0
  0
VERTEX
  5
550
  8
新図面
  6
DASHDOT
 62
     7
 10
-147.1413609977326
 20
59.33711760721145
 30
0.0
  0
VERTEX
  5
551
  8
新図面
  6
DASHDOT
 62
     7
 10
-143.5140199613131
 20
62.34124087034935
 30
0.0
  0
SEQEND
  5
552
  8
新図面
  6
DASHDOT
 62
     7
  0
LINE
  5
553
  8
新図面
  6
DASHDOT
 62
     7
 10
-40.85844273003255
 20
56.24790048558798
 30
0.0
 11
-40.85844273003255
 21
55.65741111941615
 31
0.0
  0
POLYLINE
  5
554
  8
新図面
  6
DASHDOT
 62
     7
 66
     1
 10
0.0
 20
0.0
 30
0.0
  0
VERTEX
  5
555
  8
新図面
  6
DASHDOT
 62
     7
 10
-48.08142992440735
 20
62.34124087034935
 30
0.0
  0
VERTEX
  5
556
  8
新図面
  6
DASHDOT
 62
     7
 10
-44.45408888798779
 20
59.33711760721145
 30
0.0
  0
VERTEX
  5
557
  8
新図面
  6
DASHDOT
 62
     7
 10
-40.85844273003255
 20
56.24790048558798
 30
0.0
  0
SEQEND
  5
558
  8
新図面
  6
DASHDOT
 62
     7
  0
LINE
  5
559
  8
新図面
  6
DASHDOT
 62
     7
 10
-150.7363181365909
 20
56.33678394910736
 30
0.0
 11
-150.7363181365909
 21
57.71654469094996
 31
0.0
  0
POLYLINE
  5
55A
  8
新図面
  6
DASHDOT
 62
     7
 66
     1
 10
0.0
 20
0.0
 30
0.0
  0
VERTEX
  5
55B
  8
新図面
  6
DASHDOT
 62
     7
 10
-150.7363181365909
 20
57.71654469094996
 30
0.0
  0
VERTEX
  5
55C
  8
新図面
  6
DASHDOT
 62
     7
 10
-142.7357728911952
 20
60.21492793685316
 30
0.0
  0
VERTEX
  5
55D
  8
新図面
  6
DASHDOT
 62
     7
 10
-134.5795093298662
 20
62.25821406915487
 30
0.0
  0
VERTEX
  5
55E
  8
新図面
  6
DASHDOT
 62
     7
 10
-126.8480260418685
 20
63.77819019724707
 30
0.0
  0
VERTEX
  5
55F
  8
新図面
  6
DASHDOT
 62
     7
 10
-119.0421286913894
 20
64.93643129938808
 30
0.0
  0
VERTEX
  5
560
  8
新図面
  6
DASHDOT
 62
     7
 10
-111.1880000041168
 20
65.74637324797025
 30
0.0
  0
VERTEX
  5
561
  8
新図面
  6
DASHDOT
 62
     7
 10
-103.1344002882483
 20
66.22972014455085
 30
0.0
  0
VERTEX
  5
562
  8
新図面
  6
DASHDOT
 62
     7
 10
-95.05944098037119
 20
66.36890200215497
 30
0.0
  0
VERTEX
  5
563
  8
新図面
  6
DASHDOT
 62
     7
 10
-86.99033833481901
 20
66.16633038762227
 30
0.0
  0
VERTEX
  5
564
  8
新図面
  6
DASHDOT
 62
     7
 10
-79.23232781158491
 20
65.64715449799506
 30
0.0
  0
VERTEX
  5
565
  8
新図面
  6
DASHDOT
 62
     7
 10
-71.5060121668151
 20
64.80172806591476
 30
0.0
  0
VERTEX
  5
566
  8
新図面
  6
DASHDOT
 62
     7
 10
-63.83688510710044
 20
63.61833776673147
 30
0.0
  0
VERTEX
  5
567
  8
新図面
  6
DASHDOT
 62
     7
 10
-56.07784105522075
 20
62.04737422545757
 30
0.0
  0
VERTEX
  5
568
  8
新図面
  6
DASHDOT
 62
     7
 10
-48.4076804668605
 20
60.08711489435036
 30
0.0
  0
VERTEX
  5
569
  8
新図面
  6
DASHDOT
 62
     7
 10
-40.85844273003255
 20
57.71654469094996
 30
0.0
  0
SEQEND
  5
56A
  8
新図面
  6
DASHDOT
 62
     7
  0
LINE
  5
56B
  8
新図面
  6
DASHDOT
 62
     7
 10
-40.85844273003255
 20
57.71654469094996
 30
0.0
 11
-40.85844273003255
 21
56.33678394910736
 31
0.0
  0
POLYLINE
  5
56C
  8
新図面
  6
DASHDOT
 62
     7
 66
     1
 10
0.0
 20
0.0
 30
0.0
  0
VERTEX
  5
56D
  8
新図面
  6
DASHDOT
 62
     7
 10
-40.85844273003255
 20
55.88065330686025
 30
0.0
  0
VERTEX
  5
56E
  8
新図面
  6
DASHDOT
 62
     7
 10
-48.2157886483321
 20
58.41693260310127
 30
0.0
  0
VERTEX
  5
56F
  8
新図面
  6
DASHDOT
 62
     7
 10
-55.71059387649312
 20
60.52739809736526
 30
0.0
  0
VERTEX
  5
570
  8
新図面
  6
DASHDOT
 62
     7
 10
-63.30599589282343
 20
62.22927526707876
 30
0.0
  0
VERTEX
  5
571
  8
新図面
  6
DASHDOT
 62
     7
 10
-71.18630730578391
 20
63.57596309226285
 30
0.0
  0
VERTEX
  5
572
  8
新図面
  6
DASHDOT
 62
     7
 10
-79.13896572393463
 20
64.53369963716237
 30
0.0
  0
VERTEX
  5
573
  8
新図面
  6
DASHDOT
 62
     7
 10
-87.1308982306172
 20
65.11419822642695
 30
0.0
  0
VERTEX
  5
574
  8
新図面
  6
DASHDOT
 62
     7
 10
-94.90406717398642
 20
65.32607159876987
 30
0.0
  0
VERTEX
  5
575
  8
新図面
  6
DASHDOT
 62
     7
 10
-102.6844708178747
 20
65.19343542258765
 30
0.0
  0
VERTEX
  5
576
  8
新図面
  6
DASHDOT
 62
     7
 10
-110.4424813411088
 20
64.71525616923508
 30
0.0
  0
VERTEX
  5
577
  8
新図面
  6
DASHDOT
 62
     7
 10
-118.3472529320145
 20
63.86225052708717
 30
0.0
  0
VERTEX
  5
578
  8
新図面
  6
DASHDOT
 62
     7
 10
-126.1969029951563
 20
62.62752830517356
 30
0.0
  0
VERTEX
  5
579
  8
新図面
  6
DASHDOT
 62
     7
 10
-133.9597366520697
 20
60.99834265019895
 30
0.0
  0
VERTEX
  5
57A
  8
新図面
  6
DASHDOT
 62
     7
 10
-142.4126229346787
 20
58.71527787212388
 30
0.0
  0
VERTEX
  5
57B
  8
新図面
  6
DASHDOT
 62
     7
 10
-150.7363181365909
 20
55.88065330686025
 30
0.0
  0
SEQEND
  5
57C
  8
新図面
  6
DASHDOT
 62
     7
  0
ARC
  5
57D
  8
新図面
  6
DASHDOT
 62
     7
 10
-199.7522619422932
 20
52.13844773171193
 30
0.0
 40
49.49199219827067
 50
7.953246473242252
 51
26.83515898024713
  0
LINE
  5
57E
  8
新図面
  6
DASHDOT
 62
     7
 10
-156.0906855397662
 20
74.48037932217566
 30
0.0
 11
-155.5901131657594
 21
74.48037932217566
 31
0.0
  0
LINE
  5
57F
  8
新図面
  6
DASHDOT
 62
     7
 10
-35.50441983640577
 20
74.48037932217566
 30
0.0
 11
-36.00533671996109
 21
74.48037932217566
 31
0.0
  0
ARC
  5
580
  8
新図面
  6
DASHDOT
 62
     7
 10
8.14787297413973
 20
52.14342741003115
 30
0.0
 40
49.48176782428729
 50
153.1653135480013
 51
172.0509215509801
  0
POLYLINE
  5
581
  8
新図面
  6
DASHDOT
 62
     7
 66
     1
 10
0.0
 20
0.0
 30
0.0
  0
VERTEX
  5
582
  8
新図面
  6
DASHDOT
 62
     7
 10
-61.52315980228113
 20
69.09845021068087
 30
0.0
 42
0.1987891302068007
  0
VERTEX
  5
583
  8
新図面
  6
DASHDOT
 62
     7
 10
-61.19920337645108
 20
68.47680972140701
 30
0.0
 42
0.1990205670021538
  0
VERTEX
  5
584
  8
新図面
  6
DASHDOT
 62
     7
 10
-60.52890442216354
 20
68.26577157633348
 30
0.0
  0
VERTEX
  5
585
  8
新図面
  6
DASHDOT
 62
     7
 10
-60.52235874074157
 20
68.26646059543056
 30
0.0
  0
SEQEND
  5
586
  8
新図面
  6
DASHDOT
 62
     7
  0
POLYLINE
  5
587
  8
新図面
  6
DASHDOT
 62
     7
 66
     1
 10
0.0
 20
0.0
 30
0.0
  0
VERTEX
  5
588
  8
新図面
  6
DASHDOT
 62
     7
 10
-60.52235880228113
 20
68.26646021068088
 30
0.0
 42
0.1926886618185705
  0
VERTEX
  5
589
  8
新図面
  6
DASHDOT
 62
     7
 10
-59.85590873338312
 20
68.48208590953853
 30
0.0
 42
0.1926161123597734
  0
VERTEX
  5
58A
  8
新図面
  6
DASHDOT
 62
     7
 10
-59.52190380228114
 20
69.09845021068087
 30
0.0
  0
SEQEND
  5
58B
  8
新図面
  6
DASHDOT
 62
     7
  0
POLYLINE
  5
58C
  8
新図面
  6
DASHDOT
 62
     7
 66
     1
 10
0.0
 20
0.0
 30
0.0
  0
VERTEX
  5
58D
  8
新図面
  6
DASHDOT
 62
     7
 10
-60.52235874074157
 20
81.81636564846666
 30
0.0
  0
VERTEX
  5
58E
  8
新図面
  6
DASHDOT
 62
     7
 10
-60.19162957415758
 20
81.79431703736107
 30
0.0
  0
VERTEX
  5
58F
  8
新図面
  6
DASHDOT
 62
     7
 10
-59.89776292926577
 20
81.73264982817507
 30
0.0
  0
VERTEX
  5
590
  8
新図面
  6
DASHDOT
 62
     7
 10
-59.67417623227306
 20
81.63480911639395
 30
0.0
  0
VERTEX
  5
591
  8
新図面
  6
DASHDOT
 62
     7
 10
-59.54636318977029
 20
81.51078567892507
 30
0.0
  0
VERTEX
  5
592
  8
新図面
  6
DASHDOT
 62
     7
 10
-59.52190301182501
 20
81.42190221540555
 30
0.0
  0
SEQEND
  5
593
  8
新図面
  6
DASHDOT
 62
     7
  0
POLYLINE
  5
594
  8
新図面
  6
DASHDOT
 62
     7
 66
     1
 10
0.0
 20
0.0
 30
0.0
  0
VERTEX
  5
595
  8
新図面
  6
DASHDOT
 62
     7
 10
-61.52315897920664
 20
81.42190221540555
 30
0.0
  0
VERTEX
  5
596
  8
新図面
  6
DASHDOT
 62
     7
 10
-61.46665941324854
 20
81.55591642978176
 30
0.0
  0
VERTEX
  5
597
  8
新図面
  6
DASHDOT
 62
     7
 10
-61.30370639679623
 20
81.67132712853767
 30
0.0
  0
VERTEX
  5
598
  8
新図面
  6
DASHDOT
 62
     7
 10
-61.05290344547004
 20
81.75848804431446
 30
0.0
  0
VERTEX
  5
599
  8
新図面
  6
DASHDOT
 62
     7
 10
-60.74181132315198
 20
81.80671938110795
 30
0.0
  0
VERTEX
  5
59A
  8
新図面
  6
DASHDOT
 62
     7
 10
-60.52235874074157
 20
81.81636564846666
 30
0.0
  0
SEQEND
  5
59B
  8
新図面
  6
DASHDOT
 62
     7
  0
POLYLINE
  5
59C
  8
新図面
  6
DASHDOT
 62
     7
 66
     1
 10
0.0
 20
0.0
 30
0.0
  0
VERTEX
  5
59D
  8
新図面
  6
DASHDOT
 62
     7
 10
-131.0727466354303
 20
81.81636564846666
 30
0.0
  0
VERTEX
  5
59E
  8
新図面
  6
DASHDOT
 62
     7
 10
-130.7416729592978
 20
81.79431703736107
 30
0.0
  0
VERTEX
  5
59F
  8
新図面
  6
DASHDOT
 62
     7
 10
-130.4481508239546
 20
81.73264982817507
 30
0.0
  0
VERTEX
  5
5A0
  8
新図面
  6
DASHDOT
 62
     7
 10
-130.2242196174133
 20
81.63480911639395
 30
0.0
  0
VERTEX
  5
5A1
  8
新図面
  6
DASHDOT
 62
     7
 10
-130.096062065362
 20
81.51078567892507
 30
0.0
  0
VERTEX
  5
5A2
  8
新図面
  6
DASHDOT
 62
     7
 10
-130.0716018874168
 20
81.42190221540555
 30
0.0
  0
SEQEND
  5
5A3
  8
新図面
  6
DASHDOT
 62
     7
  0
POLYLINE
  5
5A4
  8
新図面
  6
DASHDOT
 62
     7
 66
     1
 10
0.0
 20
0.0
 30
0.0
  0
VERTEX
  5
5A5
  8
新図面
  6
DASHDOT
 62
     7
 10
-132.0732023643469
 20
81.42190221540555
 30
0.0
  0
VERTEX
  5
5A6
  8
新図面
  6
DASHDOT
 62
     7
 10
-132.0170473079373
 20
81.55591642978176
 30
0.0
  0
VERTEX
  5
5A7
  8
新図面
  6
DASHDOT
 62
     7
 10
-131.854094291485
 20
81.67132712853767
 30
0.0
  0
VERTEX
  5
5A8
  8
新図面
  6
DASHDOT
 62
     7
 10
-131.6026023210618
 20
81.75848804431446
 30
0.0
  0
VERTEX
  5
5A9
  8
新図面
  6
DASHDOT
 62
     7
 10
-131.2921992178408
 20
81.80671938110795
 30
0.0
  0
VERTEX
  5
5AA
  8
新図面
  6
DASHDOT
 62
     7
 10
-131.0727466354303
 20
81.81636564846666
 30
0.0
  0
SEQEND
  5
5AB
  8
新図面
  6
DASHDOT
 62
     7
  0
POLYLINE
  5
5AC
  8
新図面
  6
DASHDOT
 62
     7
 66
     1
 10
0.0
 20
0.0
 30
0.0
  0
VERTEX
  5
5AD
  8
新図面
  6
DASHDOT
 62
     7
 10
-132.0732018022811
 20
69.09845021068087
 30
0.0
 42
0.1989424068479704
  0
VERTEX
  5
5AE
  8
新図面
  6
DASHDOT
 62
     7
 10
-131.7488311687884
 20
68.47646251393546
 30
0.0
 42
0.1988668468821863
  0
VERTEX
  5
5AF
  8
新図面
  6
DASHDOT
 62
     7
 10
-131.0789478073038
 20
68.26577157633348
 30
0.0
  0
VERTEX
  5
5B0
  8
新図面
  6
DASHDOT
 62
     7
 10
-131.0727466354303
 20
68.26646059543056
 30
0.0
  0
SEQEND
  5
5B1
  8
新図面
  6
DASHDOT
 62
     7
  0
POLYLINE
  5
5B2
  8
新図面
  6
DASHDOT
 62
     7
 66
     1
 10
0.0
 20
0.0
 30
0.0
  0
VERTEX
  5
5B3
  8
新図面
  6
DASHDOT
 62
     7
 10
-131.0727458022811
 20
68.26646021068088
 30
0.0
 42
0.1925335584474927
  0
VERTEX
  5
5B4
  8
新図面
  6
DASHDOT
 62
     7
 10
-130.4062234683776
 20
68.48188907872735
 30
0.0
 42
0.1925948224722958
  0
VERTEX
  5
5B5
  8
新図面
  6
DASHDOT
 62
     7
 10
-130.0716018022812
 20
69.09845021068087
 30
0.0
  0
SEQEND
  5
5B6
  8
新図面
  6
DASHDOT
 62
     7
  0
LINE
  5
5B7
  8
新図面
  6
DASHDOT
 62
     7
 10
-40.85844273003255
 20
58.98640688681307
 30
0.0
 11
-40.85844273003255
 21
57.71654469094996
 31
0.0
  0
LINE
  5
5B8
  8
新図面
  6
DASHDOT
 62
     7
 10
-150.7363181365909
 20
58.98640688681307
 30
0.0
 11
-150.7363181365909
 21
57.71654469094996
 31
0.0
  0
LINE
  5
5B9
  8
新図面
  6
DASHDOT
 62
     7
 10
-36.00533671996109
 20
74.48037932217566
 30
0.0
 11
-36.00533671996109
 21
83.98539776597995
 31
0.0
  0
LINE
  5
5BA
  8
新図面
  6
DASHDOT
 62
     7
 10
-155.5901131657594
 20
74.48037932217566
 30
0.0
 11
-155.5901131657594
 21
83.98539776597995
 31
0.0
  0
ARC
  5
5BB
  8
新図面
  6
DASHDOT
 62
     7
 10
-199.9833991124057
 20
51.86070394761332
 30
0.0
 40
49.50917683287496
 50
6.622112686206834
 51
26.27653311899437
  0
ARC
  5
5BC
  8
新図面
  6
DASHDOT
 62
     7
 10
8.395947402745591
 20
51.85938793057512
 30
0.0
 40
49.51693120226562
 50
153.7261985435101
 51
173.3773959972798
  0
POLYLINE
  5
5BD
  8
新図面
  6
DASHDOT
 62
     7
 66
     1
 10
0.0
 20
0.0
 30
0.0
  0
VERTEX
  5
5BE
  8
新図面
  6
DASHDOT
 62
     7
 10
-60.52235874074157
 20
81.16937671633677
 30
0.0
  0
VERTEX
  5
5BF
  8
新図面
  6
DASHDOT
 62
     7
 10
-60.68806783358208
 20
81.15766339168685
 30
0.0
  0
VERTEX
  5
5C0
  8
新図面
  6
DASHDOT
 62
     7
 10
-60.83482890125372
 20
81.12562400367408
 30
0.0
  0
VERTEX
  5
5C1
  8
新図面
  6
DASHDOT
 62
     7
 10
-60.94679450452435
 20
81.07601462868645
 30
0.0
  0
VERTEX
  5
5C2
  8
新図面
  6
DASHDOT
 62
     7
 10
-61.01052877100147
 20
81.01331389085497
 30
0.0
  0
VERTEX
  5
5C3
  8
新図面
  6
DASHDOT
 62
     7
 10
-61.02293111474837
 20
80.96887215909526
 30
0.0
  0
SEQEND
  5
5C4
  8
新図面
  6
DASHDOT
 62
     7
  0
POLYLINE
  5
5C5
  8
新図面
  6
DASHDOT
 62
     7
 66
     1
 10
0.0
 20
0.0
 30
0.0
  0
VERTEX
  5
5C6
  8
新図面
  6
DASHDOT
 62
     7
 10
-60.02213087628328
 20
80.96887215909526
 30
0.0
  0
VERTEX
  5
5C7
  8
新図面
  6
DASHDOT
 62
     7
 10
-60.05038065926234
 20
81.03605152105756
 30
0.0
  0
VERTEX
  5
5C8
  8
新図面
  6
DASHDOT
 62
     7
 10
-60.13202942226276
 20
81.09461814430686
 30
0.0
  0
VERTEX
  5
5C9
  8
新図面
  6
DASHDOT
 62
     7
 10
-60.25708638837733
 20
81.13905987606655
 30
0.0
  0
VERTEX
  5
5CA
  8
新図面
  6
DASHDOT
 62
     7
 10
-60.41280470431063
 20
81.16420907310886
 30
0.0
  0
VERTEX
  5
5CB
  8
新図面
  6
DASHDOT
 62
     7
 10
-60.52235874074157
 20
81.16937671633677
 30
0.0
  0
SEQEND
  5
5CC
  8
新図面
  6
DASHDOT
 62
     7
  0
POLYLINE
  5
5CD
  8
新図面
  6
DASHDOT
 62
     7
 66
     1
 10
0.0
 20
0.0
 30
0.0
  0
VERTEX
  5
5CE
  8
新図面
  6
DASHDOT
 62
     7
 10
-131.0727466354303
 20
81.16937671633677
 30
0.0
  0
VERTEX
  5
5CF
  8
新図面
  6
DASHDOT
 62
     7
 10
-131.2381112187223
 20
81.15766339168685
 30
0.0
  0
VERTEX
  5
5D0
  8
新図面
  6
DASHDOT
 62
     7
 10
-131.384872286394
 20
81.12562400367408
 30
0.0
  0
VERTEX
  5
5D1
  8
新図面
  6
DASHDOT
 62
     7
 10
-131.4968378896646
 20
81.07601462868645
 30
0.0
  0
VERTEX
  5
5D2
  8
新図面
  6
DASHDOT
 62
     7
 10
-131.5609166656903
 20
81.01331389085497
 30
0.0
  0
VERTEX
  5
5D3
  8
新図面
  6
DASHDOT
 62
     7
 10
-131.5729744998886
 20
80.96887215909526
 30
0.0
  0
SEQEND
  5
5D4
  8
新図面
  6
DASHDOT
 62
     7
  0
POLYLINE
  5
5D5
  8
新図面
  6
DASHDOT
 62
     7
 66
     1
 10
0.0
 20
0.0
 30
0.0
  0
VERTEX
  5
5D6
  8
新図面
  6
DASHDOT
 62
     7
 10
-130.5725187709721
 20
80.96887215909526
 30
0.0
  0
VERTEX
  5
5D7
  8
新図面
  6
DASHDOT
 62
     7
 10
-130.6004240444026
 20
81.03605152105756
 30
0.0
  0
VERTEX
  5
5D8
  8
新図面
  6
DASHDOT
 62
     7
 10
-130.682072807403
 20
81.09461814430686
 30
0.0
  0
VERTEX
  5
5D9
  8
新図面
  6
DASHDOT
 62
     7
 10
-130.8074742830661
 20
81.13905987606655
 30
0.0
  0
VERTEX
  5
5DA
  8
新図面
  6
DASHDOT
 62
     7
 10
-130.9628480894509
 20
81.16420907310886
 30
0.0
  0
VERTEX
  5
5DB
  8
新図面
  6
DASHDOT
 62
     7
 10
-131.0727466354303
 20
81.16937671633677
 30
0.0
  0
SEQEND
  5
5DC
  8
新図面
  6
DASHDOT
 62
     7
  0
LINE
  5
5DD
  8
新図面
  6
DASHDOT
 62
     7
 10
-155.5901131657594
 20
73.77861337183028
 30
0.0
 11
-155.5901131657594
 21
74.48037932217566
 31
0.0
  0
LINE
  5
5DE
  8
新図面
  6
DASHDOT
 62
     7
 10
-36.00533671996109
 20
74.48037932217566
 30
0.0
 11
-36.00533671996109
 21
73.77861337183028
 31
0.0
  0
LINE
  5
5DF
  8
新図面
  6
DASHDOT
 62
     7
 10
-131.0727466354303
 20
68.26646059543056
 30
0.0
 11
-131.0727466354303
 21
68.28024097737158
 31
0.0
  0
ARC
  5
5E0
  8
新図面
  6
DASHDOT
 62
     7
 10
-132.3281315262636
 20
70.17360209428263
 30
0.0
 40
2.271741081893586
 50
303.5461958238739
 51
353.3658382746811
  0
LINE
  5
5E1
  8
新図面
  6
DASHDOT
 62
     7
 10
-130.0716018874168
 20
69.91114918008877
 30
0.0
 11
-130.0716018874168
 21
69.09845115511835
 31
0.0
  0
LINE
  5
5E2
  8
新図面
  6
DASHDOT
 62
     7
 10
-132.0732023643469
 20
69.09845115511835
 30
0.0
 11
-132.0732023643469
 21
69.91114918008877
 31
0.0
  0
ARC
  5
5E3
  8
新図面
  6
DASHDOT
 62
     7
 10
-129.9299440049795
 20
70.1035870426543
 30
0.0
 40
2.151880276861914
 50
185.1306881992828
 51
237.9221088015513
  0
LINE
  5
5E4
  8
新図面
  6
DASHDOT
 62
     7
 10
-132.0732023643469
 20
69.91114918008877
 30
0.0
 11
-132.0732023643469
 21
70.37761510879166
 31
0.0
  0
LINE
  5
5E5
  8
新図面
  6
DASHDOT
 62
     7
 10
-130.0716018874168
 20
70.37761510879166
 30
0.0
 11
-132.0732023643469
 21
70.37761510879166
 31
0.0
  0
LINE
  5
5E6
  8
新図面
  6
DASHDOT
 62
     7
 10
-130.0716018874168
 20
69.91114918008877
 30
0.0
 11
-130.0716018874168
 21
70.37761510879166
 31
0.0
  0
LINE
  5
5E7
  8
新図面
  6
DASHDOT
 62
     7
 10
-59.52190301182501
 20
69.91114918008877
 30
0.0
 11
-59.52190301182501
 21
69.09845115511835
 31
0.0
  0
LINE
  5
5E8
  8
新図面
  6
DASHDOT
 62
     7
 10
-60.52235874074157
 20
68.28024097737158
 30
0.0
 11
-60.52235874074157
 21
68.26646059543056
 31
0.0
  0
POLYLINE
  5
5E9
  8
新図面
  6
DASHDOT
 62
     7
 66
     1
 10
0.0
 20
0.0
 30
0.0
  0
VERTEX
  5
5EA
  8
新図面
  6
DASHDOT
 62
     7
 10
-60.52235880228111
 20
68.28024021068087
 30
0.0
 42
0.1157601183156195
  0
VERTEX
  5
5EB
  8
新図面
  6
DASHDOT
 62
     7
 10
-59.83149578486746
 20
68.97759050346825
 30
0.0
 42
0.1155185846120938
  0
VERTEX
  5
5EC
  8
新図面
  6
DASHDOT
 62
     7
 10
-59.52190380228113
 20
69.91114821068088
 30
0.0
  0
SEQEND
  5
5ED
  8
新図面
  6
DASHDOT
 62
     7
  0
POLYLINE
  5
5EE
  8
新図面
  6
DASHDOT
 62
     7
 66
     1
 10
0.0
 20
0.0
 30
0.0
  0
VERTEX
  5
5EF
  8
新図面
  6
DASHDOT
 62
     7
 10
-61.52315980228113
 20
69.91114821068088
 30
0.0
 42
0.1155699838715018
  0
VERTEX
  5
5F0
  8
新図面
  6
DASHDOT
 62
     7
 10
-61.21341636093994
 20
68.97745401463605
 30
0.0
 42
0.1157777157901914
  0
VERTEX
  5
5F1
  8
新図面
  6
DASHDOT
 62
     7
 10
-60.52235880228113
 20
68.28024021068087
 30
0.0
  0
SEQEND
  5
5F2
  8
新図面
  6
DASHDOT
 62
     7
  0
LINE
  5
5F3
  8
新図面
  6
DASHDOT
 62
     7
 10
-61.52315897920664
 20
69.91114918008877
 30
0.0
 11
-61.52315897920664
 21
70.37761510879166
 31
0.0
  0
LINE
  5
5F4
  8
新図面
  6
DASHDOT
 62
     7
 10
-61.52315897920664
 20
70.37761510879166
 30
0.0
 11
-59.52190301182501
 21
70.37761510879166
 31
0.0
  0
LINE
  5
5F5
  8
新図面
  6
DASHDOT
 62
     7
 10
-59.52190301182501
 20
69.91114918008877
 30
0.0
 11
-59.52190301182501
 21
70.37761510879166
 31
0.0
  0
LINE
  5
5F6
  8
新図面
  6
DASHDOT
 62
     7
 10
-61.52315897920664
 20
69.09845115511835
 30
0.0
 11
-61.52315897920664
 21
69.91114918008877
 31
0.0
  0
LINE
  5
5F7
  8
新図面
  6
DASHDOT
 62
     7
 10
-130.0716018874168
 20
82.57945429844948
 30
0.0
 11
-132.0732023643469
 21
82.57945429844948
 31
0.0
  0
LINE
  5
5F8
  8
新図面
  6
DASHDOT
 62
     7
 10
-132.0732023643469
 20
82.57945429844948
 30
0.0
 11
-132.0732023643469
 21
70.37761510879166
 31
0.0
  0
LINE
  5
5F9
  8
新図面
  6
DASHDOT
 62
     7
 10
-130.0716018874168
 20
82.57945429844948
 30
0.0
 11
-130.0716018874168
 21
70.37761510879166
 31
0.0
  0
LINE
  5
5FA
  8
新図面
  6
DASHDOT
 62
     7
 10
-61.52315897920664
 20
82.57945429844948
 30
0.0
 11
-59.52190301182501
 21
82.57945429844948
 31
0.0
  0
LINE
  5
5FB
  8
新図面
  6
DASHDOT
 62
     7
 10
-61.52315897920664
 20
82.57945429844948
 30
0.0
 11
-61.52315897920664
 21
70.37761510879166
 31
0.0
  0
LINE
  5
5FC
  8
新図面
  6
DASHDOT
 62
     7
 10
-59.52190301182501
 20
82.57945429844948
 30
0.0
 11
-59.52190301182501
 21
70.37761510879166
 31
0.0
  0
LINE
  5
5FD
  8
新図面
  6
DASHDOT
 62
     7
 10
-131.5729744998886
 20
69.59592294318846
 30
0.0
 11
-131.5729744998886
 21
68.81250822984266
 31
0.0
  0
LINE
  5
5FE
  8
新図面
  6
DASHDOT
 62
     7
 10
-131.0727466354303
 20
68.68917381147067
 30
0.0
 11
-131.0727466354303
 21
68.39737422387007
 31
0.0
  0
POLYLINE
  5
5FF
  8
新図面
  6
DASHDOT
 62
     7
 66
     1
 10
0.0
 20
0.0
 30
0.0
  0
VERTEX
  5
600
  8
新図面
  6
DASHDOT
 62
     7
 10
-131.5729738022811
 20
69.59592221068085
 30
0.0
 42
0.10266761861856
  0
VERTEX
  5
601
  8
新図面
  6
DASHDOT
 62
     7
 10
-131.4166325472745
 20
69.08966116903686
 30
0.0
 42
0.1030437177138366
  0
VERTEX
  5
602
  8
新図面
  6
DASHDOT
 62
     7
 10
-131.0727458022811
 20
68.68917321068085
 30
0.0
  0
SEQEND
  5
603
  8
新図面
  6
DASHDOT
 62
     7
  0
LINE
  5
604
  8
新図面
  6
DASHDOT
 62
     7
 10
-130.5725187709721
 20
68.81250822984266
 30
0.0
 11
-130.5725187709721
 21
69.59592294318846
 31
0.0
  0
POLYLINE
  5
605
  8
新図面
  6
DASHDOT
 62
     7
 66
     1
 10
0.0
 20
0.0
 30
0.0
  0
VERTEX
  5
606
  8
新図面
  6
DASHDOT
 62
     7
 10
-131.0727458022811
 20
68.68917321068086
 30
0.0
 42
0.1008668756708201
  0
VERTEX
  5
607
  8
新図面
  6
DASHDOT
 62
     7
 10
-130.7293654362099
 20
69.09259572569557
 30
0.0
 42
0.1013616245277861
  0
VERTEX
  5
608
  8
新図面
  6
DASHDOT
 62
     7
 10
-130.5725178022811
 20
69.59592221068085
 30
0.0
  0
SEQEND
  5
609
  8
新図面
  6
DASHDOT
 62
     7
  0
LINE
  5
60A
  8
新図面
  6
DASHDOT
 62
     7
 10
-60.52235874074157
 20
68.39737422387007
 30
0.0
 11
-60.52235874074157
 21
68.68917381147067
 31
0.0
  0
LINE
  5
60B
  8
新図面
  6
DASHDOT
 62
     7
 10
-61.02293111474837
 20
69.59592294318846
 30
0.0
 11
-61.02293111474837
 21
68.81250822984266
 31
0.0
  0
ARC
  5
60C
  8
新図面
  6
DASHDOT
 62
     7
 10
-59.73058062360955
 20
69.71782171848018
 30
0.0
 40
1.298086708723354
 50
185.3883853266668
 51
232.4135480805643
  0
LINE
  5
60D
  8
新図面
  6
DASHDOT
 62
     7
 10
-60.02213087628328
 20
68.81250822984266
 30
0.0
 11
-60.02213087628328
 21
69.59592294318846
 31
0.0
  0
POLYLINE
  5
60E
  8
新図面
  6
DASHDOT
 62
     7
 66
     1
 10
0.0
 20
0.0
 30
0.0
  0
VERTEX
  5
60F
  8
新図面
  6
DASHDOT
 62
     7
 10
-60.52235880228113
 20
68.68917321068086
 30
0.0
 42
0.1008573152941025
  0
VERTEX
  5
610
  8
新図面
  6
DASHDOT
 62
     7
 10
-60.17900269174267
 20
69.09255175953068
 30
0.0
 42
0.1013720076952017
  0
VERTEX
  5
611
  8
新図面
  6
DASHDOT
 62
     7
 10
-60.02213180228113
 20
69.59592221068085
 30
0.0
  0
SEQEND
  5
612
  8
新図面
  6
DASHDOT
 62
     7
  0
LINE
  5
613
  8
新図面
  6
DASHDOT
 62
     7
 10
-130.5725187709721
 20
70.08822708803068
 30
0.0
 11
-130.5725187709721
 21
69.59592294318846
 31
0.0
  0
LINE
  5
614
  8
新図面
  6
DASHDOT
 62
     7
 10
-131.5729744998886
 20
70.08822708803068
 30
0.0
 11
-131.5729744998886
 21
69.59592294318846
 31
0.0
  0
LINE
  5
615
  8
新図面
  6
DASHDOT
 62
     7
 10
-61.02293111474837
 20
70.08822708803068
 30
0.0
 11
-61.02293111474837
 21
69.59592294318846
 31
0.0
  0
LINE
  5
616
  8
新図面
  6
DASHDOT
 62
     7
 10
-60.02213087628328
 20
70.08822708803068
 30
0.0
 11
-60.02213087628328
 21
69.59592294318846
 31
0.0
  0
LINE
  5
617
  8
新図面
  6
DASHDOT
 62
     7
 10
-131.5729744998886
 20
82.12435718484805
 30
0.0
 11
-131.5729744998886
 21
70.08822708803068
 31
0.0
  0
LINE
  5
618
  8
新図面
  6
DASHDOT
 62
     7
 10
-130.5725187709721
 20
82.12435718484805
 30
0.0
 11
-130.5725187709721
 21
70.08822708803068
 31
0.0
  0
LINE
  5
619
  8
新図面
  6
DASHDOT
 62
     7
 10
-131.5729744998886
 20
70.08822708803068
 30
0.0
 11
-130.5725187709721
 21
70.08822708803068
 31
0.0
  0
LINE
  5
61A
  8
新図面
  6
DASHDOT
 62
     7
 10
-60.58540398812164
 20
83.06900236690358
 30
0.0
 11
-60.58540398812164
 21
71.03287227008617
 31
0.0
  0
LINE
  5
61B
  8
新図面
  6
DASHDOT
 62
     7
 10
-61.02293111474837
 20
82.12435718484805
 30
0.0
 11
-61.02293111474837
 21
70.08822708803068
 31
0.0
  0
LINE
  5
61C
  8
新図面
  6
DASHDOT
 62
     7
 10
-60.02213087628328
 20
70.08822708803068
 30
0.0
 11
-61.02293111474837
 21
70.08822708803068
 31
0.0
  0
POLYLINE
  5
61D
  8
新図面
  6
DASHDOT
 62
     7
 66
     1
 10
0.0
 20
0.0
 30
0.0
  0
VERTEX
  5
61E
  8
新図面
  6
DASHDOT
 62
     7
 10
-132.0732018022811
 20
82.71002321068086
 30
0.0
 42
-0.4022655771492034
  0
VERTEX
  5
61F
  8
新図面
  6
DASHDOT
 62
     7
 10
-132.0722312468544
 20
82.71103436168211
 30
0.0
 42
-0.030614355981748
  0
VERTEX
  5
620
  8
新図面
  6
DASHDOT
 62
     7
 10
-132.0563208022811
 20
82.71071221068085
 30
0.0
  0
SEQEND
  5
621
  8
新図面
  6
DASHDOT
 62
     7
  0
POLYLINE
  5
622
  8
新図面
  6
DASHDOT
 62
     7
 66
     1
 10
0.0
 20
0.0
 30
0.0
  0
VERTEX
  5
623
  8
新図面
  6
DASHDOT
 62
     7
 10
-131.0727458022811
 20
81.84978221068087
 30
0.0
 42
0.0351788640247241
  0
VERTEX
  5
624
  8
新図面
  6
DASHDOT
 62
     7
 10
-131.5214326603069
 20
82.31102321826707
 30
0.0
 42
0.0348974370865162
  0
VERTEX
  5
625
  8
新図面
  6
DASHDOT
 62
     7
 10
-132.0342718022811
 20
82.70830021068087
 30
0.0
  0
SEQEND
  5
626
  8
新図面
  6
DASHDOT
 62
     7
  0
POLYLINE
  5
627
  8
新図面
  6
DASHDOT
 62
     7
 66
     1
 10
0.0
 20
0.0
 30
0.0
  0
VERTEX
  5
628
  8
新図面
  6
DASHDOT
 62
     7
 10
-131.0727466354303
 20
81.84978307467357
 30
0.0
  0
VERTEX
  5
629
  8
新図面
  6
DASHDOT
 62
     7
 10
-131.067923501751
 20
81.85563973699855
 30
0.0
  0
VERTEX
  5
62A
  8
新図面
  6
DASHDOT
 62
     7
 10
-130.5594274081281
 20
82.36723641655816
 30
0.0
  0
VERTEX
  5
62B
  8
新図面
  6
DASHDOT
 62
     7
 10
-130.2669388014304
 20
82.60977113871975
 30
0.0
  0
VERTEX
  5
62C
  8
新図面
  6
DASHDOT
 62
     7
 10
-130.1174216573706
 20
82.70554479320965
 30
0.0
  0
VERTEX
  5
62D
  8
新図面
  6
DASHDOT
 62
     7
 10
-130.0716018874168
 20
82.71071243643756
 30
0.0
  0
SEQEND
  5
62E
  8
新図面
  6
DASHDOT
 62
     7
  0
LINE
  5
62F
  8
新図面
  6
DASHDOT
 62
     7
 10
-132.0732023643469
 20
82.57945429844948
 30
0.0
 11
-132.0732023643469
 21
82.71002341734045
 31
0.0
  0
LINE
  5
630
  8
新図面
  6
DASHDOT
 62
     7
 10
-130.0716018874168
 20
82.57945429844948
 30
0.0
 11
-130.0716018874168
 21
82.71002341734045
 31
0.0
  0
POLYLINE
  5
631
  8
新図面
  6
DASHDOT
 62
     7
 66
     1
 10
0.0
 20
0.0
 30
0.0
  0
VERTEX
  5
632
  8
新図面
  6
DASHDOT
 62
     7
 10
-60.52235874074157
 20
81.84978307467357
 30
0.0
  0
VERTEX
  5
633
  8
新図面
  6
DASHDOT
 62
     7
 10
-60.52718187442091
 20
81.85563973699855
 30
0.0
  0
VERTEX
  5
634
  8
新図面
  6
DASHDOT
 62
     7
 10
-61.03567796804379
 20
82.36723641655816
 30
0.0
  0
VERTEX
  5
635
  8
新図面
  6
DASHDOT
 62
     7
 10
-61.32782206519298
 20
82.60977113871975
 30
0.0
  0
VERTEX
  5
636
  8
新図面
  6
DASHDOT
 62
     7
 10
-61.47768371880135
 20
82.70554479320965
 30
0.0
  0
VERTEX
  5
637
  8
新図面
  6
DASHDOT
 62
     7
 10
-61.52315897920664
 20
82.71071243643756
 30
0.0
  0
SEQEND
  5
638
  8
新図面
  6
DASHDOT
 62
     7
  0
POLYLINE
  5
639
  8
新図面
  6
DASHDOT
 62
     7
 66
     1
 10
0.0
 20
0.0
 30
0.0
  0
VERTEX
  5
63A
  8
新図面
  6
DASHDOT
 62
     7
 10
-59.52190380228113
 20
82.71002321068086
 30
0.0
 42
0.4023030409208278
  0
VERTEX
  5
63B
  8
新図面
  6
DASHDOT
 62
     7
 10
-59.52287544730389
 20
82.71103536618564
 30
0.0
 42
0.0305820846755474
  0
VERTEX
  5
63C
  8
新図面
  6
DASHDOT
 62
     7
 10
-59.53878480228113
 20
82.71071221068085
 30
0.0
  0
SEQEND
  5
63D
  8
新図面
  6
DASHDOT
 62
     7
  0
ARC
  5
63E
  8
新図面
  6
DASHDOT
 62
     7
 10
-57.00781617457053
 20
78.88023322249249
 30
0.0
 40
4.601112449616541
 50
123.6965620050893
 51
139.8044596998394
  0
LINE
  5
63F
  8
新図面
  6
DASHDOT
 62
     7
 10
-61.52315897920664
 20
82.57945429844948
 30
0.0
 11
-61.52315897920664
 21
82.71002341734045
 31
0.0
  0
LINE
  5
640
  8
新図面
  6
DASHDOT
 62
     7
 10
-59.52190301182501
 20
82.57945429844948
 30
0.0
 11
-59.52190301182501
 21
82.71002341734045
 31
0.0
  0
POLYLINE
  5
641
  8
新図面
  6
DASHDOT
 62
     7
 66
     1
 10
0.0
 20
0.0
 30
0.0
  0
VERTEX
  5
642
  8
新図面
  6
DASHDOT
 62
     7
 10
-130.5725178022811
 20
82.21324021068085
 30
0.0
 42
0.0177622187506216
  0
VERTEX
  5
643
  8
新図面
  6
DASHDOT
 62
     7
 10
-130.8345325020587
 20
81.93299810117408
 30
0.0
 42
0.0179927076672412
  0
VERTEX
  5
644
  8
新図面
  6
DASHDOT
 62
     7
 10
-131.0727458022811
 20
81.63859821068085
 30
0.0
  0
SEQEND
  5
645
  8
新図面
  6
DASHDOT
 62
     7
  0
POLYLINE
  5
646
  8
新図面
  6
DASHDOT
 62
     7
 66
     1
 10
0.0
 20
0.0
 30
0.0
  0
VERTEX
  5
647
  8
新図面
  6
DASHDOT
 62
     7
 10
-131.0727458022811
 20
81.63859821068085
 30
0.0
 42
0.0364730473463781
  0
VERTEX
  5
648
  8
新図面
  6
DASHDOT
 62
     7
 10
-131.3000580592033
 20
81.94176957729198
 30
0.0
 42
0.0359042904070153
  0
VERTEX
  5
649
  8
新図面
  6
DASHDOT
 62
     7
 10
-131.5729738022811
 20
82.21324021068088
 30
0.0
  0
SEQEND
  5
64A
  8
新図面
  6
DASHDOT
 62
     7
  0
LINE
  5
64B
  8
新図面
  6
DASHDOT
 62
     7
 10
-131.5729744998886
 20
82.12435718484805
 30
0.0
 11
-130.5725187709721
 21
82.12435718484805
 31
0.0
  0
LINE
  5
64C
  8
新図面
  6
DASHDOT
 62
     7
 10
-131.5729744998886
 20
82.21737476294977
 30
0.0
 11
-131.5729744998886
 21
82.12435718484805
 31
0.0
  0
LINE
  5
64D
  8
新図面
  6
DASHDOT
 62
     7
 10
-130.5725187709721
 20
82.21737476294977
 30
0.0
 11
-130.5725187709721
 21
82.12435718484805
 31
0.0
  0
ARC
  5
64E
  8
新図面
  6
DASHDOT
 62
     7
 10
-56.28886764241603
 20
78.45837553311968
 30
0.0
 40
5.294928366564796
 50
134.8347126088764
 51
143.0859110521026
  0
POLYLINE
  5
64F
  8
新図面
  6
DASHDOT
 62
     7
 66
     1
 10
0.0
 20
0.0
 30
0.0
  0
VERTEX
  5
650
  8
新図面
  6
DASHDOT
 62
     7
 10
-60.52235880228113
 20
81.63859821068085
 30
0.0
 42
0.036272960098725
  0
VERTEX
  5
651
  8
新図面
  6
DASHDOT
 62
     7
 10
-60.75029501376518
 20
81.94213795604209
 30
0.0
 42
0.0358213329577798
  0
VERTEX
  5
652
  8
新図面
  6
DASHDOT
 62
     7
 10
-61.02293180228113
 20
82.21324021068087
 30
0.0
  0
SEQEND
  5
653
  8
新図面
  6
DASHDOT
 62
     7
  0
LINE
  5
654
  8
新図面
  6
DASHDOT
 62
     7
 10
-60.02213087628328
 20
82.12435718484805
 30
0.0
 11
-61.02293111474837
 21
82.12435718484805
 31
0.0
  0
LINE
  5
655
  8
新図面
  6
DASHDOT
 62
     7
 10
-60.02213087628328
 20
82.21737476294977
 30
0.0
 11
-60.02213087628328
 21
82.12435718484805
 31
0.0
  0
LINE
  5
656
  8
新図面
  6
DASHDOT
 62
     7
 10
-61.02293111474837
 20
82.21737476294977
 30
0.0
 11
-61.02293111474837
 21
82.12435718484805
 31
0.0
  0
LINE
  5
657
  8
新図面
  6
DASHDOT
 62
     7
 10
-131.0727466354303
 20
81.81636564846666
 30
0.0
 11
-131.0727466354303
 21
81.84978307467357
 31
0.0
  0
LINE
  5
658
  8
新図面
  6
DASHDOT
 62
     7
 10
-60.52235874074157
 20
81.84978307467357
 30
0.0
 11
-60.52235874074157
 21
81.81636564846666
 31
0.0
  0
LINE
  5
659
  8
新図面
  6
DASHDOT
 62
     7
 10
-131.0727466354303
 20
81.16937671633677
 30
0.0
 11
-131.0727466354303
 21
81.63859872142775
 31
0.0
  0
LINE
  5
65A
  8
新図面
  6
DASHDOT
 62
     7
 10
-60.52235874074157
 20
81.63859872142775
 30
0.0
 11
-60.52235874074157
 21
81.16937671633677
 31
0.0
  0
LINE
  5
65B
  8
新図面
  6
DASHDOT
 62
     7
 10
-156.0906855397662
 20
79.48369149540407
 30
0.0
 11
-155.5901131657594
 21
79.48369149540407
 31
0.0
  0
LINE
  5
65C
  8
新図面
  6
DASHDOT
 62
     7
 10
-35.50441983640577
 20
79.48369149540407
 30
0.0
 11
-36.00533671996109
 21
79.48369149540407
 31
0.0
  0
LINE
  5
65D
  8
新図面
  6
DASHDOT
 62
     7
 10
-155.5901131657594
 20
74.98060718663397
 30
0.0
 11
-156.0906855397662
 21
74.98060718663397
 31
0.0
  0
LINE
  5
65E
  8
新図面
  6
DASHDOT
 62
     7
 10
-156.0906855397662
 20
78.98346363094576
 30
0.0
 11
-155.5901131657594
 21
78.98346363094576
 31
0.0
  0
LINE
  5
65F
  8
新図面
  6
DASHDOT
 62
     7
 10
-35.50441983640577
 20
74.98060718663397
 30
0.0
 11
-36.00533671996109
 21
74.98060718663397
 31
0.0
  0
LINE
  5
660
  8
新図面
  6
DASHDOT
 62
     7
 10
-36.00533671996109
 20
78.98346363094576
 30
0.0
 11
-35.50441983640577
 21
78.98346363094576
 31
0.0
  0
LINE
  5
661
  8
新図面
  6
DASHDOT
 62
     7
 10
-156.0906855397662
 20
74.47796775533597
 30
0.0
 11
-155.5901131657594
 21
74.47796775533597
 31
0.0
  0
LINE
  5
662
  8
新図面
  6
DASHDOT
 62
     7
 10
-155.5901131657594
 20
79.48162443811286
 30
0.0
 11
-156.0906855397662
 21
79.48162443811286
 31
0.0
  0
LINE
  5
663
  8
新図面
  6
DASHDOT
 62
     7
 10
-35.50441983640577
 20
74.47796775533597
 30
0.0
 11
-36.00533671996109
 21
74.47796775533597
 31
0.0
  0
LINE
  5
664
  8
新図面
  6
DASHDOT
 62
     7
 10
-36.00533671996109
 20
79.48162443811286
 30
0.0
 11
-35.50441983640577
 21
79.48162443811286
 31
0.0
  0
POLYLINE
  5
665
  8
新図面
  6
DASHDOT
 62
     7
 66
     1
 10
0.0
 20
0.0
 30
0.0
  0
VERTEX
  5
666
  8
新図面
  6
DASHDOT
 62
     7
 10
-150.724604811941
 20
55.14133581572567
 30
0.0
  0
VERTEX
  5
667
  8
新図面
  6
DASHDOT
 62
     7
 10
-150.5061857581762
 20
55.22849673150257
 30
0.0
  0
VERTEX
  5
668
  8
新図面
  6
DASHDOT
 62
     7
 10
-146.4836922695985
 20
56.66992468253106
 30
0.0
  0
VERTEX
  5
669
  8
新図面
  6
DASHDOT
 62
     7
 10
-142.2827428348848
 20
58.01730152681226
 30
0.0
  0
VERTEX
  5
66A
  8
新図面
  6
DASHDOT
 62
     7
 10
-137.9023039253896
 20
59.26373707337565
 30
0.0
  0
VERTEX
  5
66B
  8
新図面
  6
DASHDOT
 62
     7
 10
-133.3509882798261
 20
60.40027407395955
 30
0.0
  0
VERTEX
  5
66C
  8
新図面
  6
DASHDOT
 62
     7
 10
-128.6525670570423
 20
61.41864429939947
 30
0.0
  0
VERTEX
  5
66D
  8
新図面
  6
DASHDOT
 62
     7
 10
-123.8621617848025
 20
62.30265580091456
 30
0.0
  0
VERTEX
  5
66E
  8
新図面
  6
DASHDOT
 62
     7
 10
-119.0128453797648
 20
63.04507387798587
 30
0.0
  0
VERTEX
  5
66F
  8
新図面
  6
DASHDOT
 62
     7
 10
-114.1414803636215
 20
63.63900833964296
 30
0.0
  0
VERTEX
  5
670
  8
新図面
  6
DASHDOT
 62
     7
 10
-109.2491002650182
 20
64.08893781001656
 30
0.0
  0
VERTEX
  5
671
  8
新図面
  6
DASHDOT
 62
     7
 10
-104.3374276316975
 20
64.39486228910677
 30
0.0
  0
VERTEX
  5
672
  8
新図面
  6
DASHDOT
 62
     7
 10
-99.4088740304991
 20
64.56057138194727
 30
0.0
  0
VERTEX
  5
673
  8
新図面
  6
DASHDOT
 62
     7
 10
-94.46447299006854
 20
64.58847665537787
 30
0.0
  0
VERTEX
  5
674
  8
新図面
  6
DASHDOT
 62
     7
 10
-89.51042568227928
 20
64.48064516668946
 30
0.0
  0
VERTEX
  5
675
  8
新図面
  6
DASHDOT
 62
     7
 10
-84.60082010624973
 20
64.23845495407646
 30
0.0
  0
VERTEX
  5
676
  8
新図面
  6
DASHDOT
 62
     7
 10
-79.70051628803036
 20
63.85570484566516
 30
0.0
  0
VERTEX
  5
677
  8
新図面
  6
DASHDOT
 62
     7
 10
-74.80262403665066
 20
63.32963876506757
 30
0.0
  0
VERTEX
  5
678
  8
新図面
  6
DASHDOT
 62
     7
 10
-69.92367981043984
 20
62.65577808815267
 30
0.0
  0
VERTEX
  5
679
  8
新図面
  6
DASHDOT
 62
     7
 10
-65.08125359637268
 20
61.83481183401766
 30
0.0
  0
VERTEX
  5
67A
  8
新図面
  6
DASHDOT
 62
     7
 10
-60.2911928336813
 20
60.86432843582277
 30
0.0
  0
VERTEX
  5
67B
  8
新図面
  6
DASHDOT
 62
     7
 10
-55.56727790430672
 20
59.74811749860176
 30
0.0
  0
VERTEX
  5
67C
  8
新図面
  6
DASHDOT
 62
     7
 10
-50.91915507560764
 20
58.48514549370917
 30
0.0
  0
VERTEX
  5
67D
  8
新図面
  6
DASHDOT
 62
     7
 10
-46.39643372257166
 20
57.08678123624627
 30
0.0
  0
VERTEX
  5
67E
  8
新図面
  6
DASHDOT
 62
     7
 10
-42.01633932262502
 20
55.56094844582917
 30
0.0
  0
VERTEX
  5
67F
  8
新図面
  6
DASHDOT
 62
     7
 10
-40.87394565971617
 20
55.11687563778047
 30
0.0
  0
SEQEND
  5
680
  8
新図面
  6
DASHDOT
 62
     7
  0
POLYLINE
  5
681
  8
新図面
  6
DASHDOT
 62
     7
 66
     1
 10
0.0
 20
0.0
 30
0.0
  0
VERTEX
  5
682
  8
新図面
  6
DASHDOT
 62
     7
 10
-150.7318395124601
 20
55.67291404909976
 30
0.0
  0
VERTEX
  5
683
  8
新図面
  6
DASHDOT
 62
     7
 10
-146.9446460455249
 20
57.04096146629247
 30
0.0
  0
VERTEX
  5
684
  8
新図面
  6
DASHDOT
 62
     7
 10
-142.7481752349421
 20
58.39901810657797
 30
0.0
  0
VERTEX
  5
685
  8
新図面
  6
DASHDOT
 62
     7
 10
-138.3722149495777
 20
59.65544443004858
 30
0.0
  0
VERTEX
  5
686
  8
新図面
  6
DASHDOT
 62
     7
 10
-133.8239998899509
 20
60.80369475528236
 30
0.0
  0
VERTEX
  5
687
  8
新図面
  6
DASHDOT
 62
     7
 10
-129.1273012149098
 20
61.83343379582355
 30
0.0
  0
VERTEX
  5
688
  8
新図面
  6
DASHDOT
 62
     7
 10
-124.3348288853787
 20
62.73053666018255
 30
0.0
  0
VERTEX
  5
689
  8
新図面
  6
DASHDOT
 62
     7
 10
-119.4806893466617
 20
63.48501257145226
 30
0.0
  0
VERTEX
  5
68A
  8
新図面
  6
DASHDOT
 62
     7
 10
-114.603123158645
 20
64.09272741505036
 30
0.0
  0
VERTEX
  5
68B
  8
新図面
  6
DASHDOT
 62
     7
 10
-109.7041973786197
 20
64.55471471962237
 30
0.0
  0
VERTEX
  5
68C
  8
新図面
  6
DASHDOT
 62
     7
 10
-104.78529004478
 20
64.87373056155646
 30
0.0
  0
VERTEX
  5
68D
  8
新図面
  6
DASHDOT
 62
     7
 10
-99.84846821441698
 20
65.05149748859536
 30
0.0
  0
VERTEX
  5
68E
  8
新図面
  6
DASHDOT
 62
     7
 10
-94.89579894482182
 20
65.09146059622425
 30
0.0
  0
VERTEX
  5
68F
  8
新図面
  6
DASHDOT
 62
     7
 10
-89.93313889831943
 20
64.99637596083137
 30
0.0
  0
VERTEX
  5
690
  8
新図面
  6
DASHDOT
 62
     7
 10
-85.01113097854298
 20
64.76555456331967
 30
0.0
  0
VERTEX
  5
691
  8
新図面
  6
DASHDOT
 62
     7
 10
-80.1008363834164
 20
64.39486228910677
 30
0.0
  0
VERTEX
  5
692
  8
新図面
  6
DASHDOT
 62
     7
 10
-75.193297864678
 20
63.88154306180455
 30
0.0
  0
VERTEX
  5
693
  8
新図面
  6
DASHDOT
 62
     7
 10
-70.30401835201143
 20
63.22042923818508
 30
0.0
  0
VERTEX
  5
694
  8
新図面
  6
DASHDOT
 62
     7
 10
-65.45056783239146
 20
62.41152081824846
 30
0.0
  0
VERTEX
  5
695
  8
新図面
  6
DASHDOT
 62
     7
 10
-60.64638217821056
 20
61.45447329244605
 30
0.0
  0
VERTEX
  5
696
  8
新図面
  6
DASHDOT
 62
     7
 10
-55.90593079050678
 20
60.34997567987496
 30
0.0
  0
VERTEX
  5
697
  8
新図面
  6
DASHDOT
 62
     7
 10
-51.23817091754178
 20
59.09802798053515
 30
0.0
  0
VERTEX
  5
698
  8
新図面
  6
DASHDOT
 62
     7
 10
-46.69340095340019
 20
57.71068802862506
 30
0.0
  0
VERTEX
  5
699
  8
新図面
  6
DASHDOT
 62
     7
 10
-42.28815735641122
 20
56.19381248646955
 30
0.0
  0
VERTEX
  5
69A
  8
新図面
  6
DASHDOT
 62
     7
 10
-40.87256762152207
 20
55.64983190934858
 30
0.0
  0
SEQEND
  5
69B
  8
新図面
  6
DASHDOT
 62
     7
  0
LINE
  5
69C
  8
新図面
  6
DASHDOT
 62
     7
 10
-130.0908944221342
 20
82.71725811785957
 30
0.0
 11
-132.0563213964692
 21
82.71725811785957
 31
0.0
  0
LINE
  5
69D
  8
新図面
  6
DASHDOT
 62
     7
 10
-59.53878397970274
 20
82.71725811785957
 30
0.0
 11
-61.50421095403777
 21
82.71725811785957
 31
0.0
  0
LINE
  5
69E
  8
新図面
  6
DASHDOT
 62
     7
 10
-130.5725187709721
 20
82.21737476294977
 30
0.0
 11
-131.5729744998886
 21
82.21737476294977
 31
0.0
  0
LINE
  5
69F
  8
新図面
  6
DASHDOT
 62
     7
 10
-60.02213087628328
 20
82.21737476294977
 30
0.0
 11
-61.02293111474837
 21
82.21737476294977
 31
0.0
  0
LINE
  5
6A0
  8
新図面
  6
DASHDOT
 62
     7
 10
92.31895795281896
 20
84.40845549156866
 30
0.0
 11
92.31895795281896
 21
84.90868335602697
 31
0.0
  0
POLYLINE
  5
6A1
  8
新図面
  6
DASHDOT
 62
     7
 66
     1
 10
0.0
 20
0.0
 30
0.0
  0
VERTEX
  5
6A2
  8
新図面
  6
DASHDOT
 62
     7
 10
86.81817319771888
 20
84.90868321068085
 30
0.0
 42
0.0055505473332491
  0
VERTEX
  5
6A3
  8
新図面
  6
DASHDOT
 62
     7
 10
86.07989957033523
 20
84.90048731274955
 30
0.0
 42
0.0060571564765027
  0
VERTEX
  5
6A4
  8
新図面
  6
DASHDOT
 62
     7
 10
85.40368719771887
 20
84.87727321068085
 30
0.0
 42
0.009221328486754
  0
VERTEX
  5
6A5
  8
新図面
  6
DASHDOT
 62
     7
 10
84.43506325923984
 20
84.81434914713053
 30
0.0
 42
0.0088995905437137
  0
VERTEX
  5
6A6
  8
新図面
  6
DASHDOT
 62
     7
 10
83.43443319771886
 20
84.71282721068086
 30
0.0
 42
0.0037772009681387
  0
VERTEX
  5
6A7
  8
新図面
  6
DASHDOT
 62
     7
 10
82.96075576207467
 20
84.65260199405616
 30
0.0
 42
0.0033965854738265
  0
VERTEX
  5
6A8
  8
新図面
  6
DASHDOT
 62
     7
 10
82.43496219771886
 20
84.57807021068088
 30
0.0
 42
0.0027395416492969
  0
VERTEX
  5
6A9
  8
新図面
  6
DASHDOT
 62
     7
 10
81.95033785256656
 20
84.50329730019533
 30
0.0
 42
0.0023003007702147
  0
VERTEX
  5
6AA
  8
新図面
  6
DASHDOT
 62
     7
 10
81.37423319771888
 20
84.40845521068086
 30
0.0
  0
SEQEND
  5
6AB
  8
新図面
  6
DASHDOT
 62
     7
  0
LINE
  5
6AC
  8
新図面
  6
DASHDOT
 62
     7
 10
90.81861886899266
 20
79.90674922099267
 30
0.0
 11
87.31564577959058
 21
79.90674922099267
 31
0.0
  0
ARC
  5
6AD
  8
新図面
  6
DASHDOT
 62
     7
 10
90.81861833326057
 20
79.40652121068085
 30
0.0
 40
0.50022786445831
 50
0.0
 51
90.00001552485762
  0
LINE
  5
6AE
  8
新図面
  6
DASHDOT
 62
     7
 10
62.60156429705388
 20
74.90309253821586
 30
0.0
 11
90.81861886899266
 21
74.90309253821586
 31
0.0
  0
ARC
  5
6AF
  8
新図面
  6
DASHDOT
 62
     7
 10
90.81861819771886
 20
75.40332007513909
 30
0.0
 40
0.5002278644582248
 50
270.0
 51
0.0000155095669789
  0
LINE
  5
6B0
  8
新図面
  6
DASHDOT
 62
     7
 10
91.31884673345088
 20
75.40332040267405
 30
0.0
 11
91.31884673345088
 21
79.40652135653436
 31
0.0
  0
ARC
  5
6B1
  8
新図面
  6
DASHDOT
 62
     7
 10
87.31837917151704
 20
49.37875672475637
 30
0.0
 40
35.53044689075465
 50
99.63071085845527
 51
134.0791700143353
  0
POLYLINE
  5
6B2
  8
新図面
  6
DASHDOT
 62
     7
 66
     1
 10
0.0
 20
0.0
 30
0.0
  0
VERTEX
  5
6B3
  8
新図面
  6
DASHDOT
 62
     7
 10
86.81817319771888
 20
84.40466521068088
 30
0.0
 42
0.0239440947715422
  0
VERTEX
  5
6B4
  8
新図面
  6
DASHDOT
 62
     7
 10
83.51211834208819
 20
84.24625340851172
 30
0.0
 42
0.0244182358331612
  0
VERTEX
  5
6B5
  8
新図面
  6
DASHDOT
 62
     7
 10
80.30034319771887
 20
83.77861621068085
 30
0.0
 42
0.0182557659767822
  0
VERTEX
  5
6B6
  8
新図面
  6
DASHDOT
 62
     7
 10
77.95579724103685
 20
83.22985609172416
 30
0.0
 42
0.0182770624706947
  0
VERTEX
  5
6B7
  8
新図面
  6
DASHDOT
 62
     7
 10
75.65953719771888
 20
82.51204321068086
 30
0.0
 42
0.0135643844268275
  0
VERTEX
  5
6B8
  8
新図面
  6
DASHDOT
 62
     7
 10
73.98561127536696
 20
81.86922507588547
 30
0.0
 42
0.0134769331360237
  0
VERTEX
  5
6B9
  8
新図面
  6
DASHDOT
 62
     7
 10
72.33824119771886
 20
81.13210621068087
 30
0.0
 42
0.0198723804148872
  0
VERTEX
  5
6BA
  8
新図面
  6
DASHDOT
 62
     7
 10
69.95974787169776
 20
79.87130376428954
 30
0.0
 42
0.0194832116811758
  0
VERTEX
  5
6BB
  8
新図面
  6
DASHDOT
 62
     7
 10
67.64237919771888
 20
78.39857921068086
 30
0.0
 42
0.0189462882616015
  0
VERTEX
  5
6BC
  8
新図面
  6
DASHDOT
 62
     7
 10
65.45115723106
 20
76.75696168705562
 30
0.0
 42
0.018400863556489
  0
VERTEX
  5
6BD
  8
新図面
  6
DASHDOT
 62
     7
 10
63.32744519771889
 20
74.90309221068087
 30
0.0
  0
SEQEND
  5
6BE
  8
新図面
  6
DASHDOT
 62
     7
  0
LINE
  5
6BF
  8
新図面
  6
DASHDOT
 62
     7
 10
62.60156429705388
 20
74.90309253821586
 30
0.0
 11
62.60156429705388
 21
74.20201560696746
 31
0.0
  0
POLYLINE
  5
6C0
  8
新図面
  6
DASHDOT
 62
     7
 66
     1
 10
0.0
 20
0.0
 30
0.0
  0
VERTEX
  5
6C1
  8
新図面
  6
DASHDOT
 62
     7
 10
63.32744519771887
 20
74.90309221068087
 30
0.0
 42
0.0032610593468443
  0
VERTEX
  5
6C2
  8
新図面
  6
DASHDOT
 62
     7
 10
62.93423638167356
 20
74.52824593319652
 30
0.0
 42
0.0038027494466984
  0
VERTEX
  5
6C3
  8
新図面
  6
DASHDOT
 62
     7
 10
62.60156419771887
 20
74.20201521068087
 30
0.0
  0
SEQEND
  5
6C4
  8
新図面
  6
DASHDOT
 62
     7
  0
LINE
  5
6C5
  8
新図面
  6
DASHDOT
 62
     7
 10
53.23469418220806
 20
57.59321027257808
 30
0.0
 11
53.36629682974457
 21
57.99284134886697
 31
0.0
  0
LINE
  5
6C6
  8
新図面
  6
DASHDOT
 62
     7
 10
53.23469418220806
 20
57.59321027257808
 30
0.0
 11
53.23469418220806
 21
59.40912010285315
 31
0.0
  0
ARC
  5
6C7
  8
新図面
  6
DASHDOT
 62
     7
 10
87.32026278590472
 20
49.38288952172813
 30
0.0
 40
35.02860366354518
 50
134.8838449288744
 51
165.7710170700954
  0
ARC
  5
6C8
  8
新図面
  6
DASHDOT
 62
     7
 10
87.32388400533746
 20
49.37887800362275
 30
0.0
 40
35.53418944293681
 50
134.0856824304485
 51
163.6042569364133
  0
POLYLINE
  5
6C9
  8
新図面
  6
DASHDOT
 62
     7
 66
     1
 10
0.0
 20
0.0
 30
0.0
  0
VERTEX
  5
6CA
  8
新図面
  6
DASHDOT
 62
     7
 10
49.17740522922936
 20
55.81209590670387
 30
0.0
  0
VERTEX
  5
6CB
  8
新図面
  6
DASHDOT
 62
     7
 10
49.99974952155848
 20
58.72216806309437
 30
0.0
  0
VERTEX
  5
6CC
  8
新図面
  6
DASHDOT
 62
     7
 10
50.85930084512826
 20
61.06931161719505
 30
0.0
  0
VERTEX
  5
6CD
  8
新図面
  6
DASHDOT
 62
     7
 10
51.54246327985338
 20
62.64923240673066
 30
0.0
  0
VERTEX
  5
6CE
  8
新図面
  6
DASHDOT
 62
     7
 10
52.12227285002088
 20
63.85053720243725
 30
0.0
  0
VERTEX
  5
6CF
  8
新図面
  6
DASHDOT
 62
     7
 10
52.56048899574468
 20
64.68425030986775
 30
0.0
  0
VERTEX
  5
6D0
  8
新図面
  6
DASHDOT
 62
     7
 10
52.82610585765748
 20
65.17138681148207
 30
0.0
  0
VERTEX
  5
6D1
  8
新図面
  6
DASHDOT
 62
     7
 10
52.89328521961978
 20
65.29265417256288
 30
0.0
  0
VERTEX
  5
6D2
  8
新図面
  6
DASHDOT
 62
     7
 10
52.76030453388917
 20
65.04908592175578
 30
0.0
  0
VERTEX
  5
6D3
  8
新図面
  6
DASHDOT
 62
     7
 10
52.44197771105208
 20
64.46652027519995
 30
0.0
  0
VERTEX
  5
6D4
  8
新図面
  6
DASHDOT
 62
     7
 10
51.96379845769938
 20
63.53221037960027
 30
0.0
  0
VERTEX
  5
6D5
  8
新図面
  6
DASHDOT
 62
     7
 10
51.35677263319836
 20
62.23685447714625
 30
0.0
  0
VERTEX
  5
6D6
  8
新図面
  6
DASHDOT
 62
     7
 10
50.64019277226636
 20
60.52016339684626
 30
0.0
  0
VERTEX
  5
6D7
  8
新図面
  6
DASHDOT
 62
     7
 10
49.88881744693346
 20
58.38592674373398
 30
0.0
  0
VERTEX
  5
6D8
  8
新図面
  6
DASHDOT
 62
     7
 10
49.17740522922936
 20
55.81209590670387
 30
0.0
  0
SEQEND
  5
6D9
  8
新図面
  6
DASHDOT
 62
     7
  0
POLYLINE
  5
6DA
  8
新図面
  6
DASHDOT
 62
     7
 66
     1
 10
0.0
 20
0.0
 30
0.0
  0
VERTEX
  5
6DB
  8
新図面
  6
DASHDOT
 62
     7
 10
49.17740519771887
 20
55.81209521068085
 30
0.0
 42
0.0498026947736035
  0
VERTEX
  5
6DC
  8
新図面
  6
DASHDOT
 62
     7
 10
49.75999366326168
 20
55.63104582417215
 30
0.0
 42
0.0502394527235212
  0
VERTEX
  5
6DD
  8
新図面
  6
DASHDOT
 62
     7
 10
50.36165119771887
 20
55.56983521068086
 30
0.0
 42
0.072290532465807
  0
VERTEX
  5
6DE
  8
新図面
  6
DASHDOT
 62
     7
 10
51.22777350512824
 20
55.69483914978419
 30
0.0
 42
0.0720436782777621
  0
VERTEX
  5
6DF
  8
新図面
  6
DASHDOT
 62
     7
 10
52.02523019771887
 20
56.06202321068086
 30
0.0
 42
0.0365235684694691
  0
VERTEX
  5
6E0
  8
新図面
  6
DASHDOT
 62
     7
 10
52.37917365374945
 20
56.33017653813333
 30
0.0
 42
0.0366391755021726
  0
VERTEX
  5
6E1
  8
新図面
  6
DASHDOT
 62
     7
 10
52.68909119771887
 20
56.64586221068087
 30
0.0
 42
0.0378717262848171
  0
VERTEX
  5
6E2
  8
新図面
  6
DASHDOT
 62
     7
 10
52.95724429457225
 20
57.01579349095194
 30
0.0
 42
0.0375013034962723
  0
VERTEX
  5
6E3
  8
新図面
  6
DASHDOT
 62
     7
 10
53.16889219771888
 20
57.42577821068086
 30
0.0
 42
0.0049723559005879
  0
VERTEX
  5
6E4
  8
新図面
  6
DASHDOT
 62
     7
 10
53.20559842620058
 20
57.51651618630358
 30
0.0
 42
0.005935908033512
  0
VERTEX
  5
6E5
  8
新図面
  6
DASHDOT
 62
     7
 10
53.23469319771887
 20
57.59321021068085
 30
0.0
  0
SEQEND
  5
6E6
  8
新図面
  6
DASHDOT
 62
     7
  0
POLYLINE
  5
6E7
  8
新図面
  6
DASHDOT
 62
     7
 66
     1
 10
0.0
 20
0.0
 30
0.0
  0
VERTEX
  5
6E8
  8
新図面
  6
DASHDOT
 62
     7
 10
56.77487430285076
 20
66.53254403770426
 30
0.0
  0
VERTEX
  5
6E9
  8
新図面
  6
DASHDOT
 62
     7
 10
56.77900841743308
 20
66.54150128596596
 30
0.0
  0
VERTEX
  5
6EA
  8
新図面
  6
DASHDOT
 62
     7
 10
56.74421295303206
 20
66.47845603858586
 30
0.0
  0
SEQEND
  5
6EB
  8
新図面
  6
DASHDOT
 62
     7
  0
POLYLINE
  5
6EC
  8
新図面
  6
DASHDOT
 62
     7
 66
     1
 10
0.0
 20
0.0
 30
0.0
  0
VERTEX
  5
6ED
  8
新図面
  6
DASHDOT
 62
     7
 10
49.39134565886336
 20
56.30336652290048
 30
0.0
  0
VERTEX
  5
6EE
  8
新図面
  6
DASHDOT
 62
     7
 10
50.09759023333957
 20
58.83964581914135
 30
0.0
  0
VERTEX
  5
6EF
  8
新図面
  6
DASHDOT
 62
     7
 10
50.84138634860498
 20
60.95080033250245
 30
0.0
  0
VERTEX
  5
6F0
  8
新図面
  6
DASHDOT
 62
     7
 10
51.55142052811497
 20
62.65198848311887
 30
0.0
  0
VERTEX
  5
6F1
  8
新図面
  6
DASHDOT
 62
     7
 10
52.18187300191566
 20
63.99867630830308
 30
0.0
  0
VERTEX
  5
6F2
  8
新図面
  6
DASHDOT
 62
     7
 10
52.67279910856378
 20
64.95641285320245
 30
0.0
  0
VERTEX
  5
6F3
  8
新図面
  6
DASHDOT
 62
     7
 10
52.99112593140087
 20
65.53760046156417
 30
0.0
  0
VERTEX
  5
6F4
  8
新図面
  6
DASHDOT
 62
     7
 10
53.10722564925386
 20
65.74878481480995
 30
0.0
  0
VERTEX
  5
6F5
  8
新図面
  6
DASHDOT
 62
     7
 10
53.03246707722387
 20
65.61614863862788
 30
0.0
  0
VERTEX
  5
6F6
  8
新図面
  6
DASHDOT
 62
     7
 10
52.77339589673308
 20
65.13796938527516
 30
0.0
  0
VERTEX
  5
6F7
  8
新図面
  6
DASHDOT
 62
     7
 10
52.32484446455358
 20
64.28496374312725
 30
0.0
  0
VERTEX
  5
6F8
  8
新図面
  6
DASHDOT
 62
     7
 10
51.72918745515388
 20
63.05024152121378
 30
0.0
  0
VERTEX
  5
6F9
  8
新図面
  6
DASHDOT
 62
     7
 10
51.02948856209967
 20
61.42105586623917
 30
0.0
  0
VERTEX
  5
6FA
  8
新図面
  6
DASHDOT
 62
     7
 10
50.19577545466917
 20
59.13868010726107
 30
0.0
  0
VERTEX
  5
6FB
  8
新図面
  6
DASHDOT
 62
     7
 10
49.39134565886336
 20
56.30336652290048
 30
0.0
  0
SEQEND
  5
6FC
  8
新図面
  6
DASHDOT
 62
     7
  0
POLYLINE
  5
6FD
  8
新図面
  6
DASHDOT
 62
     7
 66
     1
 10
0.0
 20
0.0
 30
0.0
  0
VERTEX
  5
6FE
  8
新図面
  6
DASHDOT
 62
     7
 10
49.39134519771888
 20
56.30336621068086
 30
0.0
 42
0.0498418925896806
  0
VERTEX
  5
6FF
  8
新図面
  6
DASHDOT
 62
     7
 10
49.87987614844037
 20
56.15192215715597
 30
0.0
 42
0.0502646138651701
  0
VERTEX
  5
700
  8
新図面
  6
DASHDOT
 62
     7
 10
50.38441019771888
 20
56.10101521068087
 30
0.0
 42
0.0722862258253232
  0
VERTEX
  5
701
  8
新図面
  6
DASHDOT
 62
     7
 10
51.1104511298566
 20
56.20644783802969
 30
0.0
 42
0.0720237597267483
  0
VERTEX
  5
702
  8
新図面
  6
DASHDOT
 62
     7
 10
51.77906219771886
 20
56.51497321068085
 30
0.0
 42
0.0744913706052393
  0
VERTEX
  5
703
  8
新図面
  6
DASHDOT
 62
     7
 10
52.34259120821689
 20
57.01406959772346
 30
0.0
 42
0.0742045325938385
  0
VERTEX
  5
704
  8
新図面
  6
DASHDOT
 62
     7
 10
52.73722219771888
 20
57.65901121068087
 30
0.0
 42
0.0251999638866983
  0
VERTEX
  5
705
  8
新図面
  6
DASHDOT
 62
     7
 10
52.82445993664054
 20
57.89666266530024
 30
0.0
 42
0.0254102824634332
  0
VERTEX
  5
706
  8
新図面
  6
DASHDOT
 62
     7
 10
52.88673919771888
 20
58.13994621068086
 30
0.0
  0
SEQEND
  5
707
  8
新図面
  6
DASHDOT
 62
     7
  0
ARC
  5
708
  8
新図面
  6
DASHDOT
 62
     7
 10
85.79965789938193
 20
50.23809494731729
 30
0.0
 40
33.78609209204249
 50
150.7055399092899
 51
157.0142940446111
  0
LINE
  5
709
  8
新図面
  6
DASHDOT
 62
     7
 10
53.34562625683309
 20
59.71745614878306
 30
0.0
 11
52.88673953819786
 21
58.13994692608718
 31
0.0
  0
POLYLINE
  5
70A
  8
新図面
  6
DASHDOT
 62
     7
 66
     1
 10
0.0
 20
0.0
 30
0.0
  0
VERTEX
  5
70B
  8
新図面
  6
DASHDOT
 62
     7
 10
35.40150191236079
 20
73.42618010368928
 30
0.0
  0
VERTEX
  5
70C
  8
新図面
  6
DASHDOT
 62
     7
 10
35.40425798874897
 20
73.42239049865547
 30
0.0
  0
VERTEX
  5
70D
  8
新図面
  6
DASHDOT
 62
     7
 10
35.58202491578787
 20
73.09889603259047
 30
0.0
  0
VERTEX
  5
70E
  8
新図面
  6
DASHDOT
 62
     7
 10
36.09224355715337
 20
72.17629946164057
 30
0.0
  0
VERTEX
  5
70F
  8
新図面
  6
DASHDOT
 62
     7
 10
36.89908491979888
 20
70.71454544724905
 30
0.0
  0
VERTEX
  5
710
  8
新図面
  6
DASHDOT
 62
     7
 10
38.02046350024777
 20
68.67952754411196
 30
0.0
  0
VERTEX
  5
711
  8
新図面
  6
DASHDOT
 62
     7
 10
39.41366011448277
 20
66.14324824787106
 30
0.0
  0
VERTEX
  5
712
  8
新図面
  6
DASHDOT
 62
     7
 10
40.44856679825186
 20
64.25636945059976
 30
0.0
  0
VERTEX
  5
713
  8
新図面
  6
DASHDOT
 62
     7
 10
41.58200321289898
 20
62.18276647802786
 30
0.0
  0
SEQEND
  5
714
  8
新図面
  6
DASHDOT
 62
     7
  0
POLYLINE
  5
715
  8
新図面
  6
DASHDOT
 62
     7
 66
     1
 10
0.0
 20
0.0
 30
0.0
  0
VERTEX
  5
716
  8
新図面
  6
DASHDOT
 62
     7
 10
48.60414134048376
 20
56.08012433545626
 30
0.0
  0
VERTEX
  5
717
  8
新図面
  6
DASHDOT
 62
     7
 10
45.10874746114926
 20
59.17347557166205
 30
0.0
  0
VERTEX
  5
718
  8
新図面
  6
DASHDOT
 62
     7
 10
41.58200321289898
 20
62.18276647802786
 30
0.0
  0
SEQEND
  5
719
  8
新図面
  6
DASHDOT
 62
     7
  0
LINE
  5
71A
  8
新図面
  6
DASHDOT
 62
     7
 10
49.17740522922936
 20
55.81209590670387
 30
0.0
 11
48.60414134048376
 21
56.08012433545626
 31
0.0
  0
LINE
  5
71B
  8
新図面
  6
DASHDOT
 62
     7
 10
49.39134565886336
 20
56.30336652290048
 30
0.0
 11
48.60414134048376
 21
56.67061370162806
 31
0.0
  0
POLYLINE
  5
71C
  8
新図面
  6
DASHDOT
 62
     7
 66
     1
 10
0.0
 20
0.0
 30
0.0
  0
VERTEX
  5
71D
  8
新図面
  6
DASHDOT
 62
     7
 10
41.58200321289898
 20
62.76395408638946
 30
0.0
  0
VERTEX
  5
71E
  8
新図面
  6
DASHDOT
 62
     7
 10
45.10874746114926
 20
59.75983082325168
 30
0.0
  0
VERTEX
  5
71F
  8
新図面
  6
DASHDOT
 62
     7
 10
48.60414134048376
 20
56.67061370162806
 30
0.0
  0
SEQEND
  5
720
  8
新図面
  6
DASHDOT
 62
     7
  0
POLYLINE
  5
721
  8
新図面
  6
DASHDOT
 62
     7
 66
     1
 10
0.0
 20
0.0
 30
0.0
  0
VERTEX
  5
722
  8
新図面
  6
DASHDOT
 62
     7
 10
35.40150191236079
 20
73.97911792907188
 30
0.0
  0
VERTEX
  5
723
  8
新図面
  6
DASHDOT
 62
     7
 10
35.40529151739456
 20
73.97153871900427
 30
0.0
  0
VERTEX
  5
724
  8
新図面
  6
DASHDOT
 62
     7
 10
35.58788157811288
 20
73.64287660971145
 30
0.0
  0
VERTEX
  5
725
  8
新図面
  6
DASHDOT
 62
     7
 10
36.10395688180328
 20
72.71097828095135
 30
0.0
  0
VERTEX
  5
726
  8
新図面
  6
DASHDOT
 62
     7
 10
36.91699941632218
 20
71.24061152784675
 30
0.0
  0
VERTEX
  5
727
  8
新図面
  6
DASHDOT
 62
     7
 10
38.04561269729008
 20
69.19766990509358
 30
0.0
  0
VERTEX
  5
728
  8
新図面
  6
DASHDOT
 62
     7
 10
39.44707754068968
 20
66.65346688923655
 30
0.0
  0
VERTEX
  5
729
  8
新図面
  6
DASHDOT
 62
     7
 10
40.46648129477508
 20
64.79759395133247
 30
0.0
  0
VERTEX
  5
72A
  8
新図面
  6
DASHDOT
 62
     7
 10
41.58200321289898
 20
62.76395408638946
 30
0.0
  0
SEQEND
  5
72B
  8
新図面
  6
DASHDOT
 62
     7
  0
LINE
  5
72C
  8
新図面
  6
DASHDOT
 62
     7
 10
48.60414134048376
 20
56.67061370162806
 30
0.0
 11
48.60414134048376
 21
56.08012433545626
 31
0.0
  0
ARC
  5
72D
  8
新図面
  6
DASHDOT
 62
     7
 10
87.956578892172
 20
49.20753550902684
 30
0.0
 40
36.18952342926237
 50
163.6267640052576
 51
165.7103993672872
  0
LINE
  5
72E
  8
新図面
  6
DASHDOT
 62
     7
 10
41.58200321289898
 20
62.18276647802786
 30
0.0
 11
41.58200321289898
 21
62.76395408638946
 31
0.0
  0
LINE
  5
72F
  8
新図面
  6
DASHDOT
 62
     7
 10
73.78985639495126
 20
82.27284080026227
 30
0.0
 11
73.80639285328049
 21
82.23942337405536
 31
0.0
  0
LINE
  5
730
  8
新図面
  6
DASHDOT
 62
     7
 10
72.88517432052468
 20
81.84495994099426
 30
0.0
 11
72.28572770609118
 21
83.13308114292916
 31
0.0
  0
ARC
  5
731
  8
新図面
  6
DASHDOT
 62
     7
 10
72.43079135994766
 20
81.64162135804189
 30
0.0
 40
1.498497832366209
 50
24.91257046142129
 51
95.5552779605478
  0
ARC
  5
732
  8
新図面
  6
DASHDOT
 62
     7
 10
86.46591236667608
 20
51.40182104016561
 30
0.0
 40
33.33498390599994
 50
112.3192372514236
 51
114.0417346448181
  0
LINE
  5
733
  8
新図面
  6
DASHDOT
 62
     7
 10
56.89097402070378
 20
70.33455141522607
 30
0.0
 11
58.05093767058737
 21
69.52116437115858
 31
0.0
  0
LINE
  5
734
  8
新図面
  6
DASHDOT
 62
     7
 10
57.47629574364767
 20
68.70295419341166
 30
0.0
 11
57.49421024017097
 21
68.68986283056778
 31
0.0
  0
ARC
  5
735
  8
新図面
  6
DASHDOT
 62
     7
 10
58.33732476165265
 20
69.93262930457875
 30
0.0
 40
1.501156836866315
 50
164.4700779179068
 51
234.9999613682012
  0
ARC
  5
736
  8
新図面
  6
DASHDOT
 62
     7
 10
87.08012902543648
 20
49.47807514537426
 30
0.0
 40
35.27632884002036
 50
145.3770160485183
 51
147.0020876935591
  0
ARC
  5
737
  8
新図面
  6
DASHDOT
 62
     7
 10
87.32114038601524
 20
49.37780680804077
 30
0.0
 40
37.03370724680284
 50
114.7766055578718
 51
144.6563870589943
  0
POLYLINE
  5
738
  8
新図面
  6
DASHDOT
 62
     7
 66
     1
 10
0.0
 20
0.0
 30
0.0
  0
VERTEX
  5
739
  8
新図面
  6
DASHDOT
 62
     7
 10
57.11283719771886
 20
70.80101721068085
 30
0.0
 42
0.0431761213381981
  0
VERTEX
  5
73A
  8
新図面
  6
DASHDOT
 62
     7
 10
56.98239590260654
 20
70.57852614217948
 30
0.0
 42
0.0427471545346458
  0
VERTEX
  5
73B
  8
新図面
  6
DASHDOT
 62
     7
 10
56.89097319771888
 20
70.33455121068086
 30
0.0
  0
SEQEND
  5
73C
  8
新図面
  6
DASHDOT
 62
     7
  0
POLYLINE
  5
73D
  8
新図面
  6
DASHDOT
 62
     7
 66
     1
 10
0.0
 20
0.0
 30
0.0
  0
VERTEX
  5
73E
  8
新図面
  6
DASHDOT
 62
     7
 10
72.28572719771888
 20
83.13308021068086
 30
0.0
 42
0.0424039732990985
  0
VERTEX
  5
73F
  8
新図面
  6
DASHDOT
 62
     7
 10
72.04053613448978
 20
83.08887811205794
 30
0.0
 42
0.0414916287133402
  0
VERTEX
  5
740
  8
新図面
  6
DASHDOT
 62
     7
 10
71.80100219771886
 20
83.00251121068085
 30
0.0
  0
SEQEND
  5
741
  8
新図面
  6
DASHDOT
 62
     7
  0
LINE
  5
742
  8
新図面
  6
DASHDOT
 62
     7
 10
73.33613731954388
 20
82.06165644701646
 30
0.0
 11
73.55662343059977
 21
81.59243444192548
 31
0.0
  0
POLYLINE
  5
743
  8
新図面
  6
DASHDOT
 62
     7
 66
     1
 10
0.0
 20
0.0
 30
0.0
  0
VERTEX
  5
744
  8
新図面
  6
DASHDOT
 62
     7
 10
73.33613719771888
 20
82.06165621068085
 30
0.0
 42
0.1317599482890473
  0
VERTEX
  5
745
  8
新図面
  6
DASHDOT
 62
     7
 10
73.00335821897197
 20
82.45929146631617
 30
0.0
 42
0.1320201118807048
  0
VERTEX
  5
746
  8
新図面
  6
DASHDOT
 62
     7
 10
72.51758219771888
 20
82.63629821068086
 30
0.0
  0
SEQEND
  5
747
  8
新図面
  6
DASHDOT
 62
     7
  0
LINE
  5
748
  8
新図面
  6
DASHDOT
 62
     7
 10
72.51758263224848
 20
82.63629837395617
 30
0.0
 11
73.09773671196446
 21
81.39192988468388
 31
0.0
  0
POLYLINE
  5
749
  8
新図面
  6
DASHDOT
 62
     7
 66
     1
 10
0.0
 20
0.0
 30
0.0
  0
VERTEX
  5
74A
  8
新図面
  6
DASHDOT
 62
     7
 10
73.55662319771888
 20
81.59243421068085
 30
0.0
 42
0.0018291615358831
  0
VERTEX
  5
74B
  8
新図面
  6
DASHDOT
 62
     7
 10
73.31402695570081
 20
81.48749018136083
 30
0.0
 42
0.0020452431348648
  0
VERTEX
  5
74C
  8
新図面
  6
DASHDOT
 62
     7
 10
73.09773619771887
 20
81.39192921068086
 30
0.0
  0
SEQEND
  5
74D
  8
新図面
  6
DASHDOT
 62
     7
  0
LINE
  5
74E
  8
新図面
  6
DASHDOT
 62
     7
 10
58.17978424173567
 20
68.82008743991015
 30
0.0
 11
57.76361670711746
 21
69.11257604660786
 31
0.0
  0
LINE
  5
74F
  8
新図面
  6
DASHDOT
 62
     7
 10
58.46090403333208
 20
69.23522144588277
 30
0.0
 11
57.33952545288328
 21
70.01863615922856
 31
0.0
  0
POLYLINE
  5
750
  8
新図面
  6
DASHDOT
 62
     7
 66
     1
 10
0.0
 20
0.0
 30
0.0
  0
VERTEX
  5
751
  8
新図面
  6
DASHDOT
 62
     7
 10
57.33952519771888
 20
70.01863521068087
 30
0.0
 42
0.1319148678758333
  0
VERTEX
  5
752
  8
新図面
  6
DASHDOT
 62
     7
 10
57.42977167384443
 20
69.50918487884296
 30
0.0
 42
0.1317755900640774
  0
VERTEX
  5
753
  8
新図面
  6
DASHDOT
 62
     7
 10
57.76361619771886
 20
69.11257521068087
 30
0.0
  0
SEQEND
  5
754
  8
新図面
  6
DASHDOT
 62
     7
  0
POLYLINE
  5
755
  8
新図面
  6
DASHDOT
 62
     7
 66
     1
 10
0.0
 20
0.0
 30
0.0
  0
VERTEX
  5
756
  8
新図面
  6
DASHDOT
 62
     7
 10
58.46090319771888
 20
69.23522121068088
 30
0.0
 42
0.0023154616360522
  0
VERTEX
  5
757
  8
新図面
  6
DASHDOT
 62
     7
 10
58.33138479333137
 20
69.04585413119419
 30
0.0
 42
0.0019545749504842
  0
VERTEX
  5
758
  8
新図面
  6
DASHDOT
 62
     7
 10
58.17978419771886
 20
68.82008721068085
 30
0.0
  0
SEQEND
  5
759
  8
新図面
  6
DASHDOT
 62
     7
  0
ARC
  5
75A
  8
新図面
  6
DASHDOT
 62
     7
 10
58.33314652907977
 20
69.93182940662949
 30
0.0
 40
0.9974057626455511
 50
144.5060381696277
 51
175.0070861733212
  0
POLYLINE
  5
75B
  8
新図面
  6
DASHDOT
 62
     7
 66
     1
 10
0.0
 20
0.0
 30
0.0
  0
VERTEX
  5
75C
  8
新図面
  6
DASHDOT
 62
     7
 10
72.51758219771888
 20
82.63629821068086
 30
0.0
 42
0.0646555629101376
  0
VERTEX
  5
75D
  8
新図面
  6
DASHDOT
 62
     7
 10
72.25719915298383
 20
82.624784975564
 30
0.0
 42
0.0649675192926444
  0
VERTEX
  5
75E
  8
新図面
  6
DASHDOT
 62
     7
 10
72.00977519771887
 20
82.54741421068086
 30
0.0
  0
SEQEND
  5
75F
  8
新図面
  6
DASHDOT
 62
     7
  0
ARC
  5
760
  8
新図面
  6
DASHDOT
 62
     7
 10
87.30818407136896
 20
49.39373433923534
 30
0.0
 40
36.51311871735513
 50
114.7704528242065
 51
144.6657266216939
  0
LINE
  5
761
  8
新図面
  6
DASHDOT
 62
     7
 10
73.55662343059977
 20
81.59243444192548
 30
0.0
 11
73.54249853911027
 21
81.58588876050347
 31
0.0
  0
LINE
  5
762
  8
新図面
  6
DASHDOT
 62
     7
 10
87.31564577959058
 20
74.90068097137616
 30
0.0
 11
87.81587364404886
 21
74.90068097137616
 31
0.0
  0
LINE
  5
763
  8
新図面
  6
DASHDOT
 62
     7
 10
87.31564577959058
 20
79.90468216370157
 30
0.0
 11
87.81587364404886
 21
79.90468216370157
 31
0.0
  0
POLYLINE
  5
764
  8
新図面
  6
DASHDOT
 62
     7
 66
     1
 10
0.0
 20
0.0
 30
0.0
  0
VERTEX
  5
765
  8
新図面
  6
DASHDOT
 62
     7
 10
53.11480419771887
 20
65.76566521068087
 30
0.0
 42
0.1792060755016313
  0
VERTEX
  5
766
  8
新図面
  6
DASHDOT
 62
     7
 10
54.81676748367177
 20
65.60121233499636
 30
0.0
 42
0.1793645905051216
  0
VERTEX
  5
767
  8
新図面
  6
DASHDOT
 62
     7
 10
56.21297919771888
 20
66.58387521068084
 30
0.0
  0
SEQEND
  5
768
  8
新図面
  6
DASHDOT
 62
     7
  0
LINE
  5
769
  8
新図面
  6
DASHDOT
 62
     7
 10
52.89431874826538
 20
65.29919985398486
 30
0.0
 11
35.37910879170668
 21
73.46614321131806
 31
0.0
  0
LINE
  5
76A
  8
新図面
  6
DASHDOT
 62
     7
 10
53.10722564925386
 20
65.75291892939227
 30
0.0
 11
35.37910879170668
 21
74.01908103670065
 31
0.0
  0
LINE
  5
76B
  8
新図面
  6
DASHDOT
 62
     7
 10
35.37910879170668
 20
73.97911792907188
 30
0.0
 11
35.37910879170668
 21
73.42618010368928
 31
0.0
  0
LINE
  5
76C
  8
新図面
  6
CONTINUOUS
 62
     7
 10
108.7999502447057
 20
66.41299922436617
 30
0.0
 11
108.7999502447057
 21
65.91242685035935
 31
0.0
  0
LINE
  5
76D
  8
新図面
  6
CONTINUOUS
 62
     7
 10
108.3000668897959
 20
65.91242685035935
 30
0.0
 11
108.3000668897959
 21
66.41299922436617
 31
0.0
  0
LINE
  5
76E
  8
新図面
  6
CONTINUOUS
 62
     7
 10
108.3000668897959
 20
66.41299922436617
 30
0.0
 11
108.7999502447057
 21
66.41299922436617
 31
0.0
  0
LINE
  5
76F
  8
新図面
  6
CONTINUOUS
 62
     7
 10
108.7999502447057
 20
65.91242685035935
 30
0.0
 11
108.3000668897959
 21
65.91242685035935
 31
0.0
  0
ARC
  5
770
  8
新図面
  6
CONTINUOUS
 62
     7
 10
125.1526894004927
 20
65.91236057210175
 30
0.0
 40
3.502562310441393
 50
201.2316784184053
 51
269.9959280151728
  0
POLYLINE
  5
771
  8
新図面
  6
CONTINUOUS
 62
     7
 66
     1
 10
0.0
 20
0.0
 30
0.0
  0
VERTEX
  5
772
  8
新図面
  6
CONTINUOUS
 62
     7
 10
121.8878671977189
 20
64.64394221068086
 30
0.0
 42
0.0498386815361187
  0
VERTEX
  5
773
  8
新図面
  6
CONTINUOUS
 62
     7
 10
121.2800036992091
 20
65.84014979221452
 30
0.0
 42
0.0502728242912409
  0
VERTEX
  5
774
  8
新図面
  6
CONTINUOUS
 62
     7
 10
120.4537221977189
 20
66.88265121068086
 30
0.0
 42
0.0723152405742253
  0
VERTEX
  5
775
  8
新図面
  6
CONTINUOUS
 62
     7
 10
118.9283201182897
 20
68.05616234727175
 30
0.0
 42
0.0720681426734456
  0
VERTEX
  5
776
  8
新図面
  6
CONTINUOUS
 62
     7
 10
117.1261701977189
 20
68.74993121068086
 30
0.0
 42
0.0365286295278558
  0
VERTEX
  5
777
  8
新図面
  6
CONTINUOUS
 62
     7
 10
116.160779166077
 20
68.89639606845596
 30
0.0
 42
0.0366617083208892
  0
VERTEX
  5
778
  8
新図面
  6
CONTINUOUS
 62
     7
 10
115.1877901977189
 20
68.90053321068085
 30
0.0
 42
0.0378939870282268
  0
VERTEX
  5
779
  8
新図面
  6
CONTINUOUS
 62
     7
 10
114.1935727096228
 20
68.75556661617786
 30
0.0
 42
0.0375304760970998
  0
VERTEX
  5
77A
  8
新図面
  6
CONTINUOUS
 62
     7
 10
113.2231081977189
 20
68.46007421068087
 30
0.0
 42
0.0641534591009469
  0
VERTEX
  5
77B
  8
新図面
  6
CONTINUOUS
 62
     7
 10
111.7213956201039
 20
67.64231266062895
 30
0.0
 42
0.0645500385141201
  0
VERTEX
  5
77C
  8
新図面
  6
CONTINUOUS
 62
     7
 10
110.4690981977189
 20
66.46226321068086
 30
0.0
  0
SEQEND
  5
77D
  8
新図面
  6
CONTINUOUS
 62
     7
  0
ARC
  5
77E
  8
新図面
  6
CONTINUOUS
 62
     7
 10
109.3078007595623
 20
67.4137207695182
 30
0.0
 40
1.501293919787373
 50
269.9983421316891
 51
320.6720889818683
  0
POLYLINE
  5
77F
  8
新図面
  6
CONTINUOUS
 62
     7
 66
     1
 10
0.0
 20
0.0
 30
0.0
  0
VERTEX
  5
780
  8
新図面
  6
CONTINUOUS
 62
     7
 10
109.3077571977189
 20
66.41299921068087
 30
0.0
 42
0.1110028209564625
  0
VERTEX
  5
781
  8
新図面
  6
CONTINUOUS
 62
     7
 10
109.7362056400858
 20
66.509303811453
 30
0.0
 42
0.1113137986558043
  0
VERTEX
  5
782
  8
新図面
  6
CONTINUOUS
 62
     7
 10
110.0811811977189
 20
66.77921221068085
 30
0.0
  0
SEQEND
  5
783
  8
新図面
  6
CONTINUOUS
 62
     7
  0
POLYLINE
  5
784
  8
新図面
  6
CONTINUOUS
 62
     7
 66
     1
 10
0.0
 20
0.0
 30
0.0
  0
VERTEX
  5
785
  8
新図面
  6
CONTINUOUS
 62
     7
 10
122.3543331977189
 20
64.82515421068085
 30
0.0
 42
0.0498563151591664
  0
VERTEX
  5
786
  8
新図面
  6
CONTINUOUS
 62
     7
 10
121.7013112260044
 20
66.11068610874817
 30
0.0
 42
0.0502859095807016
  0
VERTEX
  5
787
  8
新図面
  6
CONTINUOUS
 62
     7
 10
120.8134601977189
 20
67.23105821068087
 30
0.0
 42
0.0723251487826284
  0
VERTEX
  5
788
  8
新図面
  6
CONTINUOUS
 62
     7
 10
119.1742411132837
 20
68.49222537418173
 30
0.0
 42
0.0720634324846594
  0
VERTEX
  5
789
  8
新図面
  6
CONTINUOUS
 62
     7
 10
117.2371891977189
 20
69.23798521068089
 30
0.0
 42
0.0365218412481261
  0
VERTEX
  5
78A
  8
新図面
  6
CONTINUOUS
 62
     7
 10
116.1994919477448
 20
69.39547257280289
 30
0.0
 42
0.0366489641608659
  0
VERTEX
  5
78B
  8
新図面
  6
CONTINUOUS
 62
     7
 10
115.1536091977189
 20
69.40001221068086
 30
0.0
 42
0.0378796900494737
  0
VERTEX
  5
78C
  8
新図面
  6
CONTINUOUS
 62
     7
 10
114.0848628014508
 20
69.24433264565609
 30
0.0
 42
0.0375162510245273
  0
VERTEX
  5
78D
  8
新図面
  6
CONTINUOUS
 62
     7
 10
113.0415511977189
 20
68.92688521068085
 30
0.0
 42
0.0643076719582896
  0
VERTEX
  5
78E
  8
新図面
  6
CONTINUOUS
 62
     7
 10
111.4236817489869
 20
68.04474871990176
 30
0.0
 42
0.0642241310121382
  0
VERTEX
  5
78F
  8
新図面
  6
CONTINUOUS
 62
     7
 10
110.0811811977189
 20
66.77921221068085
 30
0.0
  0
SEQEND
  5
790
  8
新図面
  6
CONTINUOUS
 62
     7
  0
ARC
  5
791
  8
新図面
  6
CONTINUOUS
 62
     7
 10
125.1535700658979
 20
65.91387373591841
 30
0.0
 40
3.00350330382043
 50
201.2527667907989
 51
269.978451565911
  0
LINE
  5
792
  8
新図面
  6
CONTINUOUS
 62
     7
 10
130.315260569188
 20
62.91037064451255
 30
0.0
 11
125.1524404749925
 21
62.91037064451255
 31
0.0
  0
LINE
  5
793
  8
新図面
  6
CONTINUOUS
 62
     7
 10
130.315260569188
 20
62.40979827050587
 30
0.0
 11
130.315260569188
 21
62.91037064451255
 31
0.0
  0
LINE
  5
794
  8
新図面
  6
CONTINUOUS
 62
     7
 10
125.1524404749925
 20
62.40979827050587
 30
0.0
 11
130.315260569188
 21
62.40979827050587
 31
0.0
  0
LINE
  5
795
  8
新図面
  6
CONTINUOUS
 62
     7
 10
109.3077573192315
 20
66.41299922436617
 30
0.0
 11
108.7999502447057
 21
66.41299922436617
 31
0.0
  0
LINE
  5
796
  8
新図面
  6
CONTINUOUS
 62
     7
 10
108.7999502447057
 20
65.91242685035935
 30
0.0
 11
109.3077573192315
 21
65.91242685035935
 31
0.0
  0
LINE
  5
797
  8
新図面
  6
CONTINUOUS
 62
     7
 10
130.8154884336462
 20
62.91037064451255
 30
0.0
 11
130.8154884336462
 21
62.40979827050587
 31
0.0
  0
LINE
  5
798
  8
新図面
  6
CONTINUOUS
 62
     7
 10
130.315260569188
 20
62.91037064451255
 30
0.0
 11
130.8154884336462
 21
62.91037064451255
 31
0.0
  0
LINE
  5
799
  8
新図面
  6
CONTINUOUS
 62
     7
 10
130.8154884336462
 20
62.40979827050587
 30
0.0
 11
130.315260569188
 21
62.40979827050587
 31
0.0
  0
LINE
  5
79A
  8
新図面
  6
CONTINUOUS
 62
     7
 10
122.3543339218726
 20
-15.93201757362404
 30
0.0
 11
122.3543339218726
 21
-7.266224390026522
 31
0.0
  0
POLYLINE
  5
79B
  8
新図面
  6
CONTINUOUS
 62
     7
 66
     1
 10
0.0
 20
0.0
 30
0.0
  0
VERTEX
  5
79C
  8
新図面
  6
CONTINUOUS
 62
     7
 10
122.3543339218726
 20
-15.93201757362404
 30
0.0
  0
VERTEX
  5
79D
  8
新図面
  6
CONTINUOUS
 62
     7
 10
121.8530725287688
 20
-16.45153797279973
 30
0.0
  0
VERTEX
  5
79E
  8
新図面
  6
CONTINUOUS
 62
     7
 10
121.1905806669552
 20
-16.92317154473032
 30
0.0
  0
VERTEX
  5
79F
  8
新図面
  6
CONTINUOUS
 62
     7
 10
120.387873418892
 20
-17.33692751250895
 30
0.0
  0
VERTEX
  5
7A0
  8
新図面
  6
CONTINUOUS
 62
     7
 10
119.4625207715539
 20
-17.67971451329124
 30
0.0
  0
VERTEX
  5
7A1
  8
新図面
  6
CONTINUOUS
 62
     7
 10
118.4389829028862
 20
-17.94533137520405
 30
0.0
  0
VERTEX
  5
7A2
  8
新図面
  6
CONTINUOUS
 62
     7
 10
117.3448205767709
 20
-18.12585437863113
 30
0.0
  0
VERTEX
  5
7A3
  8
新図面
  6
CONTINUOUS
 62
     7
 10
116.2069055379928
 20
-18.21714940899024
 30
0.0
  0
VERTEX
  5
7A4
  8
新図面
  6
CONTINUOUS
 62
     7
 10
115.0534875695312
 20
-18.21577137079613
 30
0.0
  0
VERTEX
  5
7A5
  8
新図面
  6
CONTINUOUS
 62
     7
 10
113.9166060593987
 20
-18.12172026404885
 30
0.0
  0
VERTEX
  5
7A6
  8
新図面
  6
CONTINUOUS
 62
     7
 10
112.8238217714775
 20
-17.93878569378204
 30
0.0
  0
VERTEX
  5
7A7
  8
新図面
  6
CONTINUOUS
 62
     7
 10
111.8030399791979
 20
-17.67075726502965
 30
0.0
  0
VERTEX
  5
7A8
  8
新図面
  6
CONTINUOUS
 62
     7
 10
110.8814769368936
 20
-17.32521418785903
 30
0.0
  0
VERTEX
  5
7A9
  8
新図面
  6
CONTINUOUS
 62
     7
 10
110.0811812556701
 20
-16.91042469143493
 30
0.0
  0
SEQEND
  5
7AA
  8
新図面
  6
CONTINUOUS
 62
     7
  0
LINE
  5
7AB
  8
新図面
  6
CONTINUOUS
 62
     7
 10
108.7999502447057
 20
-7.810204967147527
 30
0.0
 11
109.3077573192315
 21
-7.810204967147527
 31
0.0
  0
POLYLINE
  5
7AC
  8
新図面
  6
CONTINUOUS
 62
     7
 66
     1
 10
0.0
 20
0.0
 30
0.0
  0
VERTEX
  5
7AD
  8
新図面
  6
CONTINUOUS
 62
     7
 10
110.4690981977189
 20
-8.084779789319143
 30
0.0
 42
0.0658740010467971
  0
VERTEX
  5
7AE
  8
新図面
  6
CONTINUOUS
 62
     7
 10
109.9087457592212
 20
-7.871484601757871
 30
0.0
 42
0.0653629074471386
  0
VERTEX
  5
7AF
  8
新図面
  6
CONTINUOUS
 62
     7
 10
109.3077571977189
 20
-7.810205789319143
 30
0.0
  0
SEQEND
  5
7B0
  8
新図面
  6
CONTINUOUS
 62
     7
  0
POLYLINE
  5
7B1
  8
新図面
  6
CONTINUOUS
 62
     7
 66
     1
 10
0.0
 20
0.0
 30
0.0
  0
VERTEX
  5
7B2
  8
新図面
  6
CONTINUOUS
 62
     7
 10
110.4690990073092
 20
-8.084779077321926
 30
0.0
  0
VERTEX
  5
7B3
  8
新図面
  6
CONTINUOUS
 62
     7
 10
111.2797299749885
 20
-8.499568573746032
 30
0.0
  0
VERTEX
  5
7B4
  8
新図面
  6
CONTINUOUS
 62
     7
 10
112.2229971188499
 20
-8.83994400768863
 30
0.0
  0
VERTEX
  5
7B5
  8
新図面
  6
CONTINUOUS
 62
     7
 10
113.2682390890747
 20
-9.092469506757524
 30
0.0
  0
VERTEX
  5
7B6
  8
新図面
  6
CONTINUOUS
 62
     7
 10
114.3858280644898
 20
-9.250943899079047
 30
0.0
  0
VERTEX
  5
7B7
  8
新図面
  6
CONTINUOUS
 62
     7
 10
115.5416575997911
 20
-9.310199541425348
 30
0.0
  0
VERTEX
  5
7B8
  8
新図面
  6
CONTINUOUS
 62
     7
 10
116.7005877210291
 20
-9.269202905150834
 30
0.0
  0
VERTEX
  5
7B9
  8
新図面
  6
CONTINUOUS
 62
     7
 10
117.8281674733514
 20
-9.128643009352643
 30
0.0
  0
VERTEX
  5
7BA
  8
新図面
  6
CONTINUOUS
 62
     7
 10
118.8889123732598
 20
-8.892653968613033
 30
0.0
  0
VERTEX
  5
7BB
  8
新図面
  6
CONTINUOUS
 62
     7
 10
119.8528500900327
 20
-8.568125973902525
 30
0.0
  0
VERTEX
  5
7BC
  8
新図面
  6
CONTINUOUS
 62
     7
 10
120.6893192738514
 20
-8.165738821225332
 30
0.0
  0
VERTEX
  5
7BD
  8
新図面
  6
CONTINUOUS
 62
     7
 10
121.3748932754161
 20
-7.696861325682832
 30
0.0
  0
VERTEX
  5
7BE
  8
新図面
  6
CONTINUOUS
 62
     7
 10
121.8878679931698
 20
-7.174929359667445
 30
0.0
  0
SEQEND
  5
7BF
  8
新図面
  6
CONTINUOUS
 62
     7
  0
ARC
  5
7C0
  8
新図面
  6
CONTINUOUS
 62
     7
 10
124.8009514736249
 20
-10.36276050893291
 30
0.0
 40
4.318370387116861
 50
85.33130843552097
 51
132.4214926814404
  0
LINE
  5
7C1
  8
新図面
  6
CONTINUOUS
 62
     7
 10
130.315260569188
 20
-6.058718422446546
 30
0.0
 11
125.1524404749925
 21
-6.058718422446546
 31
0.0
  0
LINE
  5
7C2
  8
新図面
  6
CONTINUOUS
 62
     7
 10
109.3077573192315
 20
-16.72749012116823
 30
0.0
 11
109.3077573192315
 21
-8.06031889937664
 31
0.0
  0
POLYLINE
  5
7C3
  8
新図面
  6
CONTINUOUS
 62
     7
 66
     1
 10
0.0
 20
0.0
 30
0.0
  0
VERTEX
  5
7C4
  8
新図面
  6
CONTINUOUS
 62
     7
 10
110.0811811977189
 20
-16.91042478931912
 30
0.0
 42
0.0665161251572813
  0
VERTEX
  5
7C5
  8
新図面
  6
CONTINUOUS
 62
     7
 10
109.7058871327212
 20
-16.76698080800195
 30
0.0
 42
0.0667897311315794
  0
VERTEX
  5
7C6
  8
新図面
  6
CONTINUOUS
 62
     7
 10
109.3077571977189
 20
-16.72749078931913
 30
0.0
  0
SEQEND
  5
7C7
  8
新図面
  6
CONTINUOUS
 62
     7
  0
LINE
  5
7C8
  8
新図面
  6
CONTINUOUS
 62
     7
 10
108.3000668897959
 20
-8.493367401872533
 30
0.0
 11
108.3000668897959
 21
-8.243253469643449
 31
0.0
  0
POLYLINE
  5
7C9
  8
新図面
  6
CONTINUOUS
 62
     7
 66
     1
 10
0.0
 20
0.0
 30
0.0
  0
VERTEX
  5
7CA
  8
新図面
  6
CONTINUOUS
 62
     7
 10
108.7999501977189
 20
-7.810205789319141
 30
0.0
 42
0.1985659380712773
  0
VERTEX
  5
7CB
  8
新図面
  6
CONTINUOUS
 62
     7
 10
108.4612006618264
 20
-7.922950914642641
 30
0.0
 42
0.198221001193496
  0
VERTEX
  5
7CC
  8
新図面
  6
CONTINUOUS
 62
     7
 10
108.3000661977189
 20
-8.243253789319127
 30
0.0
  0
SEQEND
  5
7CD
  8
新図面
  6
CONTINUOUS
 62
     7
  0
LINE
  5
7CE
  8
新図面
  6
CONTINUOUS
 62
     7
 10
109.3077573192315
 20
-16.72749012116823
 30
0.0
 11
108.7999502447057
 21
-16.72749012116823
 31
0.0
  0
POLYLINE
  5
7CF
  8
新図面
  6
CONTINUOUS
 62
     7
 66
     1
 10
0.0
 20
0.0
 30
0.0
  0
VERTEX
  5
7D0
  8
新図面
  6
CONTINUOUS
 62
     7
 10
108.3000661977189
 20
-16.29306378931913
 30
0.0
 42
0.1973142289124997
  0
VERTEX
  5
7D1
  8
新図面
  6
CONTINUOUS
 62
     7
 10
108.4600341210094
 20
-16.61243827644454
 30
0.0
 42
0.1977451591782653
  0
VERTEX
  5
7D2
  8
新図面
  6
CONTINUOUS
 62
     7
 10
108.7999501977189
 20
-16.72749078931914
 30
0.0
  0
SEQEND
  5
7D3
  8
新図面
  6
CONTINUOUS
 62
     7
  0
LINE
  5
7D4
  8
新図面
  6
CONTINUOUS
 62
     7
 10
108.3000668897959
 20
-16.29306358047823
 30
0.0
 11
108.3000668897959
 21
-8.493367401872533
 31
0.0
  0
LINE
  5
7D5
  8
新図面
  6
CONTINUOUS
 62
     7
 10
125.1524404749925
 20
-6.30883235467563
 30
0.0
 11
125.1524404749925
 21
-14.97462553827314
 31
0.0
  0
ARC
  5
7D6
  8
新図面
  6
CONTINUOUS
 62
     7
 10
124.8513366653453
 20
-18.66222604327025
 30
0.0
 40
3.699873104396785
 50
85.33198099789759
 51
132.4455117859212
  0
LINE
  5
7D7
  8
新図面
  6
CONTINUOUS
 62
     7
 10
130.8154884336462
 20
-14.54157703577714
 30
0.0
 11
130.8154884336462
 21
-6.741880857171523
 31
0.0
  0
POLYLINE
  5
7D8
  8
新図面
  6
CONTINUOUS
 62
     7
 66
     1
 10
0.0
 20
0.0
 30
0.0
  0
VERTEX
  5
7D9
  8
新図面
  6
CONTINUOUS
 62
     7
 10
130.3152601977189
 20
-14.97462578931915
 30
0.0
 42
0.1977292180768869
  0
VERTEX
  5
7DA
  8
新図面
  6
CONTINUOUS
 62
     7
 10
130.6539037276849
 20
-14.86202120006995
 30
0.0
 42
0.1987125705822569
  0
VERTEX
  5
7DB
  8
新図面
  6
CONTINUOUS
 62
     7
 10
130.8154881977189
 20
-14.54157778931913
 30
0.0
  0
SEQEND
  5
7DC
  8
新図面
  6
CONTINUOUS
 62
     7
  0
LINE
  5
7DD
  8
新図面
  6
CONTINUOUS
 62
     7
 10
130.315260569188
 20
-14.97462553827314
 30
0.0
 11
125.1524404749925
 21
-14.97462553827314
 31
0.0
  0
POLYLINE
  5
7DE
  8
新図面
  6
CONTINUOUS
 62
     7
 66
     1
 10
0.0
 20
0.0
 30
0.0
  0
VERTEX
  5
7DF
  8
新図面
  6
CONTINUOUS
 62
     7
 10
130.8154881977188
 20
-6.491767789319129
 30
0.0
 42
0.1982892209457878
  0
VERTEX
  5
7E0
  8
新図面
  6
CONTINUOUS
 62
     7
 10
130.6543317888675
 20
-6.171522720419631
 30
0.0
 42
0.1984983992827575
  0
VERTEX
  5
7E1
  8
新図面
  6
CONTINUOUS
 62
     7
 10
130.3152601977189
 20
-6.058718789319132
 30
0.0
  0
SEQEND
  5
7E2
  8
新図面
  6
CONTINUOUS
 62
     7
  0
LINE
  5
7E3
  8
新図面
  6
CONTINUOUS
 62
     7
 10
130.8154884336462
 20
-6.491766924942439
 30
0.0
 11
130.8154884336462
 21
-6.741880857171523
 31
0.0
  0
LINE
  5
7E4
  8
新図面
  6
CONTINUOUS
 62
     7
 10
115.9323314278184
 20
69.89736879814775
 30
0.0
 11
115.8048628948642
 21
69.41333288247027
 31
0.0
  0
LINE
  5
7E5
  8
新図面
  6
CONTINUOUS
 62
     7
 10
113.879399028158
 20
69.92045093789896
 30
0.0
 11
114.0068675611123
 21
70.40448685357656
 31
0.0
  0
LINE
  5
7E6
  8
新図面
  6
CONTINUOUS
 62
     7
 10
115.9323314278184
 20
69.89736879814775
 30
0.0
 11
114.0068675611123
 21
70.40448685357656
 31
0.0
  0
LINE
  5
7E7
  8
新図面
  6
CONTINUOUS
 62
     7
 10
115.8048628948642
 20
69.41333288247027
 30
0.0
 11
113.879399028158
 21
69.92045093789896
 31
0.0
  0
LINE
  5
7E8
  8
新図面
  6
CONTINUOUS
 62
     7
 10
113.879399028158
 20
-14.14711360271603
 30
0.0
 11
114.0068675611123
 21
-14.38964832487763
 31
0.0
  0
LINE
  5
7E9
  8
新図面
  6
CONTINUOUS
 62
     7
 10
113.879399028158
 20
-14.14711360271603
 30
0.0
 11
115.8048628948642
 21
-12.59303102931985
 31
0.0
  0
LINE
  5
7EA
  8
新図面
  6
CONTINUOUS
 62
     7
 10
115.9323314278184
 20
-12.83522124193293
 30
0.0
 11
115.8048628948642
 21
-12.59303102931985
 31
0.0
  0
LINE
  5
7EB
  8
新図面
  6
CONTINUOUS
 62
     7
 10
115.9323314278184
 20
-15.43454578555394
 30
0.0
 11
115.9323314278184
 21
-12.83522124193293
 31
0.0
  0
LINE
  5
7EC
  8
新図面
  6
CONTINUOUS
 62
     7
 10
115.9323314278184
 20
-15.43454578555394
 30
0.0
 11
114.0068675611123
 21
-14.38964832487763
 31
0.0
  0
LINE
  5
7ED
  8
新図面
  6
DOT
 62
     7
 10
115.8048628948642
 20
68.91276050846345
 30
0.0
 11
115.8048628948642
 21
69.41333288247027
 31
0.0
  0
LINE
  5
7EE
  8
新図面
  6
DOT
 62
     7
 10
113.803262417934
 20
68.65541187571527
 30
0.0
 11
113.803262417934
 21
69.17458776534237
 31
0.0
  0
LINE
  5
7EF
  8
新図面
  6
DOT
 62
     7
 10
108.7999502447057
 20
65.91242685035935
 30
0.0
 11
108.7999502447057
 21
66.41299922436617
 31
0.0
  0
LINE
  5
7F0
  8
新図面
  6
DOT
 62
     7
 10
130.315260569188
 20
62.91037064451255
 30
0.0
 11
130.315260569188
 21
62.40979827050587
 31
0.0
  0
LINE
  5
7F1
  8
新図面
  6
DOT
 62
     7
 10
125.1524404749925
 20
-6.058718422446546
 30
0.0
 11
125.1524404749925
 21
-14.72451160604395
 31
0.0
  0
LINE
  5
7F2
  8
新図面
  6
DOT
 62
     7
 10
125.1524404749925
 20
-14.97462553827314
 30
0.0
 11
125.1524404749925
 21
-6.30883235467563
 31
0.0
  0
LINE
  5
7F3
  8
新図面
  6
DOT
 62
     7
 10
122.3543339218726
 20
-7.266224390026522
 30
0.0
 11
122.3543339218726
 21
-15.93201757362404
 31
0.0
  0
LINE
  5
7F4
  8
新図面
  6
DOT
 62
     7
 10
109.3077573192315
 20
-16.47599815074493
 30
0.0
 11
109.3077573192315
 21
-7.810204967147527
 31
0.0
  0
LINE
  5
7F5
  8
新図面
  6
DOT
 62
     7
 10
109.3077573192315
 20
-8.06031889937664
 30
0.0
 11
109.3077573192315
 21
-16.72749012116823
 31
0.0
  0
LINE
  5
7F6
  8
新図面
  6
DOT
 62
     7
 10
115.9323314278184
 20
-15.43454578555394
 30
0.0
 11
115.8048628948642
 21
-15.19235557294083
 31
0.0
  0
LINE
  5
7F7
  8
新図面
  6
DASHDOT
 62
     7
 10
-166.8342158105178
 20
33.70491817785567
 30
0.0
 11
-24.8346146090385
 21
33.70491817785567
 31
0.0
  0
ARC
  5
7F8
  8
新図面
  6
DASHDOT
 62
     7
 10
54.18510101713441
 20
67.9843902711083
 30
0.0
 40
2.963806151230122
 50
244.3815182263336
 51
326.1322895107932
  0
TEXT
  5
7F9
  8
新図面
  6
CONTINUOUS
 62
     7
 10
152.6115740401764
 20
94.94786385481918
 30
0.0
 40
4.487093736586417
  1
①
  7
EXCESS_STANDARD
  0
TEXT
  5
7FA
  8
新図面
  6
CONTINUOUS
 62
     7
 10
25.45792281328418
 20
118.1102743307995
 30
0.0
 40
4.487093736586417
  1
②
  7
EXCESS_STANDARD
  0
TEXT
  5
7FB
  8
新図面
  6
CONTINUOUS
 62
     7
 10
40.43788700224756
 20
118.0754788663985
 30
0.0
 40
4.487093736586417
  1
④
  7
EXCESS_STANDARD
  0
TEXT
  5
7FC
  8
新図面
  6
CONTINUOUS
 62
     7
 10
42.96141944519307
 20
-78.89802775753529
 30
0.0
 40
4.487093736586431
  1
③
 41
0.9999999999999968
  7
EXCESS_STANDARD
  0
TEXT
  5
7FD
  8
新図面
  6
CONTINUOUS
 62
     7
 10
98.52839805543327
 20
77.51757550197196
 30
0.0
 40
4.487093736586417
  1
A
 41
0.5
  7
EXCESS_STANDARD
  0
TEXT
  5
7FE
  8
新図面
  6
CONTINUOUS
 62
     7
 10
100.7719449237265
 20
77.51757550197196
 30
0.0
 40
4.487093736586417
  1
部
  7
EXCESS_STANDARD
  0
TEXT
  5
7FF
  8
新図面
  6
CONTINUOUS
 62
     7
 10
128.3122820540636
 20
-51.58978937460543
 30
0.0
 40
4.487093736586431
  1
⑤
 41
0.9999999999999968
  7
EXCESS_STANDARD
  0
ENDBLK
  5
801
  8
0
  0
ENDSEC
  0
SECTION
  2
ENTITIES
  0
INSERT
  5
802
  8
0
  2
0-NONE
 10
0.0
 20
0.0
 30
0.0
  0
ENDSEC
  0
EOF
