  0
SECTION
  2
HEADER
  9
$ACADVER
  1
AC1009
  9
$DWGCODEPAGE
  3
dos932
  9
$INSBASE
 10
0.0
 20
0.0
 30
0.0
  9
$EXTMIN
 10
-243.7018618954963
 20
-133.901140857513
 30
0.0
  9
$EXTMAX
 10
238.1764130073886
 20
163.8333750433698
 30
0.0
  9
$LIMMIN
 10
0.0
 20
0.0
  9
$LIMMAX
 10
594.0
 20
420.0
  9
$ORTHOMODE
 70
     0
  9
$REGENMODE
 70
     1
  9
$FILLMODE
 70
     1
  9
$QTEXTMODE
 70
     0
  9
$MIRRTEXT
 70
     1
  9
$DRAGMODE
 70
     2
  9
$LTSCALE
 40
1.0
  9
$OSMODE
 70
    37
  9
$ATTMODE
 70
     1
  9
$TEXTSIZE
 40
0.2
  9
$TRACEWID
 40
0.05
  9
$TEXTSTYLE
  7
STANDARD
  9
$CLAYER
  8
0
  9
$CELTYPE
  6
BYLAYER
  9
$CECOLOR
 62
   256
  9
$DIMSCALE
 40
1.0
  9
$DIMASZ
 40
0.18
  9
$DIMEXO
 40
0.0625
  9
$DIMDLI
 40
0.38
  9
$DIMRND
 40
0.0
  9
$DIMDLE
 40
0.0
  9
$DIMEXE
 40
0.18
  9
$DIMTP
 40
0.0
  9
$DIMTM
 40
0.0
  9
$DIMTXT
 40
0.18
  9
$DIMCEN
 40
0.09
  9
$DIMTSZ
 40
0.0
  9
$DIMTOL
 70
     0
  9
$DIMLIM
 70
     0
  9
$DIMTIH
 70
     1
  9
$DIMTOH
 70
     1
  9
$DIMSE1
 70
     0
  9
$DIMSE2
 70
     0
  9
$DIMTAD
 70
     0
  9
$DIMZIN
 70
     0
  9
$DIMBLK
  1

  9
$DIMASO
 70
     1
  9
$DIMSHO
 70
     1
  9
$DIMPOST
  1

  9
$DIMAPOST
  1

  9
$DIMALT
 70
     0
  9
$DIMALTD
 70
     3
  9
$DIMALTF
 40
0.0393700787401575
  9
$DIMLFAC
 40
1.0
  9
$DIMTOFL
 70
     0
  9
$DIMTVP
 40
0.0
  9
$DIMTIX
 70
     0
  9
$DIMSOXD
 70
     0
  9
$DIMSAH
 70
     0
  9
$DIMBLK1
  1

  9
$DIMBLK2
  1

  9
$DIMSTYLE
  2
STANDARD
  9
$DIMCLRD
 70
     0
  9
$DIMCLRE
 70
     0
  9
$DIMCLRT
 70
     0
  9
$DIMTFAC
 40
1.0
  9
$DIMGAP
 40
0.09
  9
$LUNITS
 70
     2
  9
$LUPREC
 70
     4
  9
$SKETCHINC
 40
0.1
  9
$FILLETRAD
 40
0.5
  9
$AUNITS
 70
     0
  9
$AUPREC
 70
     0
  9
$MENU
  1
.
  9
$ELEVATION
 40
0.0
  9
$PELEVATION
 40
0.0
  9
$THICKNESS
 40
0.0
  9
$LIMCHECK
 70
     0
  9
$CHAMFERA
 40
0.0
  9
$CHAMFERB
 40
0.0
  9
$SKPOLY
 70
     0
  9
$TDCREATE
 40
2459109.421754144
  9
$TDUPDATE
 40
2459109.421754502
  9
$TDINDWG
 40
0.0000000116
  9
$TDUSRTIMER
 40
0.0000000116
  9
$USRTIMER
 70
     1
  9
$ANGBASE
 50
0.0
  9
$ANGDIR
 70
     0
  9
$PDMODE
 70
     0
  9
$PDSIZE
 40
0.0
  9
$PLINEWID
 40
0.0
  9
$COORDS
 70
     1
  9
$SPLFRAME
 70
     0
  9
$SPLINETYPE
 70
     6
  9
$SPLINESEGS
 70
     8
  9
$ATTDIA
 70
     0
  9
$ATTREQ
 70
     1
  9
$HANDLING
 70
     1
  9
$HANDSEED
  5
933
  9
$SURFTAB1
 70
     6
  9
$SURFTAB2
 70
     6
  9
$SURFTYPE
 70
     6
  9
$SURFU
 70
     6
  9
$SURFV
 70
     6
  9
$UCSNAME
  2

  9
$UCSORG
 10
0.0
 20
0.0
 30
0.0
  9
$UCSXDIR
 10
1.0
 20
0.0
 30
0.0
  9
$UCSYDIR
 10
0.0
 20
1.0
 30
0.0
  9
$PUCSNAME
  2

  9
$PUCSORG
 10
0.0
 20
0.0
 30
0.0
  9
$PUCSXDIR
 10
1.0
 20
0.0
 30
0.0
  9
$PUCSYDIR
 10
0.0
 20
1.0
 30
0.0
  9
$USERI1
 70
     0
  9
$USERI2
 70
     0
  9
$USERI3
 70
     0
  9
$USERI4
 70
     0
  9
$USERI5
 70
     0
  9
$USERR1
 40
0.0
  9
$USERR2
 40
0.0
  9
$USERR3
 40
0.0
  9
$USERR4
 40
0.0
  9
$USERR5
 40
0.0
  9
$WORLDVIEW
 70
     1
  9
$SHADEDGE
 70
     3
  9
$SHADEDIF
 70
    70
  9
$TILEMODE
 70
     1
  9
$MAXACTVP
 70
    64
  9
$PLIMCHECK
 70
     0
  9
$PEXTMIN
 10
1.000000000000000E+20
 20
1.000000000000000E+20
 30
1.000000000000000E+20
  9
$PEXTMAX
 10
-1.000000000000000E+20
 20
-1.000000000000000E+20
 30
-1.000000000000000E+20
  9
$PLIMMIN
 10
0.0
 20
0.0
  9
$PLIMMAX
 10
12.0
 20
9.0
  9
$UNITMODE
 70
     0
  9
$VISRETAIN
 70
     1
  9
$PLINEGEN
 70
     0
  9
$PSLTSCALE
 70
     1
  0
ENDSEC
  0
SECTION
  2
TABLES
  0
TABLE
  2
VPORT
 70
     1
  0
VPORT
  2
*ACTIVE
 70
     0
 10
0.0
 20
0.0
 11
1.0
 21
1.0
 12
10.42990654205607
 22
4.5
 13
0.0
 23
0.0
 14
0.5
 24
0.5
 15
0.5
 25
0.5
 16
0.0
 26
0.0
 36
1.0
 17
0.0
 27
0.0
 37
0.0
 40
9.0
 41
1.972972972850329
 42
50.0
 43
0.0
 44
0.0
 50
0.0
 51
0.0
 71
     0
 72
   100
 73
     1
 74
     3
 75
     0
 76
     0
 77
     0
 78
     0
  0
ENDTAB
  0
TABLE
  2
LTYPE
 70
    25
  0
LTYPE
  2
CONTINUOUS
 70
     0
  3
Solid line
 72
    65
 73
     0
 40
0.0
  0
LTYPE
  2
BORDER
 70
     0
  3
__ __ . __ __ . __ __ . __ __ . __ __ . __ __ .
 72
    65
 73
     6
 40
8.75
 49
2.5
 49
-1.25
 49
2.5
 49
-1.25
 49
0.0
 49
-1.25
  0
LTYPE
  2
CENTER
 70
     0
  3
____ _ ____ _ ____ _ ____ _ ____ _ ____ _ ____ 
 72
    65
 73
     4
 40
10.0
 49
6.25
 49
-1.25
 49
1.25
 49
-1.25
  0
LTYPE
  2
DASHDOT
 70
     0
  3
__ . __ . __ . __ . __ . __ . __ . __ . __ . __
 72
    65
 73
     4
 40
5.0
 49
2.5
 49
-1.25
 49
0.0
 49
-1.25
  0
LTYPE
  2
DASHED
 70
     0
  3
__ __ __ __ __ __ __ __ __ __ __ __ __ __ __ __
 72
    65
 73
     2
 40
3.75
 49
2.5
 49
-1.25
  0
LTYPE
  2
DIVIDE
 70
     0
  3
____ . . ____ . . ____ . . ____ . . ____ . . __
 72
    65
 73
     6
 40
6.25
 49
2.5
 49
-1.25
 49
0.0
 49
-1.25
 49
0.0
 49
-1.25
  0
LTYPE
  2
DOT
 70
     0
  3
. . . . . . . . . . . . . . . . . . . . . . . .
 72
    65
 73
     2
 40
1.25
 49
0.0
 49
-1.25
  0
LTYPE
  2
HIDDEN
 70
     0
  3
__ __ __ __ __ __ __ __ __ __ __ __ __ __ __ __
 72
    65
 73
     2
 40
1.875
 49
1.25
 49
-0.625
  0
LTYPE
  2
PHANTOM
 70
     0
  3
______  __  __  ______  __  __  ______  __  __ 
 72
    65
 73
     6
 40
12.5
 49
6.25
 49
-1.25
 49
1.25
 49
-1.25
 49
1.25
 49
-1.25
  0
LTYPE
  2
BORDER2
 70
     0
  3
__.__.__.__.__.__.__.__.__.__.__.__.__.__.__.__
 72
    65
 73
     2
 40
2.5
 49
2.5
 49
0.0
  0
LTYPE
  2
BORDERX2
 70
     0
  3
____ ____ . ____ ____ . ____ ____ . ____ ____ .
 72
    65
 73
     6
 40
13.75
 49
5.0
 49
-1.25
 49
5.0
 49
-1.25
 49
0.0
 49
-1.25
  0
LTYPE
  2
CENTER2
 70
     0
  3
___ _ ___ _ ___ _ ___ _ ___ _ ___ _ ___ _ ___ _
 72
    65
 73
     4
 40
8.4
 49
4.65
 49
-1.25
 49
1.25
 49
-1.25
  0
LTYPE
  2
CENTERX2
 70
     0
  3
_________ _ _________ _ _________ _ _________ _
 72
    65
 73
     4
 40
16.8
 49
13.05
 49
-1.25
 49
1.25
 49
-1.25
  0
LTYPE
  2
DASHDOT2
 70
     0
  3
_ . _ . _ . _ . _ . _ . _ . _ . _ . _ . _ . _ .
 72
    65
 73
     4
 40
3.75
 49
1.25
 49
-1.25
 49
0.0
 49
-1.25
  0
LTYPE
  2
DASHDOTX2
 70
     0
  3
________ . ________ . ________ . ________ . ___
 72
    65
 73
     4
 40
12.5
 49
10.0
 49
-1.25
 49
0.0
 49
-1.25
  0
LTYPE
  2
DASHED2
 70
     0
  3
_ _ _ _ _ _ _ _ _ _ _ _ _ _ _ _ _ _ _ _ _ _ _ _
 72
    65
 73
     2
 40
2.5
 49
1.25
 49
-1.25
  0
LTYPE
  2
DASHEDX2
 70
     0
  3
____ ____ ____ ____ ____ ____ ____ ____ ____ __
 72
    65
 73
     4
 40
2.5
 49
10.0
 49
-1.25
 49
0.0
 49
-1.25
  0
LTYPE
  2
DIVIDE2
 70
     0
  3
_ _ . . _ _ . . _ _ . . _ _ . . _ _ . . _ _ . .
 72
    65
 73
     8
 40
7.5
 49
1.25
 49
-1.25
 49
1.25
 49
-1.25
 49
0.0
 49
-1.25
 49
0.0
 49
-1.25
  0
LTYPE
  2
DIVIDEX2
 70
     0
  3
________________ . . ________________ . . _____
 72
    65
 73
     7
 40
13.75
 49
0.625
 49
10.0
 49
-1.25
 49
0.0
 49
-1.25
 49
0.0
 49
-1.25
  0
LTYPE
  2
DOT2
 70
     0
  3
...............................................
 72
    65
 73
     2
 40
0.625
 49
0.0
 49
-0.625
  0
LTYPE
  2
DOTX2
 70
     0
  3
.  .  .  .  .  .  .  .  .  .  .  .  .  .  .  . 
 72
    65
 73
     2
 40
2.5
 49
0.0
 49
-2.5
  0
LTYPE
  2
HIDDEN2
 70
     0
  3
_ _ _ _ _ _ _ _ _ _ _ _ _ _ _ _ _ _ _ _ _ _ _ _
 72
    65
 73
     2
 40
1.25
 49
0.625
 49
-0.625
  0
LTYPE
  2
HIDDENX2
 70
     0
  3
____ ____ ____ ____ ____ ____ ____ ____ ____ __
 72
    65
 73
     2
 40
3.125
 49
2.5
 49
-0.625
  0
LTYPE
  2
PHANTOM2
 70
     0
  3
___  __  __  ___  __  __  ___  __  __ ___  __  
 72
    65
 73
     6
 40
9.375
 49
3.125
 49
-1.25
 49
1.25
 49
-1.25
 49
1.25
 49
-1.25
  0
LTYPE
  2
PHANTOMX2
 70
     0
  3
____________  __  __  ____________  __  __  ___
 72
    65
 73
     6
 40
18.75
 49
12.5
 49
-1.25
 49
1.25
 49
-1.25
 49
1.25
 49
-1.25
  0
ENDTAB
  0
TABLE
  2
LAYER
 70
     4
  0
LAYER
  2
0
 70
     0
 62
     7
  6
CONTINUOUS
  0
LAYER
  2
レイヤー_2
 70
     0
 62
     7
  6
CONTINUOUS
  0
LAYER
  2
レイヤー_4
 70
     0
 62
     7
  6
CONTINUOUS
  0
LAYER
  2
寸法線
 70
     0
 62
     7
  6
CONTINUOUS
  0
ENDTAB
  0
TABLE
  2
STYLE
 70
     2
  0
STYLE
  2
STANDARD
 70
     0
 40
0.0
 41
1.0
 50
0.0
 71
     0
 42
0.2
  3
txt
  4

  0
STYLE
  2
EXCESS_STANDARD
 70
     0
 40
0.2
 41
1.0
 50
0.0
 71
     0
 42
0.2
  3
txt
  4
BIGFONT
  0
ENDTAB
  0
TABLE
  2
VIEW
 70
     0
  0
ENDTAB
  0
TABLE
  2
UCS
 70
     0
  0
ENDTAB
  0
TABLE
  2
APPID
 70
     1
  0
APPID
  2
ACAD
 70
     0
  0
ENDTAB
  0
TABLE
  2
DIMSTYLE
 70
     2
  0
DIMSTYLE
  2
STANDARD
 70
     0
  3

  4

  5

  6

  7

 40
1.0
 41
0.18
 42
0.0625
 43
0.38
 44
0.18
 45
0.0
 46
0.0
 47
0.0
 48
0.0
140
0.18
141
0.09
142
0.0
143
25.4
144
1.0
145
0.0
146
1.0
147
0.09
 71
     0
 72
     0
 73
     1
 74
     1
 75
     0
 76
     0
 77
     0
 78
     0
170
     0
171
     2
172
     0
173
     0
174
     0
175
     0
176
     0
177
     0
178
     0
  0
DIMSTYLE
  2
ISO-25
 70
     0
  3

  4

  5

  6

  7

 40
1.0
 41
3.5
 42
0.3
 43
9.0
 44
0.18
 45
0.0
 46
0.0
 47
0.0
 48
0.0
140
5.0
141
0.09
142
0.0
143
25.4
144
1.0
145
0.0
146
0.5
147
0.5
 71
     0
 72
     0
 73
     1
 74
     1
 75
     0
 76
     0
 77
     1
 78
     0
170
     0
171
     2
172
     0
173
     0
174
     0
175
     0
176
     0
177
     0
178
     0
  0
ENDTAB
  0
ENDSEC
  0
SECTION
  2
BLOCKS
  0
BLOCK
  8
0
  2
$MODEL_SPACE
 70
     0
 10
0.0
 20
0.0
 30
0.0
  3
$MODEL_SPACE
  1

  0
ENDBLK
  5
21
  8
0
  0
BLOCK
 67
     1
  8
0
  2
$PAPER_SPACE
 70
     0
 10
0.0
 20
0.0
 30
0.0
  3
$PAPER_SPACE
  1

  0
ENDBLK
  5
1D
 67
     1
  8
0
  0
BLOCK
  8
0
  2
0-NONE
 70
     0
 10
0.0
 20
0.0
 30
0.0
  3
0-NONE
  1

  0
POLYLINE
  5
8B
  8
レイヤー_2
  6
DASHDOT
 62
     7
 66
     1
 10
0.0
 20
0.0
 30
0.0
  0
VERTEX
  5
8C
  8
レイヤー_2
  6
DASHDOT
 62
     7
 10
122.5266246248427
 20
-27.80184617917666
 30
0.0
  0
VERTEX
  5
8D
  8
レイヤー_2
  6
DASHDOT
 62
     7
 10
113.3233965455463
 20
-31.15254604813066
 30
0.0
  0
VERTEX
  5
8E
  8
レイヤー_2
  6
DASHDOT
 62
     7
 10
113.5094317017498
 20
-31.66104214175353
 30
0.0
  0
VERTEX
  5
8F
  8
レイヤー_2
  6
DASHDOT
 62
     7
 10
122.6189524268736
 20
-28.3475500112051
 30
0.0
 42
0.0786157695398043
  0
VERTEX
  5
90
  8
レイヤー_2
  6
DASHDOT
 62
     7
 10
122.7796716128871
 20
-28.29516455433327
 30
0.0
 42
0.0795911247652513
  0
VERTEX
  5
91
  8
レイヤー_2
  6
DASHDOT
 62
     7
 10
122.9145414268736
 20
-28.19665501120511
 30
0.0
 42
0.049378149413037
  0
VERTEX
  5
92
  8
レイヤー_2
  6
DASHDOT
 62
     7
 10
122.9828733082747
 20
-28.11387722797568
 30
0.0
 42
0.0492190548623836
  0
VERTEX
  5
93
  8
レイヤー_2
  6
DASHDOT
 62
     7
 10
123.0333114268736
 20
-28.02000701120511
 30
0.0
 42
0.0494649623739956
  0
VERTEX
  5
94
  8
レイヤー_2
  6
DASHDOT
 62
     7
 10
123.0645321292658
 20
-27.91757462025355
 30
0.0
 42
0.0492882577234533
  0
VERTEX
  5
95
  8
レイヤー_2
  6
DASHDOT
 62
     7
 10
123.0750838260945
 20
-27.81080342743832
 30
0.0
  0
VERTEX
  5
96
  8
レイヤー_2
  6
DASHDOT
 62
     7
 10
123.0750838260945
 20
-26.72353129229346
 30
0.0
  0
VERTEX
  5
97
  8
レイヤー_2
  6
DASHDOT
 62
     7
 10
122.530069720328
 20
-26.72353129229346
 30
0.0
  0
VERTEX
  5
98
  8
レイヤー_2
  6
DASHDOT
 62
     7
 10
122.530069720328
 20
-27.81080342743832
 30
0.0
  0
VERTEX
  5
99
  8
レイヤー_2
  6
DASHDOT
 62
     7
 10
122.5266246248427
 20
-27.80184617917666
 30
0.0
  0
SEQEND
  5
9A
  8
レイヤー_2
  6
DASHDOT
 62
     7
  0
POLYLINE
  5
9B
  8
レイヤー_2
  6
DASHDOT
 62
     7
 66
     1
 10
0.0
 20
0.0
 30
0.0
  0
VERTEX
  5
9C
  8
レイヤー_2
  6
DASHDOT
 62
     7
 10
122.5266246248427
 20
-27.80184617917666
 30
0.0
  0
VERTEX
  5
9D
  8
レイヤー_2
  6
DASHDOT
 62
     7
 10
113.3233965455463
 20
-31.15254604813066
 30
0.0
  0
VERTEX
  5
9E
  8
レイヤー_2
  6
DASHDOT
 62
     7
 10
113.5094317017498
 20
-31.66104214175353
 30
0.0
  0
VERTEX
  5
9F
  8
レイヤー_2
  6
DASHDOT
 62
     7
 10
122.6189531838474
 20
-28.34754930404024
 30
0.0
  0
VERTEX
  5
A0
  8
レイヤー_2
  6
DASHDOT
 62
     7
 10
122.6616723678645
 20
-28.33997009397268
 30
0.0
  0
VERTEX
  5
A1
  8
レイヤー_2
  6
DASHDOT
 62
     7
 10
122.7016354754934
 20
-28.32825676932283
 30
0.0
  0
VERTEX
  5
A2
  8
レイヤー_2
  6
DASHDOT
 62
     7
 10
122.7409095640253
 20
-28.31378736828479
 30
0.0
  0
VERTEX
  5
A3
  8
レイヤー_2
  6
DASHDOT
 62
     7
 10
122.7808726716542
 20
-28.29449483356738
 30
0.0
  0
VERTEX
  5
A4
  8
レイヤー_2
  6
DASHDOT
 62
     7
 10
122.8153236265067
 20
-28.27382426065589
 30
0.0
  0
VERTEX
  5
A5
  8
レイヤー_2
  6
DASHDOT
 62
     7
 10
122.8525306577474
 20
-28.25246466864735
 30
0.0
  0
VERTEX
  5
A6
  8
レイヤー_2
  6
DASHDOT
 62
     7
 10
122.8842255362117
 20
-28.22421488566829
 30
0.0
  0
VERTEX
  5
A7
  8
レイヤー_2
  6
DASHDOT
 62
     7
 10
122.9145423764819
 20
-28.1966541217863
 30
0.0
  0
VERTEX
  5
A8
  8
レイヤー_2
  6
DASHDOT
 62
     7
 10
122.9503713695285
 20
-28.15600199506035
 30
0.0
  0
VERTEX
  5
A9
  8
レイヤー_2
  6
DASHDOT
 62
     7
 10
122.9820662479928
 20
-28.1125937919462
 30
0.0
  0
VERTEX
  5
AA
  8
レイヤー_2
  6
DASHDOT
 62
     7
 10
123.0103160309718
 20
-28.06505147424976
 30
0.0
  0
VERTEX
  5
AB
  8
レイヤー_2
  6
DASHDOT
 62
     7
 10
123.0337426802715
 20
-28.0175091565533
 30
0.0
  0
VERTEX
  5
AC
  8
レイヤー_2
  6
DASHDOT
 62
     7
 10
123.0516571767948
 20
-27.96858880066276
 30
0.0
  0
VERTEX
  5
AD
  8
レイヤー_2
  6
DASHDOT
 62
     7
 10
123.0647485396388
 20
-27.91760138748106
 30
0.0
  0
VERTEX
  5
AE
  8
レイヤー_2
  6
DASHDOT
 62
     7
 10
123.0716387306093
 20
-27.86523593610526
 30
0.0
  0
VERTEX
  5
AF
  8
レイヤー_2
  6
DASHDOT
 62
     7
 10
123.0750838260945
 20
-27.81080342743832
 30
0.0
  0
VERTEX
  5
B0
  8
レイヤー_2
  6
DASHDOT
 62
     7
 10
123.0750838260945
 20
-26.72353129229346
 30
0.0
  0
VERTEX
  5
B1
  8
レイヤー_2
  6
DASHDOT
 62
     7
 10
122.530069720328
 20
-26.72353129229346
 30
0.0
  0
VERTEX
  5
B2
  8
レイヤー_2
  6
DASHDOT
 62
     7
 10
122.530069720328
 20
-27.81080342743832
 30
0.0
  0
VERTEX
  5
B3
  8
レイヤー_2
  6
DASHDOT
 62
     7
 10
122.5266246248427
 20
-27.80184617917666
 30
0.0
  0
SEQEND
  5
B4
  8
レイヤー_2
  6
DASHDOT
 62
     7
  0
POLYLINE
  5
B5
  8
レイヤー_2
  6
DASHDOT
 62
     7
 66
     1
 10
0.0
 20
0.0
 30
0.0
  0
VERTEX
  5
B6
  8
レイヤー_2
  6
DASHDOT
 62
     7
 10
122.5266246248427
 20
-12.56832296249891
 30
0.0
  0
VERTEX
  5
B7
  8
レイヤー_2
  6
DASHDOT
 62
     7
 10
113.3233965455463
 20
-15.91488871687061
 30
0.0
  0
VERTEX
  5
B8
  8
レイヤー_2
  6
DASHDOT
 62
     7
 10
113.5094317017498
 20
-16.42889696326991
 30
0.0
  0
VERTEX
  5
B9
  8
レイヤー_2
  6
DASHDOT
 62
     7
 10
122.6189524268736
 20
-13.1133380112051
 30
0.0
 42
0.0801223057794168
  0
VERTEX
  5
BA
  8
レイヤー_2
  6
DASHDOT
 62
     7
 10
122.7761309791301
 20
-13.06262671766424
 30
0.0
 42
0.0774252286592369
  0
VERTEX
  5
BB
  8
レイヤー_2
  6
DASHDOT
 62
     7
 10
122.9145414268736
 20
-12.96244201120511
 30
0.0
 42
0.0483654920530265
  0
VERTEX
  5
BC
  8
レイヤー_2
  6
DASHDOT
 62
     7
 10
122.9828675865147
 20
-12.87887575819512
 30
0.0
 42
0.0487810498246026
  0
VERTEX
  5
BD
  8
レイヤー_2
  6
DASHDOT
 62
     7
 10
123.0333114268736
 20
-12.7845890112051
 30
0.0
 42
0.0490988379000212
  0
VERTEX
  5
BE
  8
レイヤー_2
  6
DASHDOT
 62
     7
 10
123.0644752475006
 20
-12.68226975161451
 30
0.0
 42
0.0494208908942631
  0
VERTEX
  5
BF
  8
レイヤー_2
  6
DASHDOT
 62
     7
 10
123.0750838260945
 20
-12.57521315346941
 30
0.0
  0
VERTEX
  5
C0
  8
レイヤー_2
  6
DASHDOT
 62
     7
 10
123.0750838260945
 20
-11.4865629801305
 30
0.0
  0
VERTEX
  5
C1
  8
レイヤー_2
  6
DASHDOT
 62
     7
 10
122.530069720328
 20
-11.4865629801305
 30
0.0
  0
VERTEX
  5
C2
  8
レイヤー_2
  6
DASHDOT
 62
     7
 10
122.530069720328
 20
-12.57521315346941
 30
0.0
  0
VERTEX
  5
C3
  8
レイヤー_2
  6
DASHDOT
 62
     7
 10
122.5266246248427
 20
-12.56832296249891
 30
0.0
  0
SEQEND
  5
C4
  8
レイヤー_2
  6
DASHDOT
 62
     7
  0
POLYLINE
  5
C5
  8
レイヤー_2
  6
DASHDOT
 62
     7
 66
     1
 10
0.0
 20
0.0
 30
0.0
  0
VERTEX
  5
C6
  8
レイヤー_2
  6
DASHDOT
 62
     7
 10
122.5266246248427
 20
-12.56832296249891
 30
0.0
  0
VERTEX
  5
C7
  8
レイヤー_2
  6
DASHDOT
 62
     7
 10
113.3233965455463
 20
-15.91488871687061
 30
0.0
  0
VERTEX
  5
C8
  8
レイヤー_2
  6
DASHDOT
 62
     7
 10
113.5094317017498
 20
-16.42889696326991
 30
0.0
  0
VERTEX
  5
C9
  8
レイヤー_2
  6
DASHDOT
 62
     7
 10
122.6189531838474
 20
-13.11333706826541
 30
0.0
  0
VERTEX
  5
CA
  8
レイヤー_2
  6
DASHDOT
 62
     7
 10
122.6616723678645
 20
-13.1043798200038
 30
0.0
  0
VERTEX
  5
CB
  8
レイヤー_2
  6
DASHDOT
 62
     7
 10
122.7016354754934
 20
-13.09059943806281
 30
0.0
  0
VERTEX
  5
CC
  8
レイヤー_2
  6
DASHDOT
 62
     7
 10
122.7409095640253
 20
-13.07819709431591
 30
0.0
  0
VERTEX
  5
CD
  8
レイヤー_2
  6
DASHDOT
 62
     7
 10
122.7808726716542
 20
-13.0609716168897
 30
0.0
  0
VERTEX
  5
CE
  8
レイヤー_2
  6
DASHDOT
 62
     7
 10
122.8153236265067
 20
-13.03961202488111
 30
0.0
  0
VERTEX
  5
CF
  8
レイヤー_2
  6
DASHDOT
 62
     7
 10
122.8525306577474
 20
-13.01549635648441
 30
0.0
  0
VERTEX
  5
D0
  8
レイヤー_2
  6
DASHDOT
 62
     7
 10
122.8842255362117
 20
-12.99069166899061
 30
0.0
  0
VERTEX
  5
D1
  8
レイヤー_2
  6
DASHDOT
 62
     7
 10
122.9145423764819
 20
-12.9624418860115
 30
0.0
  0
VERTEX
  5
D2
  8
レイヤー_2
  6
DASHDOT
 62
     7
 10
122.9503713695285
 20
-12.92247877838261
 30
0.0
  0
VERTEX
  5
D3
  8
レイヤー_2
  6
DASHDOT
 62
     7
 10
122.9820662479928
 20
-12.87838155617141
 30
0.0
  0
VERTEX
  5
D4
  8
レイヤー_2
  6
DASHDOT
 62
     7
 10
123.0103160309718
 20
-12.83290629576611
 30
0.0
  0
VERTEX
  5
D5
  8
レイヤー_2
  6
DASHDOT
 62
     7
 10
123.0337426802715
 20
-12.78398593987561
 30
0.0
  0
VERTEX
  5
D6
  8
レイヤー_2
  6
DASHDOT
 62
     7
 10
123.0516571767948
 20
-12.73437656488801
 30
0.0
  0
VERTEX
  5
D7
  8
レイヤー_2
  6
DASHDOT
 62
     7
 10
123.0647485396388
 20
-12.6820111135122
 30
0.0
  0
VERTEX
  5
D8
  8
レイヤー_2
  6
DASHDOT
 62
     7
 10
123.0716387306093
 20
-12.6310237003305
 30
0.0
  0
VERTEX
  5
D9
  8
レイヤー_2
  6
DASHDOT
 62
     7
 10
123.0750838260945
 20
-12.57521315346941
 30
0.0
  0
VERTEX
  5
DA
  8
レイヤー_2
  6
DASHDOT
 62
     7
 10
123.0750838260945
 20
-11.4865629801305
 30
0.0
  0
VERTEX
  5
DB
  8
レイヤー_2
  6
DASHDOT
 62
     7
 10
122.530069720328
 20
-11.4865629801305
 30
0.0
  0
VERTEX
  5
DC
  8
レイヤー_2
  6
DASHDOT
 62
     7
 10
122.530069720328
 20
-12.57521315346941
 30
0.0
  0
VERTEX
  5
DD
  8
レイヤー_2
  6
DASHDOT
 62
     7
 10
122.5266246248427
 20
-12.56832296249891
 30
0.0
  0
SEQEND
  5
DE
  8
レイヤー_2
  6
DASHDOT
 62
     7
  0
POLYLINE
  5
DF
  8
レイヤー_2
  6
DASHDOT
 62
     7
 66
     1
 10
0.0
 20
0.0
 30
0.0
  0
VERTEX
  5
E0
  8
レイヤー_2
  6
DASHDOT
 62
     7
 10
122.5266246248427
 20
2.669334368761099
 30
0.0
  0
VERTEX
  5
E1
  8
レイヤー_2
  6
DASHDOT
 62
     7
 10
113.3233965455463
 20
-0.6827435383870011
 30
0.0
  0
VERTEX
  5
E2
  8
レイヤー_2
  6
DASHDOT
 62
     7
 10
113.5094317017498
 20
-1.191239632009911
 30
0.0
  0
VERTEX
  5
E3
  8
レイヤー_2
  6
DASHDOT
 62
     7
 10
122.6189524268736
 20
2.122252988794912
 30
0.0
 42
0.0765444580294945
  0
VERTEX
  5
E4
  8
レイヤー_2
  6
DASHDOT
 62
     7
 10
122.7806762199654
 20
2.176369307142849
 30
0.0
 42
0.0786586079338989
  0
VERTEX
  5
E5
  8
レイヤー_2
  6
DASHDOT
 62
     7
 10
122.9145414268736
 20
2.274525988794892
 30
0.0
 42
0.0480708587609285
  0
VERTEX
  5
E6
  8
レイヤー_2
  6
DASHDOT
 62
     7
 10
122.9827640945733
 20
2.357865634245812
 30
0.0
 42
0.048489657596279
  0
VERTEX
  5
E7
  8
レイヤー_2
  6
DASHDOT
 62
     7
 10
123.0333114268736
 20
2.451947988794899
 30
0.0
 42
0.0491471592089737
  0
VERTEX
  5
E8
  8
レイヤー_2
  6
DASHDOT
 62
     7
 10
123.0646304803941
 20
2.5539571068512
 30
0.0
 42
0.0499590465464723
  0
VERTEX
  5
E9
  8
レイヤー_2
  6
DASHDOT
 62
     7
 10
123.0750838260945
 20
2.65831006320829
 30
0.0
  0
VERTEX
  5
EA
  8
レイヤー_2
  6
DASHDOT
 62
     7
 10
123.0750838260945
 20
3.747649255644291
 30
0.0
  0
VERTEX
  5
EB
  8
レイヤー_2
  6
DASHDOT
 62
     7
 10
122.530069720328
 20
3.747649255644291
 30
0.0
  0
VERTEX
  5
EC
  8
レイヤー_2
  6
DASHDOT
 62
     7
 10
122.530069720328
 20
2.65831006320829
 30
0.0
  0
VERTEX
  5
ED
  8
レイヤー_2
  6
DASHDOT
 62
     7
 10
122.5266246248427
 20
2.669334368761099
 30
0.0
  0
SEQEND
  5
EE
  8
レイヤー_2
  6
DASHDOT
 62
     7
  0
POLYLINE
  5
EF
  8
レイヤー_2
  6
DASHDOT
 62
     7
 66
     1
 10
0.0
 20
0.0
 30
0.0
  0
VERTEX
  5
F0
  8
レイヤー_2
  6
DASHDOT
 62
     7
 10
122.5266246248427
 20
2.669334368761099
 30
0.0
  0
VERTEX
  5
F1
  8
レイヤー_2
  6
DASHDOT
 62
     7
 10
113.3233965455463
 20
-0.6827435383870011
 30
0.0
  0
VERTEX
  5
F2
  8
レイヤー_2
  6
DASHDOT
 62
     7
 10
113.5094317017498
 20
-1.191239632009911
 30
0.0
  0
VERTEX
  5
F3
  8
レイヤー_2
  6
DASHDOT
 62
     7
 10
122.6189531838474
 20
2.122253205703387
 30
0.0
  0
VERTEX
  5
F4
  8
レイヤー_2
  6
DASHDOT
 62
     7
 10
122.6616723678645
 20
2.131210453965096
 30
0.0
  0
VERTEX
  5
F5
  8
レイヤー_2
  6
DASHDOT
 62
     7
 10
122.7016354754934
 20
2.1429237786149
 30
0.0
  0
VERTEX
  5
F6
  8
レイヤー_2
  6
DASHDOT
 62
     7
 10
122.7409095640253
 20
2.157393179652999
 30
0.0
  0
VERTEX
  5
F7
  8
レイヤー_2
  6
DASHDOT
 62
     7
 10
122.7808726716542
 20
2.176685714370393
 30
0.0
  0
VERTEX
  5
F8
  8
レイヤー_2
  6
DASHDOT
 62
     7
 10
122.8153236265067
 20
2.195978249087801
 30
0.0
  0
VERTEX
  5
F9
  8
レイヤー_2
  6
DASHDOT
 62
     7
 10
122.8525306577474
 20
2.2187158792904
 30
0.0
  0
VERTEX
  5
FA
  8
レイヤー_2
  6
DASHDOT
 62
     7
 10
122.8842255362117
 20
2.248343700463593
 30
0.0
  0
VERTEX
  5
FB
  8
レイヤー_2
  6
DASHDOT
 62
     7
 10
122.9145423764819
 20
2.274526426151496
 30
0.0
  0
VERTEX
  5
FC
  8
レイヤー_2
  6
DASHDOT
 62
     7
 10
122.9503713695285
 20
2.313111495586298
 30
0.0
  0
VERTEX
  5
FD
  8
レイヤー_2
  6
DASHDOT
 62
     7
 10
122.9820662479928
 20
2.358586755991595
 30
0.0
  0
VERTEX
  5
FE
  8
レイヤー_2
  6
DASHDOT
 62
     7
 10
123.0103160309718
 20
2.402683978202788
 30
0.0
  0
VERTEX
  5
FF
  8
レイヤー_2
  6
DASHDOT
 62
     7
 10
123.0337426802715
 20
2.450226295899199
 30
0.0
  0
VERTEX
  5
100
  8
レイヤー_2
  6
DASHDOT
 62
     7
 10
123.0516571767948
 20
2.500524689983891
 30
0.0
  0
VERTEX
  5
101
  8
レイヤー_2
  6
DASHDOT
 62
     7
 10
123.0647485396388
 20
2.553579160456692
 30
0.0
  0
VERTEX
  5
102
  8
レイヤー_2
  6
DASHDOT
 62
     7
 10
123.0716387306093
 20
2.608011669123698
 30
0.0
  0
VERTEX
  5
103
  8
レイヤー_2
  6
DASHDOT
 62
     7
 10
123.0750838260945
 20
2.65831006320829
 30
0.0
  0
VERTEX
  5
104
  8
レイヤー_2
  6
DASHDOT
 62
     7
 10
123.0750838260945
 20
3.747649255644291
 30
0.0
  0
VERTEX
  5
105
  8
レイヤー_2
  6
DASHDOT
 62
     7
 10
122.530069720328
 20
3.747649255644291
 30
0.0
  0
VERTEX
  5
106
  8
レイヤー_2
  6
DASHDOT
 62
     7
 10
122.530069720328
 20
2.65831006320829
 30
0.0
  0
VERTEX
  5
107
  8
レイヤー_2
  6
DASHDOT
 62
     7
 10
122.5266246248427
 20
2.669334368761099
 30
0.0
  0
SEQEND
  5
108
  8
レイヤー_2
  6
DASHDOT
 62
     7
  0
POLYLINE
  5
109
  8
レイヤー_2
  6
DASHDOT
 62
     7
 66
     1
 10
0.0
 20
0.0
 30
0.0
  0
VERTEX
  5
10A
  8
レイヤー_2
  6
DASHDOT
 62
     7
 10
122.5266246248427
 20
17.90285758543878
 30
0.0
  0
VERTEX
  5
10B
  8
レイヤー_2
  6
DASHDOT
 62
     7
 10
113.3233965455463
 20
14.554224773776
 30
0.0
  0
VERTEX
  5
10C
  8
レイヤー_2
  6
DASHDOT
 62
     7
 10
113.5094317017498
 20
14.04228358466789
 30
0.0
  0
VERTEX
  5
10D
  8
レイヤー_2
  6
DASHDOT
 62
     7
 10
122.6189524268736
 20
17.35922098879489
 30
0.0
 42
0.077684332496775
  0
VERTEX
  5
10E
  8
レイヤー_2
  6
DASHDOT
 62
     7
 10
122.7791183694192
 20
17.41109825285891
 30
0.0
 42
0.0783541360528313
  0
VERTEX
  5
10F
  8
レイヤー_2
  6
DASHDOT
 62
     7
 10
122.9145414268736
 20
17.50873798879489
 30
0.0
 42
0.0478531924429178
  0
VERTEX
  5
110
  8
レイヤー_2
  6
DASHDOT
 62
     7
 10
122.983198619476
 20
17.5925341622155
 30
0.0
 42
0.0489434829865538
  0
VERTEX
  5
111
  8
レイヤー_2
  6
DASHDOT
 62
     7
 10
123.0333114268736
 20
17.68581598879489
 30
0.0
 42
0.0497735215102505
  0
VERTEX
  5
112
  8
レイヤー_2
  6
DASHDOT
 62
     7
 10
123.0644632463232
 20
17.78807688122826
 30
0.0
 42
0.0490972874823557
  0
VERTEX
  5
113
  8
レイヤー_2
  6
DASHDOT
 62
     7
 10
123.0750838260945
 20
17.89596739446829
 30
0.0
  0
VERTEX
  5
114
  8
レイヤー_2
  6
DASHDOT
 62
     7
 10
123.0750838260945
 20
18.98323952961319
 30
0.0
  0
VERTEX
  5
115
  8
レイヤー_2
  6
DASHDOT
 62
     7
 10
122.530069720328
 20
18.98323952961319
 30
0.0
  0
VERTEX
  5
116
  8
レイヤー_2
  6
DASHDOT
 62
     7
 10
122.530069720328
 20
17.89596739446829
 30
0.0
  0
VERTEX
  5
117
  8
レイヤー_2
  6
DASHDOT
 62
     7
 10
122.5266246248427
 20
17.90285758543878
 30
0.0
  0
SEQEND
  5
118
  8
レイヤー_2
  6
DASHDOT
 62
     7
  0
POLYLINE
  5
119
  8
レイヤー_2
  6
DASHDOT
 62
     7
 66
     1
 10
0.0
 20
0.0
 30
0.0
  0
VERTEX
  5
11A
  8
レイヤー_2
  6
DASHDOT
 62
     7
 10
122.5266246248427
 20
17.90285758543878
 30
0.0
  0
VERTEX
  5
11B
  8
レイヤー_2
  6
DASHDOT
 62
     7
 10
113.3233965455463
 20
14.554224773776
 30
0.0
  0
VERTEX
  5
11C
  8
レイヤー_2
  6
DASHDOT
 62
     7
 10
113.5094317017498
 20
14.04228358466789
 30
0.0
  0
VERTEX
  5
11D
  8
レイヤー_2
  6
DASHDOT
 62
     7
 10
122.6189531838474
 20
17.3592215178664
 30
0.0
  0
VERTEX
  5
11E
  8
レイヤー_2
  6
DASHDOT
 62
     7
 10
122.6616723678645
 20
17.36473367064279
 30
0.0
  0
VERTEX
  5
11F
  8
レイヤー_2
  6
DASHDOT
 62
     7
 10
122.7016354754934
 20
17.37851405258378
 30
0.0
  0
VERTEX
  5
120
  8
レイヤー_2
  6
DASHDOT
 62
     7
 10
122.7409095640253
 20
17.39298345362188
 30
0.0
  0
VERTEX
  5
121
  8
レイヤー_2
  6
DASHDOT
 62
     7
 10
122.7808726716542
 20
17.41227598833929
 30
0.0
  0
VERTEX
  5
122
  8
レイヤー_2
  6
DASHDOT
 62
     7
 10
122.8153236265067
 20
17.43156852305658
 30
0.0
  0
VERTEX
  5
123
  8
レイヤー_2
  6
DASHDOT
 62
     7
 10
122.8525306577474
 20
17.45568419145339
 30
0.0
  0
VERTEX
  5
124
  8
レイヤー_2
  6
DASHDOT
 62
     7
 10
122.8842255362117
 20
17.48048887894718
 30
0.0
  0
VERTEX
  5
125
  8
レイヤー_2
  6
DASHDOT
 62
     7
 10
122.9145423764819
 20
17.5087386619263
 30
0.0
  0
VERTEX
  5
126
  8
レイヤー_2
  6
DASHDOT
 62
     7
 10
122.9503713695285
 20
17.54870176955508
 30
0.0
  0
VERTEX
  5
127
  8
レイヤー_2
  6
DASHDOT
 62
     7
 10
122.9820662479928
 20
17.59279899176629
 30
0.0
  0
VERTEX
  5
128
  8
レイヤー_2
  6
DASHDOT
 62
     7
 10
123.0103160309718
 20
17.63827425217168
 30
0.0
  0
VERTEX
  5
129
  8
レイヤー_2
  6
DASHDOT
 62
     7
 10
123.0337426802715
 20
17.6871946080622
 30
0.0
  0
VERTEX
  5
12A
  8
レイヤー_2
  6
DASHDOT
 62
     7
 10
123.0516571767948
 20
17.73611496395269
 30
0.0
  0
VERTEX
  5
12B
  8
レイヤー_2
  6
DASHDOT
 62
     7
 10
123.0647485396388
 20
17.7891694344256
 30
0.0
  0
VERTEX
  5
12C
  8
レイヤー_2
  6
DASHDOT
 62
     7
 10
123.0716387306093
 20
17.8401568476073
 30
0.0
  0
VERTEX
  5
12D
  8
レイヤー_2
  6
DASHDOT
 62
     7
 10
123.0750838260945
 20
17.89596739446829
 30
0.0
  0
VERTEX
  5
12E
  8
レイヤー_2
  6
DASHDOT
 62
     7
 10
123.0750838260945
 20
18.98323952961319
 30
0.0
  0
VERTEX
  5
12F
  8
レイヤー_2
  6
DASHDOT
 62
     7
 10
122.530069720328
 20
18.98323952961319
 30
0.0
  0
VERTEX
  5
130
  8
レイヤー_2
  6
DASHDOT
 62
     7
 10
122.530069720328
 20
17.89596739446829
 30
0.0
  0
VERTEX
  5
131
  8
レイヤー_2
  6
DASHDOT
 62
     7
 10
122.5266246248427
 20
17.90285758543878
 30
0.0
  0
SEQEND
  5
132
  8
レイヤー_2
  6
DASHDOT
 62
     7
  0
POLYLINE
  5
133
  8
レイヤー_2
  6
DASHDOT
 62
     7
 66
     1
 10
0.0
 20
0.0
 30
0.0
  0
VERTEX
  5
134
  8
レイヤー_2
  6
DASHDOT
 62
     7
 10
122.5266246248427
 20
33.13844785940769
 30
0.0
  0
VERTEX
  5
135
  8
レイヤー_2
  6
DASHDOT
 62
     7
 10
113.3233965455463
 20
29.7884370095508
 30
0.0
  0
VERTEX
  5
136
  8
レイヤー_2
  6
DASHDOT
 62
     7
 10
113.5094317017498
 20
29.27787385863668
 30
0.0
  0
VERTEX
  5
137
  8
レイヤー_2
  6
DASHDOT
 62
     7
 10
122.6189524268736
 20
32.5934329887949
 30
0.0
 42
0.0756132722026239
  0
VERTEX
  5
138
  8
レイヤー_2
  6
DASHDOT
 62
     7
 10
122.7801204635886
 20
32.64703170108358
 30
0.0
 42
0.0774218438958647
  0
VERTEX
  5
139
  8
レイヤー_2
  6
DASHDOT
 62
     7
 10
122.9145414268736
 20
32.74432798879489
 30
0.0
 42
0.0479771445271789
  0
VERTEX
  5
13A
  8
レイヤー_2
  6
DASHDOT
 62
     7
 10
122.9830825203169
 20
32.82802468165069
 30
0.0
 42
0.0488214702444442
  0
VERTEX
  5
13B
  8
レイヤー_2
  6
DASHDOT
 62
     7
 10
123.0333114268736
 20
32.92157898879491
 30
0.0
 42
0.0495969438255135
  0
VERTEX
  5
13C
  8
レイヤー_2
  6
DASHDOT
 62
     7
 10
123.0645133627345
 20
33.02387510566457
 30
0.0
 42
0.0492731910847234
  0
VERTEX
  5
13D
  8
レイヤー_2
  6
DASHDOT
 62
     7
 10
123.0750838260945
 20
33.1308686493402
 30
0.0
  0
VERTEX
  5
13E
  8
レイヤー_2
  6
DASHDOT
 62
     7
 10
123.0750838260945
 20
34.2188298035821
 30
0.0
  0
VERTEX
  5
13F
  8
レイヤー_2
  6
DASHDOT
 62
     7
 10
122.530069720328
 20
34.2188298035821
 30
0.0
  0
VERTEX
  5
140
  8
レイヤー_2
  6
DASHDOT
 62
     7
 10
122.530069720328
 20
33.1308686493402
 30
0.0
  0
VERTEX
  5
141
  8
レイヤー_2
  6
DASHDOT
 62
     7
 10
122.5266246248427
 20
33.13844785940769
 30
0.0
  0
SEQEND
  5
142
  8
レイヤー_2
  6
DASHDOT
 62
     7
  0
POLYLINE
  5
143
  8
レイヤー_2
  6
DASHDOT
 62
     7
 66
     1
 10
0.0
 20
0.0
 30
0.0
  0
VERTEX
  5
144
  8
レイヤー_2
  6
DASHDOT
 62
     7
 10
122.5266246248427
 20
33.13844785940769
 30
0.0
  0
VERTEX
  5
145
  8
レイヤー_2
  6
DASHDOT
 62
     7
 10
113.3233965455463
 20
29.7884370095508
 30
0.0
  0
VERTEX
  5
146
  8
レイヤー_2
  6
DASHDOT
 62
     7
 10
113.5094317017498
 20
29.27787385863668
 30
0.0
  0
VERTEX
  5
147
  8
レイヤー_2
  6
DASHDOT
 62
     7
 10
122.6189531838474
 20
32.59343375364121
 30
0.0
  0
VERTEX
  5
148
  8
レイヤー_2
  6
DASHDOT
 62
     7
 10
122.6616723678645
 20
32.60170198280581
 30
0.0
  0
VERTEX
  5
149
  8
レイヤー_2
  6
DASHDOT
 62
     7
 10
122.7016354754934
 20
32.61410432655269
 30
0.0
  0
VERTEX
  5
14A
  8
レイヤー_2
  6
DASHDOT
 62
     7
 10
122.7409095640253
 20
32.62857372759071
 30
0.0
  0
VERTEX
  5
14B
  8
レイヤー_2
  6
DASHDOT
 62
     7
 10
122.7808726716542
 20
32.64579920501698
 30
0.0
  0
VERTEX
  5
14C
  8
レイヤー_2
  6
DASHDOT
 62
     7
 10
122.8153236265067
 20
32.66715879702549
 30
0.0
  0
VERTEX
  5
14D
  8
レイヤー_2
  6
DASHDOT
 62
     7
 10
122.8525306577474
 20
32.68989642722819
 30
0.0
  0
VERTEX
  5
14E
  8
レイヤー_2
  6
DASHDOT
 62
     7
 10
122.8842255362117
 20
32.71607915291609
 30
0.0
  0
VERTEX
  5
14F
  8
レイヤー_2
  6
DASHDOT
 62
     7
 10
122.9145423764819
 20
32.7443289358951
 30
0.0
  0
VERTEX
  5
150
  8
レイヤー_2
  6
DASHDOT
 62
     7
 10
122.9503713695285
 20
32.78429204352399
 30
0.0
  0
VERTEX
  5
151
  8
レイヤー_2
  6
DASHDOT
 62
     7
 10
122.9820662479928
 20
32.8263222084441
 30
0.0
  0
VERTEX
  5
152
  8
レイヤー_2
  6
DASHDOT
 62
     7
 10
123.0103160309718
 20
32.87317550704348
 30
0.0
  0
VERTEX
  5
153
  8
レイヤー_2
  6
DASHDOT
 62
     7
 10
123.0337426802715
 20
32.922095862934
 30
0.0
  0
VERTEX
  5
154
  8
レイヤー_2
  6
DASHDOT
 62
     7
 10
123.0516571767948
 20
32.9717052379216
 30
0.0
  0
VERTEX
  5
155
  8
レイヤー_2
  6
DASHDOT
 62
     7
 10
123.0647485396388
 20
33.02338167020041
 30
0.0
  0
VERTEX
  5
156
  8
レイヤー_2
  6
DASHDOT
 62
     7
 10
123.0716387306093
 20
33.07643614067318
 30
0.0
  0
VERTEX
  5
157
  8
レイヤー_2
  6
DASHDOT
 62
     7
 10
123.0750838260945
 20
33.1308686493402
 30
0.0
  0
VERTEX
  5
158
  8
レイヤー_2
  6
DASHDOT
 62
     7
 10
123.0750838260945
 20
34.2188298035821
 30
0.0
  0
VERTEX
  5
159
  8
レイヤー_2
  6
DASHDOT
 62
     7
 10
122.530069720328
 20
34.2188298035821
 30
0.0
  0
VERTEX
  5
15A
  8
レイヤー_2
  6
DASHDOT
 62
     7
 10
122.530069720328
 20
33.1308686493402
 30
0.0
  0
VERTEX
  5
15B
  8
レイヤー_2
  6
DASHDOT
 62
     7
 10
122.5266246248427
 20
33.13844785940769
 30
0.0
  0
SEQEND
  5
15C
  8
レイヤー_2
  6
DASHDOT
 62
     7
  0
POLYLINE
  5
15D
  8
レイヤー_2
  6
DASHDOT
 62
     7
 66
     1
 10
0.0
 20
0.0
 30
0.0
  0
VERTEX
  5
15E
  8
レイヤー_2
  6
DASHDOT
 62
     7
 10
122.5266246248427
 20
48.3740381333766
 30
0.0
  0
VERTEX
  5
15F
  8
レイヤー_2
  6
DASHDOT
 62
     7
 10
113.3233965455463
 20
45.02540532171379
 30
0.0
  0
VERTEX
  5
160
  8
レイヤー_2
  6
DASHDOT
 62
     7
 10
113.5094317017498
 20
44.51346413260559
 30
0.0
  0
VERTEX
  5
161
  8
レイヤー_2
  6
DASHDOT
 62
     7
 10
122.6189524268736
 20
47.8297129887949
 30
0.0
 42
0.0801260272667265
  0
VERTEX
  5
162
  8
レイヤー_2
  6
DASHDOT
 62
     7
 10
122.777268281835
 20
47.8807925086336
 30
0.0
 42
0.0785077430779465
  0
VERTEX
  5
163
  8
レイヤー_2
  6
DASHDOT
 62
     7
 10
122.9145414268736
 20
47.98060798879489
 30
0.0
 42
0.0493021683846584
  0
VERTEX
  5
164
  8
レイヤー_2
  6
DASHDOT
 62
     7
 10
122.9825671268127
 20
48.06298942054472
 30
0.0
 42
0.049175080960445
  0
VERTEX
  5
165
  8
レイヤー_2
  6
DASHDOT
 62
     7
 10
123.0333114268736
 20
48.1573409887949
 30
0.0
 42
0.0492249400476403
  0
VERTEX
  5
166
  8
レイヤー_2
  6
DASHDOT
 62
     7
 10
123.0645832417489
 20
48.25959418258192
 30
0.0
 42
0.0496454439455385
  0
VERTEX
  5
167
  8
レイヤー_2
  6
DASHDOT
 62
     7
 10
123.0750838260945
 20
48.36508088511501
 30
0.0
  0
VERTEX
  5
168
  8
レイヤー_2
  6
DASHDOT
 62
     7
 10
123.0750838260945
 20
49.45442007755101
 30
0.0
  0
VERTEX
  5
169
  8
レイヤー_2
  6
DASHDOT
 62
     7
 10
122.530069720328
 20
49.45442007755101
 30
0.0
  0
VERTEX
  5
16A
  8
レイヤー_2
  6
DASHDOT
 62
     7
 10
122.530069720328
 20
48.36508088511501
 30
0.0
  0
VERTEX
  5
16B
  8
レイヤー_2
  6
DASHDOT
 62
     7
 10
122.5266246248427
 20
48.3740381333766
 30
0.0
  0
SEQEND
  5
16C
  8
レイヤー_2
  6
DASHDOT
 62
     7
  0
POLYLINE
  5
16D
  8
レイヤー_2
  6
DASHDOT
 62
     7
 66
     1
 10
0.0
 20
0.0
 30
0.0
  0
VERTEX
  5
16E
  8
レイヤー_2
  6
DASHDOT
 62
     7
 10
122.5266246248427
 20
48.3740381333766
 30
0.0
  0
VERTEX
  5
16F
  8
レイヤー_2
  6
DASHDOT
 62
     7
 10
113.3233965455463
 20
45.02540532171379
 30
0.0
  0
VERTEX
  5
170
  8
レイヤー_2
  6
DASHDOT
 62
     7
 10
113.5094317017498
 20
44.51346413260559
 30
0.0
  0
VERTEX
  5
171
  8
レイヤー_2
  6
DASHDOT
 62
     7
 10
122.6189531838474
 20
47.82971304670708
 30
0.0
  0
VERTEX
  5
172
  8
レイヤー_2
  6
DASHDOT
 62
     7
 10
122.6616723678645
 20
47.83729225677469
 30
0.0
  0
VERTEX
  5
173
  8
レイヤー_2
  6
DASHDOT
 62
     7
 10
122.7016354754934
 20
47.8496946005216
 30
0.0
  0
VERTEX
  5
174
  8
レイヤー_2
  6
DASHDOT
 62
     7
 10
122.7409095640253
 20
47.86347498246259
 30
0.0
  0
VERTEX
  5
175
  8
レイヤー_2
  6
DASHDOT
 62
     7
 10
122.7808726716542
 20
47.88138947898589
 30
0.0
  0
VERTEX
  5
176
  8
レイヤー_2
  6
DASHDOT
 62
     7
 10
122.8153236265067
 20
47.9027490709944
 30
0.0
  0
VERTEX
  5
177
  8
レイヤー_2
  6
DASHDOT
 62
     7
 10
122.8525306577474
 20
47.9254867011971
 30
0.0
  0
VERTEX
  5
178
  8
レイヤー_2
  6
DASHDOT
 62
     7
 10
122.8842255362117
 20
47.952358445982
 30
0.0
  0
VERTEX
  5
179
  8
レイヤー_2
  6
DASHDOT
 62
     7
 10
122.9145423764819
 20
47.98060822896109
 30
0.0
  0
VERTEX
  5
17A
  8
レイヤー_2
  6
DASHDOT
 62
     7
 10
122.9503713695285
 20
48.0191932983959
 30
0.0
  0
VERTEX
  5
17B
  8
レイヤー_2
  6
DASHDOT
 62
     7
 10
122.9820662479928
 20
48.06260150151
 30
0.0
  0
VERTEX
  5
17C
  8
レイヤー_2
  6
DASHDOT
 62
     7
 10
123.0103160309718
 20
48.10876578101239
 30
0.0
  0
VERTEX
  5
17D
  8
レイヤー_2
  6
DASHDOT
 62
     7
 10
123.0337426802715
 20
48.15768613690288
 30
0.0
  0
VERTEX
  5
17E
  8
レイヤー_2
  6
DASHDOT
 62
     7
 10
123.0516571767948
 20
48.20729551189051
 30
0.0
  0
VERTEX
  5
17F
  8
レイヤー_2
  6
DASHDOT
 62
     7
 10
123.0647485396388
 20
48.25966096326628
 30
0.0
  0
VERTEX
  5
180
  8
レイヤー_2
  6
DASHDOT
 62
     7
 10
123.0716387306093
 20
48.31202641464209
 30
0.0
  0
VERTEX
  5
181
  8
レイヤー_2
  6
DASHDOT
 62
     7
 10
123.0750838260945
 20
48.36508088511501
 30
0.0
  0
VERTEX
  5
182
  8
レイヤー_2
  6
DASHDOT
 62
     7
 10
123.0750838260945
 20
49.45442007755101
 30
0.0
  0
VERTEX
  5
183
  8
レイヤー_2
  6
DASHDOT
 62
     7
 10
122.530069720328
 20
49.45442007755101
 30
0.0
  0
VERTEX
  5
184
  8
レイヤー_2
  6
DASHDOT
 62
     7
 10
122.530069720328
 20
48.36508088511501
 30
0.0
  0
VERTEX
  5
185
  8
レイヤー_2
  6
DASHDOT
 62
     7
 10
122.5266246248427
 20
48.3740381333766
 30
0.0
  0
SEQEND
  5
186
  8
レイヤー_2
  6
DASHDOT
 62
     7
  0
POLYLINE
  5
187
  8
レイヤー_2
  6
DASHDOT
 62
     7
 66
     1
 10
0.0
 20
0.0
 30
0.0
  0
VERTEX
  5
188
  8
レイヤー_2
  6
DASHDOT
 62
     7
 10
122.5266246248427
 20
63.61031742644251
 30
0.0
  0
VERTEX
  5
189
  8
レイヤー_2
  6
DASHDOT
 62
     7
 10
113.3233965455463
 20
60.25961755748848
 30
0.0
  0
VERTEX
  5
18A
  8
レイヤー_2
  6
DASHDOT
 62
     7
 10
113.5094317017498
 20
59.74836538747751
 30
0.0
  0
VERTEX
  5
18B
  8
レイヤー_2
  6
DASHDOT
 62
     7
 10
122.6189524268736
 20
63.0646139887949
 30
0.0
 42
0.0781435462006894
  0
VERTEX
  5
18C
  8
レイヤー_2
  6
DASHDOT
 62
     7
 10
122.7782644784615
 20
63.11637541875764
 30
0.0
 42
0.0778948591067933
  0
VERTEX
  5
18D
  8
レイヤー_2
  6
DASHDOT
 62
     7
 10
122.9145414268736
 20
63.2148199887949
 30
0.0
 42
0.0490341510786464
  0
VERTEX
  5
18E
  8
レイヤー_2
  6
DASHDOT
 62
     7
 10
122.9824884776185
 20
63.29758249101904
 30
0.0
 42
0.0489511559262633
  0
VERTEX
  5
18F
  8
レイヤー_2
  6
DASHDOT
 62
     7
 10
123.0333114268736
 20
63.39250098879491
 30
0.0
 42
0.0489774596010049
  0
VERTEX
  5
190
  8
レイヤー_2
  6
DASHDOT
 62
     7
 10
123.0646010986802
 20
63.49514426024005
 30
0.0
 42
0.0495429725849142
  0
VERTEX
  5
191
  8
レイヤー_2
  6
DASHDOT
 62
     7
 10
123.0750838260945
 20
63.6006711590838
 30
0.0
  0
VERTEX
  5
192
  8
レイヤー_2
  6
DASHDOT
 62
     7
 10
123.0750838260945
 20
64.6879432942287
 30
0.0
  0
VERTEX
  5
193
  8
レイヤー_2
  6
DASHDOT
 62
     7
 10
122.530069720328
 20
64.6879432942287
 30
0.0
  0
VERTEX
  5
194
  8
レイヤー_2
  6
DASHDOT
 62
     7
 10
122.530069720328
 20
63.6006711590838
 30
0.0
  0
VERTEX
  5
195
  8
レイヤー_2
  6
DASHDOT
 62
     7
 10
122.5266246248427
 20
63.61031742644251
 30
0.0
  0
SEQEND
  5
196
  8
レイヤー_2
  6
DASHDOT
 62
     7
  0
POLYLINE
  5
197
  8
レイヤー_2
  6
DASHDOT
 62
     7
 66
     1
 10
0.0
 20
0.0
 30
0.0
  0
VERTEX
  5
198
  8
レイヤー_2
  6
DASHDOT
 62
     7
 10
122.5266246248427
 20
63.61031742644251
 30
0.0
  0
VERTEX
  5
199
  8
レイヤー_2
  6
DASHDOT
 62
     7
 10
113.3233965455463
 20
60.25961755748848
 30
0.0
  0
VERTEX
  5
19A
  8
レイヤー_2
  6
DASHDOT
 62
     7
 10
113.5094317017498
 20
59.74836538747751
 30
0.0
  0
VERTEX
  5
19B
  8
レイヤー_2
  6
DASHDOT
 62
     7
 10
122.6189531838474
 20
63.06461430157889
 30
0.0
  0
VERTEX
  5
19C
  8
レイヤー_2
  6
DASHDOT
 62
     7
 10
122.6616723678645
 20
63.07288253074348
 30
0.0
  0
VERTEX
  5
19D
  8
レイヤー_2
  6
DASHDOT
 62
     7
 10
122.7016354754934
 20
63.08390683629641
 30
0.0
  0
VERTEX
  5
19E
  8
レイヤー_2
  6
DASHDOT
 62
     7
 10
122.7409095640253
 20
63.09837623733439
 30
0.0
  0
VERTEX
  5
19F
  8
レイヤー_2
  6
DASHDOT
 62
     7
 10
122.7808726716542
 20
63.1169797529548
 30
0.0
  0
VERTEX
  5
1A0
  8
レイヤー_2
  6
DASHDOT
 62
     7
 10
122.8153236265067
 20
63.1376503258662
 30
0.0
  0
VERTEX
  5
1A1
  8
レイヤー_2
  6
DASHDOT
 62
     7
 10
122.8525306577474
 20
63.16245501336
 30
0.0
  0
VERTEX
  5
1A2
  8
レイヤー_2
  6
DASHDOT
 62
     7
 10
122.8842255362117
 20
63.18657068175681
 30
0.0
  0
VERTEX
  5
1A3
  8
レイヤー_2
  6
DASHDOT
 62
     7
 10
122.9145423764819
 20
63.21482046473578
 30
0.0
  0
VERTEX
  5
1A4
  8
レイヤー_2
  6
DASHDOT
 62
     7
 10
122.9503713695285
 20
63.25616161055881
 30
0.0
  0
VERTEX
  5
1A5
  8
レイヤー_2
  6
DASHDOT
 62
     7
 10
122.9820662479928
 20
63.29819177547888
 30
0.0
  0
VERTEX
  5
1A6
  8
レイヤー_2
  6
DASHDOT
 62
     7
 10
123.0103160309718
 20
63.3443560549813
 30
0.0
  0
VERTEX
  5
1A7
  8
レイヤー_2
  6
DASHDOT
 62
     7
 10
123.0337426802715
 20
63.39327641087179
 30
0.0
  0
VERTEX
  5
1A8
  8
レイヤー_2
  6
DASHDOT
 62
     7
 10
123.0516571767948
 20
63.44150774766528
 30
0.0
  0
VERTEX
  5
1A9
  8
レイヤー_2
  6
DASHDOT
 62
     7
 10
123.0647485396388
 20
63.49456221813809
 30
0.0
  0
VERTEX
  5
1AA
  8
レイヤー_2
  6
DASHDOT
 62
     7
 10
123.0716387306093
 20
63.54692766951389
 30
0.0
  0
VERTEX
  5
1AB
  8
レイヤー_2
  6
DASHDOT
 62
     7
 10
123.0750838260945
 20
63.6006711590838
 30
0.0
  0
VERTEX
  5
1AC
  8
レイヤー_2
  6
DASHDOT
 62
     7
 10
123.0750838260945
 20
64.6879432942287
 30
0.0
  0
VERTEX
  5
1AD
  8
レイヤー_2
  6
DASHDOT
 62
     7
 10
122.530069720328
 20
64.6879432942287
 30
0.0
  0
VERTEX
  5
1AE
  8
レイヤー_2
  6
DASHDOT
 62
     7
 10
122.530069720328
 20
63.6006711590838
 30
0.0
  0
VERTEX
  5
1AF
  8
レイヤー_2
  6
DASHDOT
 62
     7
 10
122.5266246248427
 20
63.61031742644251
 30
0.0
  0
SEQEND
  5
1B0
  8
レイヤー_2
  6
DASHDOT
 62
     7
  0
POLYLINE
  5
1B1
  8
レイヤー_2
  6
DASHDOT
 62
     7
 66
     1
 10
0.0
 20
0.0
 30
0.0
  0
VERTEX
  5
1B2
  8
レイヤー_2
  6
DASHDOT
 62
     7
 10
123.0103160309718
 20
-42.47657490814687
 30
0.0
  0
VERTEX
  5
1B3
  8
レイヤー_2
  6
DASHDOT
 62
     7
 10
113.8077769707725
 20
-45.82865281529496
 30
0.0
  0
VERTEX
  5
1B4
  8
レイヤー_2
  6
DASHDOT
 62
     7
 10
113.9924340887819
 20
-46.33852694711194
 30
0.0
  0
VERTEX
  5
1B5
  8
レイヤー_2
  6
DASHDOT
 62
     7
 10
123.1033336090736
 20
-43.0215890139134
 30
0.0
  0
SEQEND
  5
1B6
  8
レイヤー_2
  6
DASHDOT
 62
     7
  0
POLYLINE
  5
1B7
  8
レイヤー_2
  6
DASHDOT
 62
     7
 66
     1
 10
0.0
 20
0.0
 30
0.0
  0
VERTEX
  5
1B8
  8
レイヤー_2
  6
DASHDOT
 62
     7
 10
123.0103160309718
 20
-42.47657490814687
 30
0.0
  0
VERTEX
  5
1B9
  8
レイヤー_2
  6
DASHDOT
 62
     7
 10
113.8077769707725
 20
-45.82865281529496
 30
0.0
  0
VERTEX
  5
1BA
  8
レイヤー_2
  6
DASHDOT
 62
     7
 10
113.9924340887819
 20
-46.33852694711194
 30
0.0
  0
VERTEX
  5
1BB
  8
レイヤー_2
  6
DASHDOT
 62
     7
 10
123.1033336090736
 20
-43.0215890139134
 30
0.0
  0
SEQEND
  5
1BC
  8
レイヤー_2
  6
DASHDOT
 62
     7
  0
POLYLINE
  5
1BD
  8
レイヤー_2
  6
DASHDOT
 62
     7
 66
     1
 10
0.0
 20
0.0
 30
0.0
  0
VERTEX
  5
1BE
  8
レイヤー_2
  6
DASHDOT
 62
     7
 10
122.5865692862861
 20
77.9653412943815
 30
0.0
  0
VERTEX
  5
1BF
  8
レイヤー_2
  6
DASHDOT
 62
     7
 10
113.3840302260867
 20
74.61670848271869
 30
0.0
  0
VERTEX
  5
1C0
  8
レイヤー_2
  6
DASHDOT
 62
     7
 10
113.5700653822902
 20
74.1047672936106
 30
0.0
  0
VERTEX
  5
1C1
  8
レイヤー_2
  6
DASHDOT
 62
     7
 10
122.6795864268736
 20
77.4210159887949
 30
0.0
 42
0.0821005138464265
  0
VERTEX
  5
1C2
  8
レイヤー_2
  6
DASHDOT
 62
     7
 10
122.8369152531104
 20
77.47141663296655
 30
0.0
 42
0.0791227214112451
  0
VERTEX
  5
1C3
  8
レイヤー_2
  6
DASHDOT
 62
     7
 10
122.9751754268736
 20
77.57259998879489
 30
0.0
 42
0.0495238769959778
  0
VERTEX
  5
1C4
  8
レイヤー_2
  6
DASHDOT
 62
     7
 10
123.043171061546
 20
77.65445244795838
 30
0.0
 42
0.0495687188965645
  0
VERTEX
  5
1C5
  8
レイヤー_2
  6
DASHDOT
 62
     7
 10
123.0939454268736
 20
77.74847198879489
 30
0.0
 42
0.0495916813340251
  0
VERTEX
  5
1C6
  8
レイヤー_2
  6
DASHDOT
 62
     7
 10
123.1252225048634
 20
77.85066733541929
 30
0.0
 42
0.0495142348262801
  0
VERTEX
  5
1C7
  8
レイヤー_2
  6
DASHDOT
 62
     7
 10
123.1357175066349
 20
77.95638404611991
 30
0.0
  0
VERTEX
  5
1C8
  8
レイヤー_2
  6
DASHDOT
 62
     7
 10
123.1357175066349
 20
79.04503421945888
 30
0.0
  0
VERTEX
  5
1C9
  8
レイヤー_2
  6
DASHDOT
 62
     7
 10
122.5900143817713
 20
79.04503421945888
 30
0.0
  0
VERTEX
  5
1CA
  8
レイヤー_2
  6
DASHDOT
 62
     7
 10
122.5900143817713
 20
77.95638404611991
 30
0.0
  0
VERTEX
  5
1CB
  8
レイヤー_2
  6
DASHDOT
 62
     7
 10
122.5865692862861
 20
77.9653412943815
 30
0.0
  0
SEQEND
  5
1CC
  8
レイヤー_2
  6
DASHDOT
 62
     7
  0
POLYLINE
  5
1CD
  8
レイヤー_2
  6
DASHDOT
 62
     7
 66
     1
 10
0.0
 20
0.0
 30
0.0
  0
VERTEX
  5
1CE
  8
レイヤー_2
  6
DASHDOT
 62
     7
 10
122.5865692862861
 20
77.9653412943815
 30
0.0
  0
VERTEX
  5
1CF
  8
レイヤー_2
  6
DASHDOT
 62
     7
 10
113.3840302260867
 20
74.61670848271869
 30
0.0
  0
VERTEX
  5
1D0
  8
レイヤー_2
  6
DASHDOT
 62
     7
 10
113.5700653822902
 20
74.1047672936106
 30
0.0
  0
VERTEX
  5
1D1
  8
レイヤー_2
  6
DASHDOT
 62
     7
 10
122.6795868643878
 20
77.4210162077121
 30
0.0
  0
VERTEX
  5
1D2
  8
レイヤー_2
  6
DASHDOT
 62
     7
 10
122.7216170293079
 20
77.42859541777959
 30
0.0
  0
VERTEX
  5
1D3
  8
レイヤー_2
  6
DASHDOT
 62
     7
 10
122.7622691560338
 20
77.4409977615265
 30
0.0
  0
VERTEX
  5
1D4
  8
レイヤー_2
  6
DASHDOT
 62
     7
 10
122.8015432445657
 20
77.4547781434675
 30
0.0
  0
VERTEX
  5
1D5
  8
レイヤー_2
  6
DASHDOT
 62
     7
 10
122.8408173330975
 20
77.4726926399908
 30
0.0
  0
VERTEX
  5
1D6
  8
レイヤー_2
  6
DASHDOT
 62
     7
 10
122.8759573070471
 20
77.49336321290228
 30
0.0
  0
VERTEX
  5
1D7
  8
レイヤー_2
  6
DASHDOT
 62
     7
 10
122.9131643382878
 20
77.51610084310501
 30
0.0
  0
VERTEX
  5
1D8
  8
レイヤー_2
  6
DASHDOT
 62
     7
 10
122.944170197655
 20
77.54366160698699
 30
0.0
  0
VERTEX
  5
1D9
  8
レイヤー_2
  6
DASHDOT
 62
     7
 10
122.9751760570223
 20
77.5726004090631
 30
0.0
  0
VERTEX
  5
1DA
  8
レイヤー_2
  6
DASHDOT
 62
     7
 10
123.0110050500689
 20
77.61118547849789
 30
0.0
  0
VERTEX
  5
1DB
  8
レイヤー_2
  6
DASHDOT
 62
     7
 10
123.0426999285332
 20
77.65390466251499
 30
0.0
  0
VERTEX
  5
1DC
  8
レイヤー_2
  6
DASHDOT
 62
     7
 10
123.0709497115122
 20
77.7000689420173
 30
0.0
  0
VERTEX
  5
1DD
  8
レイヤー_2
  6
DASHDOT
 62
     7
 10
123.0943763608119
 20
77.74830027881079
 30
0.0
  0
VERTEX
  5
1DE
  8
レイヤー_2
  6
DASHDOT
 62
     7
 10
123.1116018382382
 20
77.7985986728955
 30
0.0
  0
VERTEX
  5
1DF
  8
レイヤー_2
  6
DASHDOT
 62
     7
 10
123.1253822201792
 20
77.85096412427119
 30
0.0
  0
VERTEX
  5
1E0
  8
レイヤー_2
  6
DASHDOT
 62
     7
 10
123.1322724111497
 20
77.9040185947441
 30
0.0
  0
VERTEX
  5
1E1
  8
レイヤー_2
  6
DASHDOT
 62
     7
 10
123.1357175066349
 20
77.95638404611991
 30
0.0
  0
VERTEX
  5
1E2
  8
レイヤー_2
  6
DASHDOT
 62
     7
 10
123.1357175066349
 20
79.04503421945888
 30
0.0
  0
VERTEX
  5
1E3
  8
レイヤー_2
  6
DASHDOT
 62
     7
 10
122.5900143817713
 20
79.04503421945888
 30
0.0
  0
VERTEX
  5
1E4
  8
レイヤー_2
  6
DASHDOT
 62
     7
 10
122.5900143817713
 20
77.95638404611991
 30
0.0
  0
VERTEX
  5
1E5
  8
レイヤー_2
  6
DASHDOT
 62
     7
 10
122.5865692862861
 20
77.9653412943815
 30
0.0
  0
SEQEND
  5
1E6
  8
レイヤー_2
  6
DASHDOT
 62
     7
  0
POLYLINE
  5
1E7
  8
レイヤー_2
  6
DASHDOT
 62
     7
 66
     1
 10
0.0
 20
0.0
 30
0.0
  0
VERTEX
  5
1E8
  8
レイヤー_2
  6
DASHDOT
 62
     7
 10
122.5865692862861
 20
93.20093156835038
 30
0.0
  0
VERTEX
  5
1E9
  8
レイヤー_2
  6
DASHDOT
 62
     7
 10
113.3840302260867
 20
89.8502316993965
 30
0.0
  0
VERTEX
  5
1EA
  8
レイヤー_2
  6
DASHDOT
 62
     7
 10
113.5700653822902
 20
89.33897952938538
 30
0.0
  0
VERTEX
  5
1EB
  8
レイヤー_2
  6
DASHDOT
 62
     7
 10
122.6795864268736
 20
92.65522798879489
 30
0.0
 42
0.0786183838692917
  0
VERTEX
  5
1EC
  8
レイヤー_2
  6
DASHDOT
 62
     7
 10
122.8369227578395
 20
92.70651172877653
 30
0.0
 42
0.0763219662668173
  0
VERTEX
  5
1ED
  8
レイヤー_2
  6
DASHDOT
 62
     7
 10
122.9751754268736
 20
92.80612298879488
 30
0.0
 42
0.0495737794651081
  0
VERTEX
  5
1EE
  8
レイヤー_2
  6
DASHDOT
 62
     7
 10
123.04311178403
 20
92.88848708994398
 30
0.0
 42
0.0492547110485446
  0
VERTEX
  5
1EF
  8
レイヤー_2
  6
DASHDOT
 62
     7
 10
123.0939454268736
 20
92.98328698879489
 30
0.0
 42
0.0491157373001452
  0
VERTEX
  5
1F0
  8
レイヤー_2
  6
DASHDOT
 62
     7
 10
123.1252177617608
 20
93.0859749524348
 30
0.0
 42
0.0494049092170669
  0
VERTEX
  5
1F1
  8
レイヤー_2
  6
DASHDOT
 62
     7
 10
123.1357175066349
 20
93.19197432008879
 30
0.0
  0
VERTEX
  5
1F2
  8
レイヤー_2
  6
DASHDOT
 62
     7
 10
123.1357175066349
 20
94.27855743613658
 30
0.0
  0
VERTEX
  5
1F3
  8
レイヤー_2
  6
DASHDOT
 62
     7
 10
122.5900143817713
 20
94.27855743613658
 30
0.0
  0
VERTEX
  5
1F4
  8
レイヤー_2
  6
DASHDOT
 62
     7
 10
122.5900143817713
 20
93.19197432008879
 30
0.0
  0
VERTEX
  5
1F5
  8
レイヤー_2
  6
DASHDOT
 62
     7
 10
122.5865692862861
 20
93.20093156835038
 30
0.0
  0
SEQEND
  5
1F6
  8
レイヤー_2
  6
DASHDOT
 62
     7
  0
POLYLINE
  5
1F7
  8
レイヤー_2
  6
DASHDOT
 62
     7
 66
     1
 10
0.0
 20
0.0
 30
0.0
  0
VERTEX
  5
1F8
  8
レイヤー_2
  6
DASHDOT
 62
     7
 10
122.5865692862861
 20
93.20093156835038
 30
0.0
  0
VERTEX
  5
1F9
  8
レイヤー_2
  6
DASHDOT
 62
     7
 10
113.3840302260867
 20
89.8502316993965
 30
0.0
  0
VERTEX
  5
1FA
  8
レイヤー_2
  6
DASHDOT
 62
     7
 10
113.5700653822902
 20
89.33897952938538
 30
0.0
  0
VERTEX
  5
1FB
  8
レイヤー_2
  6
DASHDOT
 62
     7
 10
122.6795868643878
 20
92.6552284434869
 30
0.0
  0
VERTEX
  5
1FC
  8
レイヤー_2
  6
DASHDOT
 62
     7
 10
122.7216170293079
 20
92.6641856917485
 30
0.0
  0
VERTEX
  5
1FD
  8
レイヤー_2
  6
DASHDOT
 62
     7
 10
122.7622691560338
 20
92.67452097820428
 30
0.0
  0
VERTEX
  5
1FE
  8
レイヤー_2
  6
DASHDOT
 62
     7
 10
122.8015432445657
 20
92.6889903792423
 30
0.0
  0
VERTEX
  5
1FF
  8
レイヤー_2
  6
DASHDOT
 62
     7
 10
122.8408173330975
 20
92.7082829139597
 30
0.0
  0
VERTEX
  5
200
  8
レイヤー_2
  6
DASHDOT
 62
     7
 10
122.8759573070471
 20
92.72895348687119
 30
0.0
  0
VERTEX
  5
201
  8
レイヤー_2
  6
DASHDOT
 62
     7
 10
122.9131643382878
 20
92.75375817436499
 30
0.0
  0
VERTEX
  5
202
  8
レイヤー_2
  6
DASHDOT
 62
     7
 10
122.944170197655
 20
92.77787384276171
 30
0.0
  0
VERTEX
  5
203
  8
レイヤー_2
  6
DASHDOT
 62
     7
 10
122.9751760570223
 20
92.8061236257408
 30
0.0
  0
VERTEX
  5
204
  8
レイヤー_2
  6
DASHDOT
 62
     7
 10
123.0110050500689
 20
92.84677575246668
 30
0.0
  0
VERTEX
  5
205
  8
レイヤー_2
  6
DASHDOT
 62
     7
 10
123.0426999285332
 20
92.88949493648379
 30
0.0
  0
VERTEX
  5
206
  8
レイヤー_2
  6
DASHDOT
 62
     7
 10
123.0709497115122
 20
92.9356592159862
 30
0.0
  0
VERTEX
  5
207
  8
レイヤー_2
  6
DASHDOT
 62
     7
 10
123.0943763608119
 20
92.9838905527797
 30
0.0
  0
VERTEX
  5
208
  8
レイヤー_2
  6
DASHDOT
 62
     7
 10
123.1116018382382
 20
93.03212188957319
 30
0.0
  0
VERTEX
  5
209
  8
レイヤー_2
  6
DASHDOT
 62
     7
 10
123.1253822201792
 20
93.08517636004599
 30
0.0
  0
VERTEX
  5
20A
  8
レイヤー_2
  6
DASHDOT
 62
     7
 10
123.1322724111497
 20
93.1375418114218
 30
0.0
  0
VERTEX
  5
20B
  8
レイヤー_2
  6
DASHDOT
 62
     7
 10
123.1357175066349
 20
93.19197432008879
 30
0.0
  0
VERTEX
  5
20C
  8
レイヤー_2
  6
DASHDOT
 62
     7
 10
123.1357175066349
 20
94.27855743613658
 30
0.0
  0
VERTEX
  5
20D
  8
レイヤー_2
  6
DASHDOT
 62
     7
 10
122.5900143817713
 20
94.27855743613658
 30
0.0
  0
VERTEX
  5
20E
  8
レイヤー_2
  6
DASHDOT
 62
     7
 10
122.5900143817713
 20
93.19197432008879
 30
0.0
  0
VERTEX
  5
20F
  8
レイヤー_2
  6
DASHDOT
 62
     7
 10
122.5865692862861
 20
93.20093156835038
 30
0.0
  0
SEQEND
  5
210
  8
レイヤー_2
  6
DASHDOT
 62
     7
  0
LINE
  5
211
  8
寸法線
  6
CONTINUOUS
 62
     7
 10
-40.30856956187901
 20
-36.91274569946839
 30
0.0
 11
-220.9190784142958
 21
-36.79836852935809
 31
0.0
  0
LINE
  5
212
  8
寸法線
  6
CONTINUOUS
 62
     7
 10
-39.75046409326853
 20
-39.49518927521166
 30
0.0
 11
-39.75046409326853
 21
-21.49456536478131
 31
0.0
  0
LINE
  5
213
  8
寸法線
  6
CONTINUOUS
 62
     7
 10
-221.4599584054801
 20
-39.49518927521166
 30
0.0
 11
-221.4599584054801
 21
-21.49456536478131
 31
0.0
  0
LINE
  5
214
  8
寸法線
  6
CONTINUOUS
 62
     7
 10
219.8326575866273
 20
120.3978933671067
 30
0.0
 11
219.6982988627026
 21
-109.5622302733199
 31
0.0
  0
LINE
  5
215
  8
寸法線
  6
CONTINUOUS
 62
     7
 10
133.4489553512788
 20
-86.4580419110404
 30
0.0
 11
222.4454180026408
 21
-86.4580419110404
 31
0.0
  0
LINE
  5
216
  8
寸法線
  6
CONTINUOUS
 62
     7
 10
133.1506100822562
 20
-96.55630579740472
 30
0.0
 11
157.5219045640106
 21
-96.55630579740472
 31
0.0
  0
LINE
  5
217
  8
寸法線
  6
CONTINUOUS
 62
     7
 10
132.9459714104323
 20
120.5598128549135
 30
0.0
 11
238.1764130073886
 21
120.4364784365416
 31
0.0
  0
LINE
  5
218
  8
寸法線
  6
CONTINUOUS
 62
     7
 10
154.0871443652165
 20
-67.38254820921205
 30
0.0
 11
154.2159909363648
 21
-96.43228235993573
 31
0.0
  0
LINE
  5
219
  8
寸法線
  6
CONTINUOUS
 62
     7
 10
111.4458195060852
 20
-109.5622302733199
 30
0.0
 11
238.1764130073886
 21
-109.5622302733199
 31
0.0
  0
LINE
  5
21A
  8
寸法線
  6
CONTINUOUS
 62
     7
 10
204.0644555506389
 20
-50.10332729339297
 30
0.0
 11
204.0644555506389
 21
97.41152727042278
 31
0.0
  0
LINE
  5
21B
  8
寸法線
  6
CONTINUOUS
 62
     7
 10
184.5032033853903
 20
97.41152727042278
 30
0.0
 11
209.1514835441588
 21
97.41152727042278
 31
0.0
  0
LINE
  5
21C
  8
寸法線
  6
CONTINUOUS
 62
     7
 10
101.6576142133933
 20
126.6293820808267
 30
0.0
 11
138.6103974072801
 21
126.6293820808267
 31
0.0
  0
LINE
  5
21D
  8
寸法線
  6
CONTINUOUS
 62
     7
 10
184.4529049913056
 20
-50.10332729339297
 30
0.0
 11
209.1514835441588
 21
-50.10332729339297
 31
0.0
  0
LINE
  5
21E
  8
寸法線
  6
CONTINUOUS
 62
     7
 10
17.37610924314427
 20
119.5724484888409
 30
0.0
 11
17.37610924314427
 21
-86.4580419110404
 31
0.0
  0
LINE
  5
21F
  8
寸法線
  6
CONTINUOUS
 62
     7
 10
14.6296791223031
 20
119.5724484888409
 30
0.0
 11
34.70493953395091
 21
119.5724484888409
 31
0.0
  0
LINE
  5
220
  8
寸法線
  6
CONTINUOUS
 62
     7
 10
13.95650746448528
 20
23.5045828444551
 30
0.0
 11
34.03176787613312
 21
23.5045828444551
 31
0.0
  0
LINE
  5
221
  8
寸法線
  6
CONTINUOUS
 62
     7
 10
11.21903459190575
 20
-86.4580419110404
 30
0.0
 11
34.43553306700441
 21
-86.4580419110404
 31
0.0
  0
LINE
  5
222
  8
寸法線
  6
CONTINUOUS
 62
     7
 10
130.831371801586
 20
140.4166542127965
 30
0.0
 11
186.4110972651216
 21
140.4455930148726
 31
0.0
  0
LINE
  5
223
  8
寸法線
  6
CONTINUOUS
 62
     7
 10
186.4110972651216
 20
94.71884063915148
 30
0.0
 11
186.4110972651216
 21
163.0536876272762
 31
0.0
  0
LINE
  5
224
  8
寸法線
  6
CONTINUOUS
 62
     7
 10
130.831371801586
 20
120.6962386361294
 30
0.0
 11
130.831371801586
 21
144.8890771717478
 31
0.0
  0
LINE
  5
225
  8
寸法線
  6
CONTINUOUS
 62
     7
 10
34.55817846627932
 20
120.0216889401175
 30
0.0
 11
34.55817846627932
 21
159.6120372375115
 31
0.0
  0
LINE
  5
226
  8
寸法線
  6
CONTINUOUS
 62
     7
 10
125.4453095199464
 20
121.0035411534137
 30
0.0
 11
125.4453095199464
 21
134.7232894138726
 31
0.0
  0
LINE
  5
227
  8
寸法線
  6
CONTINUOUS
 62
     7
 10
34.55817846627932
 20
140.3760020860705
 30
0.0
 11
130.831371801586
 21
140.4166542127965
 31
0.0
  0
LINE
  5
228
  8
寸法線
  6
CONTINUOUS
 62
     7
 10
34.70493953395091
 20
155.1837115007714
 30
0.0
 11
186.4110972651216
 21
155.2739730024849
 31
0.0
  0
LINE
  5
229
  8
寸法線
  6
CONTINUOUS
 62
     7
 10
234.6775740325689
 20
-109.5622302733199
 30
0.0
 11
234.5638858815556
 21
120.4351003983474
 31
0.0
  0
LINE
  5
22A
  8
寸法線
  6
CONTINUOUS
 62
     7
 10
-232.26929
 20
-130.6269221083315
 30
0.0
 11
-28.00957867953709
 21
-130.7412992784418
 31
0.0
  0
LINE
  5
22B
  8
寸法線
  6
CONTINUOUS
 62
     7
 10
-28.05298688265124
 20
-105.1711115678205
 30
0.0
 11
-28.05298688265124
 21
-133.4525894253334
 31
0.0
  0
LINE
  5
22C
  8
寸法線
  6
CONTINUOUS
 62
     7
 10
-232.26929
 20
-105.619663
 30
0.0
 11
-232.26929
 21
-133.901140857513
 31
0.0
  0
LINE
  5
22D
  8
寸法線
  6
CONTINUOUS
 62
     7
 10
-215.4386205163604
 20
139.623593232092
 30
0.0
 11
-44.74102941320145
 21
139.3183577720988
 31
0.0
  0
LINE
  5
22E
  8
寸法線
  6
CONTINUOUS
 62
     7
 10
-44.62320714760591
 20
119.5724484888409
 30
0.0
 11
-44.62320714760591
 21
141.5170177107853
 31
0.0
  0
LINE
  5
22F
  8
寸法線
  6
CONTINUOUS
 62
     7
 10
-215.4386205163604
 20
119.5724484888409
 30
0.0
 11
-215.4386205163604
 21
141.5170177107853
 31
0.0
  0
LINE
  5
230
  8
寸法線
  6
CONTINUOUS
 62
     7
 10
-226.6592965118191
 20
155.3559662750339
 30
0.0
 11
-34.41194412932539
 21
155.5571598513725
 31
0.0
  0
LINE
  5
231
  8
寸法線
  6
CONTINUOUS
 62
     7
 10
-34.41194412932539
 20
119.6930268308246
 30
0.0
 11
-34.41194412932539
 21
157.2493907537272
 31
0.0
  0
LINE
  5
232
  8
寸法線
  6
CONTINUOUS
 62
     7
 10
-226.6592965118191
 20
119.5724484888409
 30
0.0
 11
-226.6592965118191
 21
157.2493907537272
 31
0.0
  0
LINE
  5
233
  8
寸法線
  6
CONTINUOUS
 62
     7
 10
-235.8597685147273
 20
-21.49043125019901
 30
0.0
 11
-235.8597685147273
 21
23.5045828444551
 31
0.0
  0
LINE
  5
234
  8
寸法線
  6
CONTINUOUS
 62
     7
 10
-222.231659794176
 20
23.6168929572742
 30
0.0
 11
-240.1399551456017
 21
23.6168929572742
 31
0.0
  0
LINE
  5
235
  8
寸法線
  6
CONTINUOUS
 62
     7
 10
-221.4599584054801
 20
-21.49456536478131
 30
0.0
 11
-239.3689427760028
 21
-21.49456536478131
 31
0.0
  0
POLYLINE
  5
236
  8
寸法線
  6
CONTINUOUS
 62
     7
 66
     1
 10
0.0
 20
0.0
 30
0.0
  0
VERTEX
  5
237
  8
寸法線
  6
CONTINUOUS
 62
     7
 10
-222.2971166083958
 20
154.1887679246313
 30
0.0
  0
VERTEX
  5
238
  8
寸法線
  6
CONTINUOUS
 62
     7
 10
-226.6592965118191
 20
155.3559662750339
 30
0.0
  0
VERTEX
  5
239
  8
寸法線
  6
CONTINUOUS
 62
     7
 10
-222.2971166083958
 20
156.5252316827277
 30
0.0
  0
SEQEND
  5
23A
  8
寸法線
  6
CONTINUOUS
 62
     7
  0
POLYLINE
  5
23B
  8
寸法線
  6
CONTINUOUS
 62
     7
 66
     1
 10
0.0
 20
0.0
 30
0.0
  0
VERTEX
  5
23C
  8
寸法線
  6
CONTINUOUS
 62
     7
 10
-211.0764406129371
 20
138.4557058625923
 30
0.0
  0
VERTEX
  5
23D
  8
寸法線
  6
CONTINUOUS
 62
     7
 10
-215.4386205163604
 20
139.623593232092
 30
0.0
  0
VERTEX
  5
23E
  8
寸法線
  6
CONTINUOUS
 62
     7
 10
-211.0764406129371
 20
140.7928586397858
 30
0.0
  0
SEQEND
  5
23F
  8
寸法線
  6
CONTINUOUS
 62
     7
  0
POLYLINE
  5
240
  8
寸法線
  6
CONTINUOUS
 62
     7
 66
     1
 10
0.0
 20
0.0
 30
0.0
  0
VERTEX
  5
241
  8
寸法線
  6
CONTINUOUS
 62
     7
 10
-49.1032093166248
 20
140.4855561225015
 30
0.0
  0
VERTEX
  5
242
  8
寸法線
  6
CONTINUOUS
 62
     7
 10
-44.74102941320145
 20
139.3183577720988
 30
0.0
  0
VERTEX
  5
243
  8
寸法線
  6
CONTINUOUS
 62
     7
 10
-49.1032093166248
 20
138.148403345308
 30
0.0
  0
SEQEND
  5
244
  8
寸法線
  6
CONTINUOUS
 62
     7
  0
POLYLINE
  5
245
  8
寸法線
  6
CONTINUOUS
 62
     7
 66
     1
 10
0.0
 20
0.0
 30
0.0
  0
VERTEX
  5
246
  8
寸法線
  6
CONTINUOUS
 62
     7
 10
-38.77412403274873
 20
156.7243582017751
 30
0.0
  0
VERTEX
  5
247
  8
寸法線
  6
CONTINUOUS
 62
     7
 10
-34.41194412932539
 20
155.5571598513725
 30
0.0
  0
VERTEX
  5
248
  8
寸法線
  6
CONTINUOUS
 62
     7
 10
-38.77412403274873
 20
154.3872054245816
 30
0.0
  0
SEQEND
  5
249
  8
寸法線
  6
CONTINUOUS
 62
     7
  0
POLYLINE
  5
24A
  8
寸法線
  6
CONTINUOUS
 62
     7
 66
     1
 10
0.0
 20
0.0
 30
0.0
  0
VERTEX
  5
24B
  8
寸法線
  6
CONTINUOUS
 62
     7
 10
-237.027655884227
 20
19.1424029410317
 30
0.0
  0
VERTEX
  5
24C
  8
寸法線
  6
CONTINUOUS
 62
     7
 10
-235.8597685147273
 20
23.5045828444551
 30
0.0
  0
VERTEX
  5
24D
  8
寸法線
  6
CONTINUOUS
 62
     7
 10
-234.6905031070336
 20
19.1424029410317
 30
0.0
  0
SEQEND
  5
24E
  8
寸法線
  6
CONTINUOUS
 62
     7
  0
POLYLINE
  5
24F
  8
寸法線
  6
CONTINUOUS
 62
     7
 66
     1
 10
0.0
 20
0.0
 30
0.0
  0
VERTEX
  5
250
  8
寸法線
  6
CONTINUOUS
 62
     7
 10
-234.6925701643247
 20
-17.1282513467756
 30
0.0
  0
VERTEX
  5
251
  8
寸法線
  6
CONTINUOUS
 62
     7
 10
-235.8597685147273
 20
-21.49043125019901
 30
0.0
  0
VERTEX
  5
252
  8
寸法線
  6
CONTINUOUS
 62
     7
 10
-237.0297229415182
 20
-17.1282513467756
 30
0.0
  0
SEQEND
  5
253
  8
寸法線
  6
CONTINUOUS
 62
     7
  0
POLYLINE
  5
254
  8
寸法線
  6
CONTINUOUS
 62
     7
 66
     1
 10
0.0
 20
0.0
 30
0.0
  0
VERTEX
  5
255
  8
寸法線
  6
CONTINUOUS
 62
     7
 10
-217.0984675211538
 20
-37.96349982246959
 30
0.0
  0
VERTEX
  5
256
  8
寸法線
  6
CONTINUOUS
 62
     7
 10
-221.4599584054801
 20
-36.79630147206694
 30
0.0
  0
VERTEX
  5
257
  8
寸法線
  6
CONTINUOUS
 62
     7
 10
-217.0984675211538
 20
-35.62634704527609
 30
0.0
  0
SEQEND
  5
258
  8
寸法線
  6
CONTINUOUS
 62
     7
  0
POLYLINE
  5
259
  8
寸法線
  6
CONTINUOUS
 62
     7
 66
     1
 10
0.0
 20
0.0
 30
0.0
  0
VERTEX
  5
25A
  8
寸法線
  6
CONTINUOUS
 62
     7
 10
-227.9071100965766
 20
-131.7948094778312
 30
0.0
  0
VERTEX
  5
25B
  8
寸法線
  6
CONTINUOUS
 62
     7
 10
-232.26929
 20
-130.6269221083315
 30
0.0
  0
VERTEX
  5
25C
  8
寸法線
  6
CONTINUOUS
 62
     7
 10
-227.9071100965766
 20
-129.4576567006377
 30
0.0
  0
SEQEND
  5
25D
  8
寸法線
  6
CONTINUOUS
 62
     7
  0
POLYLINE
  5
25E
  8
寸法線
  6
CONTINUOUS
 62
     7
 66
     1
 10
0.0
 20
0.0
 30
0.0
  0
VERTEX
  5
25F
  8
寸法線
  6
CONTINUOUS
 62
     7
 10
-32.37175858296043
 20
-129.5734119089421
 30
0.0
  0
VERTEX
  5
260
  8
寸法線
  6
CONTINUOUS
 62
     7
 10
-28.00957867953709
 20
-130.7412992784418
 30
0.0
  0
VERTEX
  5
261
  8
寸法線
  6
CONTINUOUS
 62
     7
 10
-32.37175858296043
 20
-131.9105646861356
 30
0.0
  0
SEQEND
  5
262
  8
寸法線
  6
CONTINUOUS
 62
     7
  0
POLYLINE
  5
263
  8
寸法線
  6
CONTINUOUS
 62
     7
 66
     1
 10
0.0
 20
0.0
 30
0.0
  0
VERTEX
  5
264
  8
寸法線
  6
CONTINUOUS
 62
     7
 10
-44.67074946530235
 20
-35.74485832996869
 30
0.0
  0
VERTEX
  5
265
  8
寸法線
  6
CONTINUOUS
 62
     7
 10
-40.30856956187901
 20
-36.91274569946839
 30
0.0
  0
VERTEX
  5
266
  8
寸法線
  6
CONTINUOUS
 62
     7
 10
-44.67074946530235
 20
-38.08201110716217
 30
0.0
  0
SEQEND
  5
267
  8
寸法線
  6
CONTINUOUS
 62
     7
  0
POLYLINE
  5
268
  8
寸法線
  6
CONTINUOUS
 62
     7
 66
     1
 10
0.0
 20
0.0
 30
0.0
  0
VERTEX
  5
269
  8
寸法線
  6
CONTINUOUS
 62
     7
 10
153.004695363751
 20
-90.82022181446374
 30
0.0
  0
VERTEX
  5
26A
  8
寸法線
  6
CONTINUOUS
 62
     7
 10
154.1718937141537
 20
-86.4580419110404
 30
0.0
  0
VERTEX
  5
26B
  8
寸法線
  6
CONTINUOUS
 62
     7
 10
155.3418481409445
 20
-90.82022181446374
 30
0.0
  0
SEQEND
  5
26C
  8
寸法線
  6
CONTINUOUS
 62
     7
  0
POLYLINE
  5
26D
  8
寸法線
  6
CONTINUOUS
 62
     7
 66
     1
 10
0.0
 20
0.0
 30
0.0
  0
VERTEX
  5
26E
  8
寸法線
  6
CONTINUOUS
 62
     7
 10
155.3838783058645
 20
-92.07010245651237
 30
0.0
  0
VERTEX
  5
26F
  8
寸法線
  6
CONTINUOUS
 62
     7
 10
154.2159909363648
 20
-96.43228235993573
 30
0.0
  0
VERTEX
  5
270
  8
寸法線
  6
CONTINUOUS
 62
     7
 10
153.0467255286711
 20
-92.07010245651237
 30
0.0
  0
SEQEND
  5
271
  8
寸法線
  6
CONTINUOUS
 62
     7
  0
POLYLINE
  5
272
  8
寸法線
  6
CONTINUOUS
 62
     7
 66
     1
 10
0.0
 20
0.0
 30
0.0
  0
VERTEX
  5
273
  8
寸法線
  6
CONTINUOUS
 62
     7
 10
220.8661862322023
 20
-105.2000503698966
 30
0.0
  0
VERTEX
  5
274
  8
寸法線
  6
CONTINUOUS
 62
     7
 10
219.6982988627026
 20
-109.5622302733199
 30
0.0
  0
VERTEX
  5
275
  8
寸法線
  6
CONTINUOUS
 62
     7
 10
218.5290334550088
 20
-105.2000503698966
 30
0.0
  0
SEQEND
  5
276
  8
寸法線
  6
CONTINUOUS
 62
     7
  0
POLYLINE
  5
277
  8
寸法線
  6
CONTINUOUS
 62
     7
 66
     1
 10
0.0
 20
0.0
 30
0.0
  0
VERTEX
  5
278
  8
寸法線
  6
CONTINUOUS
 62
     7
 10
218.4236135331602
 20
-90.82022181446374
 30
0.0
  0
VERTEX
  5
279
  8
寸法線
  6
CONTINUOUS
 62
     7
 10
219.5915009026599
 20
-86.4580419110404
 30
0.0
  0
VERTEX
  5
27A
  8
寸法線
  6
CONTINUOUS
 62
     7
 10
220.7607663103536
 20
-90.82022181446374
 30
0.0
  0
SEQEND
  5
27B
  8
寸法線
  6
CONTINUOUS
 62
     7
  0
POLYLINE
  5
27C
  8
寸法線
  6
CONTINUOUS
 62
     7
 66
     1
 10
0.0
 20
0.0
 30
0.0
  0
VERTEX
  5
27D
  8
寸法線
  6
CONTINUOUS
 62
     7
 10
235.8454614020686
 20
-105.2000503698966
 30
0.0
  0
VERTEX
  5
27E
  8
寸法線
  6
CONTINUOUS
 62
     7
 10
234.6775740325689
 20
-109.5622302733199
 30
0.0
  0
VERTEX
  5
27F
  8
寸法線
  6
CONTINUOUS
 62
     7
 10
233.5083086248751
 20
-105.2000503698966
 30
0.0
  0
SEQEND
  5
280
  8
寸法線
  6
CONTINUOUS
 62
     7
  0
POLYLINE
  5
281
  8
寸法線
  6
CONTINUOUS
 62
     7
 66
     1
 10
0.0
 20
0.0
 30
0.0
  0
VERTEX
  5
282
  8
寸法線
  6
CONTINUOUS
 62
     7
 10
220.8792775950463
 20
-82.54372442069953
 30
0.0
  0
VERTEX
  5
283
  8
寸法線
  6
CONTINUOUS
 62
     7
 10
219.7113902255466
 20
-86.90590432412287
 30
0.0
  0
VERTEX
  5
284
  8
寸法線
  6
CONTINUOUS
 62
     7
 10
218.5421248178528
 20
-82.54372442069953
 30
0.0
  0
SEQEND
  5
285
  8
寸法線
  6
CONTINUOUS
 62
     7
  0
POLYLINE
  5
286
  8
寸法線
  6
CONTINUOUS
 62
     7
 66
     1
 10
0.0
 20
0.0
 30
0.0
  0
VERTEX
  5
287
  8
寸法線
  6
CONTINUOUS
 62
     7
 10
205.2323429201386
 20
-45.74114738996961
 30
0.0
  0
VERTEX
  5
288
  8
寸法線
  6
CONTINUOUS
 62
     7
 10
204.0644555506389
 20
-50.10332729339297
 30
0.0
  0
VERTEX
  5
289
  8
寸法線
  6
CONTINUOUS
 62
     7
 10
202.895190142945
 20
-45.74114738996961
 30
0.0
  0
SEQEND
  5
28A
  8
寸法線
  6
CONTINUOUS
 62
     7
  0
POLYLINE
  5
28B
  8
寸法線
  6
CONTINUOUS
 62
     7
 66
     1
 10
0.0
 20
0.0
 30
0.0
  0
VERTEX
  5
28C
  8
寸法線
  6
CONTINUOUS
 62
     7
 10
202.8972572002362
 20
93.04934736699938
 30
0.0
  0
VERTEX
  5
28D
  8
寸法線
  6
CONTINUOUS
 62
     7
 10
204.0644555506389
 20
97.41152727042278
 30
0.0
  0
VERTEX
  5
28E
  8
寸法線
  6
CONTINUOUS
 62
     7
 10
205.2337209583327
 20
93.04934736699938
 30
0.0
  0
SEQEND
  5
28F
  8
寸法線
  6
CONTINUOUS
 62
     7
  0
POLYLINE
  5
290
  8
寸法線
  6
CONTINUOUS
 62
     7
 66
     1
 10
0.0
 20
0.0
 30
0.0
  0
VERTEX
  5
291
  8
寸法線
  6
CONTINUOUS
 62
     7
 10
218.6647702171276
 20
116.0357134636834
 30
0.0
  0
VERTEX
  5
292
  8
寸法線
  6
CONTINUOUS
 62
     7
 10
219.8326575866273
 20
120.3978933671067
 30
0.0
  0
VERTEX
  5
293
  8
寸法線
  6
CONTINUOUS
 62
     7
 10
221.0019229943212
 20
116.0357134636834
 30
0.0
  0
SEQEND
  5
294
  8
寸法線
  6
CONTINUOUS
 62
     7
  0
POLYLINE
  5
295
  8
寸法線
  6
CONTINUOUS
 62
     7
 66
     1
 10
0.0
 20
0.0
 30
0.0
  0
VERTEX
  5
296
  8
寸法線
  6
CONTINUOUS
 62
     7
 10
233.395998512056
 20
116.0729204949241
 30
0.0
  0
VERTEX
  5
297
  8
寸法線
  6
CONTINUOUS
 62
     7
 10
234.5638858815556
 20
120.4351003983474
 30
0.0
  0
VERTEX
  5
298
  8
寸法線
  6
CONTINUOUS
 62
     7
 10
235.7331512892494
 20
116.0729204949241
 30
0.0
  0
SEQEND
  5
299
  8
寸法線
  6
CONTINUOUS
 62
     7
  0
POLYLINE
  5
29A
  8
寸法線
  6
CONTINUOUS
 62
     7
 66
     1
 10
0.0
 20
0.0
 30
0.0
  0
VERTEX
  5
29B
  8
寸法線
  6
CONTINUOUS
 62
     7
 10
39.06711943737432
 20
154.0165131503687
 30
0.0
  0
VERTEX
  5
29C
  8
寸法線
  6
CONTINUOUS
 62
     7
 10
34.70493953395091
 20
155.1837115007714
 30
0.0
  0
VERTEX
  5
29D
  8
寸法線
  6
CONTINUOUS
 62
     7
 10
39.06711943737432
 20
156.3529769084652
 30
0.0
  0
SEQEND
  5
29E
  8
寸法線
  6
CONTINUOUS
 62
     7
  0
POLYLINE
  5
29F
  8
寸法線
  6
CONTINUOUS
 62
     7
 66
     1
 10
0.0
 20
0.0
 30
0.0
  0
VERTEX
  5
2A0
  8
寸法線
  6
CONTINUOUS
 62
     7
 10
38.92035836970261
 20
139.2081147165709
 30
0.0
  0
VERTEX
  5
2A1
  8
寸法線
  6
CONTINUOUS
 62
     7
 10
34.55817846627932
 20
140.3760020860705
 30
0.0
  0
VERTEX
  5
2A2
  8
寸法線
  6
CONTINUOUS
 62
     7
 10
38.92035836970261
 20
141.5452674937644
 30
0.0
  0
SEQEND
  5
2A3
  8
寸法線
  6
CONTINUOUS
 62
     7
  0
POLYLINE
  5
2A4
  8
寸法線
  6
CONTINUOUS
 62
     7
 66
     1
 10
0.0
 20
0.0
 30
0.0
  0
VERTEX
  5
2A5
  8
寸法線
  6
CONTINUOUS
 62
     7
 10
135.1935517050093
 20
125.461494711327
 30
0.0
  0
VERTEX
  5
2A6
  8
寸法線
  6
CONTINUOUS
 62
     7
 10
130.831371801586
 20
126.6293820808267
 30
0.0
  0
VERTEX
  5
2A7
  8
寸法線
  6
CONTINUOUS
 62
     7
 10
135.1935517050093
 20
127.7986474885205
 30
0.0
  0
SEQEND
  5
2A8
  8
寸法線
  6
CONTINUOUS
 62
     7
  0
POLYLINE
  5
2A9
  8
寸法線
  6
CONTINUOUS
 62
     7
 66
     1
 10
0.0
 20
0.0
 30
0.0
  0
VERTEX
  5
2AA
  8
寸法線
  6
CONTINUOUS
 62
     7
 10
135.1935517050093
 20
139.2494558623939
 30
0.0
  0
VERTEX
  5
2AB
  8
寸法線
  6
CONTINUOUS
 62
     7
 10
130.831371801586
 20
140.4166542127965
 30
0.0
  0
VERTEX
  5
2AC
  8
寸法線
  6
CONTINUOUS
 62
     7
 10
135.1935517050093
 20
141.5866086395873
 30
0.0
  0
SEQEND
  5
2AD
  8
寸法線
  6
CONTINUOUS
 62
     7
  0
POLYLINE
  5
2AE
  8
寸法線
  6
CONTINUOUS
 62
     7
 66
     1
 10
0.0
 20
0.0
 30
0.0
  0
VERTEX
  5
2AF
  8
寸法線
  6
CONTINUOUS
 62
     7
 10
182.0496063807953
 20
156.4411713528876
 30
0.0
  0
VERTEX
  5
2B0
  8
寸法線
  6
CONTINUOUS
 62
     7
 10
186.4110972651216
 20
155.2739730024849
 30
0.0
  0
VERTEX
  5
2B1
  8
寸法線
  6
CONTINUOUS
 62
     7
 10
182.0496063807953
 20
154.1040185756941
 30
0.0
  0
SEQEND
  5
2B2
  8
寸法線
  6
CONTINUOUS
 62
     7
  0
POLYLINE
  5
2B3
  8
寸法線
  6
CONTINUOUS
 62
     7
 66
     1
 10
0.0
 20
0.0
 30
0.0
  0
VERTEX
  5
2B4
  8
寸法線
  6
CONTINUOUS
 62
     7
 10
126.4691918981627
 20
141.5845415822962
 30
0.0
  0
VERTEX
  5
2B5
  8
寸法線
  6
CONTINUOUS
 62
     7
 10
130.831371801586
 20
140.4166542127965
 30
0.0
  0
VERTEX
  5
2B6
  8
寸法線
  6
CONTINUOUS
 62
     7
 10
126.4691918981627
 20
139.2473888051027
 30
0.0
  0
SEQEND
  5
2B7
  8
寸法線
  6
CONTINUOUS
 62
     7
  0
POLYLINE
  5
2B8
  8
寸法線
  6
CONTINUOUS
 62
     7
 66
     1
 10
0.0
 20
0.0
 30
0.0
  0
VERTEX
  5
2B9
  8
寸法線
  6
CONTINUOUS
 62
     7
 10
182.0496063807953
 20
141.6134803843723
 30
0.0
  0
VERTEX
  5
2BA
  8
寸法線
  6
CONTINUOUS
 62
     7
 10
186.4110972651216
 20
140.4455930148726
 30
0.0
  0
VERTEX
  5
2BB
  8
寸法線
  6
CONTINUOUS
 62
     7
 10
182.0496063807953
 20
139.2763276071788
 30
0.0
  0
SEQEND
  5
2BC
  8
寸法線
  6
CONTINUOUS
 62
     7
  0
POLYLINE
  5
2BD
  8
寸法線
  6
CONTINUOUS
 62
     7
 66
     1
 10
0.0
 20
0.0
 30
0.0
  0
VERTEX
  5
2BE
  8
寸法線
  6
CONTINUOUS
 62
     7
 10
16.20891089274163
 20
115.2109576045146
 30
0.0
  0
VERTEX
  5
2BF
  8
寸法線
  6
CONTINUOUS
 62
     7
 10
17.37610924314427
 20
119.5724484888409
 30
0.0
  0
VERTEX
  5
2C0
  8
寸法線
  6
CONTINUOUS
 62
     7
 10
18.54606366993511
 20
115.2109576045146
 30
0.0
  0
SEQEND
  5
2C1
  8
寸法線
  6
CONTINUOUS
 62
     7
  0
POLYLINE
  5
2C2
  8
寸法線
  6
CONTINUOUS
 62
     7
 66
     1
 10
0.0
 20
0.0
 30
0.0
  0
VERTEX
  5
2C3
  8
寸法線
  6
CONTINUOUS
 62
     7
 10
16.20891089274163
 20
19.1424029410317
 30
0.0
  0
VERTEX
  5
2C4
  8
寸法線
  6
CONTINUOUS
 62
     7
 10
17.37610924314427
 20
23.5045828444551
 30
0.0
  0
VERTEX
  5
2C5
  8
寸法線
  6
CONTINUOUS
 62
     7
 10
18.54606366993511
 20
19.1424029410317
 30
0.0
  0
SEQEND
  5
2C6
  8
寸法線
  6
CONTINUOUS
 62
     7
  0
POLYLINE
  5
2C7
  8
寸法線
  6
CONTINUOUS
 62
     7
 66
     1
 10
0.0
 20
0.0
 30
0.0
  0
VERTEX
  5
2C8
  8
寸法線
  6
CONTINUOUS
 62
     7
 10
18.54399661264397
 20
27.86676274787838
 30
0.0
  0
VERTEX
  5
2C9
  8
寸法線
  6
CONTINUOUS
 62
     7
 10
17.37610924314427
 20
23.5045828444551
 30
0.0
  0
VERTEX
  5
2CA
  8
寸法線
  6
CONTINUOUS
 62
     7
 10
16.20684383545047
 20
27.86676274787838
 30
0.0
  0
SEQEND
  5
2CB
  8
寸法線
  6
CONTINUOUS
 62
     7
  0
POLYLINE
  5
2CC
  8
寸法線
  6
CONTINUOUS
 62
     7
 66
     1
 10
0.0
 20
0.0
 30
0.0
  0
VERTEX
  5
2CD
  8
寸法線
  6
CONTINUOUS
 62
     7
 10
18.54399661264397
 20
-82.09586200761704
 30
0.0
  0
VERTEX
  5
2CE
  8
寸法線
  6
CONTINUOUS
 62
     7
 10
17.37610924314427
 20
-86.4580419110404
 30
0.0
  0
VERTEX
  5
2CF
  8
寸法線
  6
CONTINUOUS
 62
     7
 10
16.20684383545047
 20
-82.09586200761704
 30
0.0
  0
SEQEND
  5
2D0
  8
寸法線
  6
CONTINUOUS
 62
     7
  0
POLYLINE
  5
2D1
  8
寸法線
  6
CONTINUOUS
 62
     7
 66
     1
 10
0.0
 20
0.0
 30
0.0
  0
VERTEX
  5
2D2
  8
寸法線
  6
CONTINUOUS
 62
     7
 10
121.0831296165231
 20
127.7972694503263
 30
0.0
  0
VERTEX
  5
2D3
  8
寸法線
  6
CONTINUOUS
 62
     7
 10
125.4453095199464
 20
126.6293820808267
 30
0.0
  0
VERTEX
  5
2D4
  8
寸法線
  6
CONTINUOUS
 62
     7
 10
121.0831296165231
 20
125.4601166731329
 30
0.0
  0
SEQEND
  5
2D5
  8
寸法線
  6
CONTINUOUS
 62
     7
  0
TEXT
  5
2D7
  8
寸法線
  6
CONTINUOUS
 62
     7
 10
-138.6774144808632
 20
157.3958073118503
 30
0.0
 40
6.437567731519493
  1
1
 41
0.5
  7
EXCESS_STANDARD
  0
TEXT
  5
2D8
  8
寸法線
  6
CONTINUOUS
 62
     7
 10
-135.4586306151035
 20
157.3958073118503
 30
0.0
 40
6.437567731519493
  1
9
 41
0.5
  7
EXCESS_STANDARD
  0
TEXT
  5
2D9
  8
寸法線
  6
CONTINUOUS
 62
     7
 10
-132.2398467493437
 20
157.3958073118503
 30
0.0
 40
6.437567731519493
  1
2
 41
0.5
  7
EXCESS_STANDARD
  0
TEXT
  5
2DA
  8
寸法線
  6
CONTINUOUS
 62
     7
 10
-143.0895482688227
 20
141.3120345294129
 30
0.0
 40
6.437567731519493
  1
1
 41
0.5
  7
EXCESS_STANDARD
  0
TEXT
  5
2DB
  8
寸法線
  6
CONTINUOUS
 62
     7
 10
-139.8707644030629
 20
141.3120345294129
 30
0.0
 40
6.437567731519493
  1
7
 41
0.5
  7
EXCESS_STANDARD
  0
TEXT
  5
2DC
  8
寸法線
  6
CONTINUOUS
 62
     7
 10
-136.6519805373032
 20
141.3120345294129
 30
0.0
 40
6.437567731519493
  1
1
 41
0.5
  7
EXCESS_STANDARD
  0
TEXT
  5
2DD
  8
寸法線
  6
CONTINUOUS
 62
     7
 10
-133.4331966715434
 20
141.3120345294129
 30
0.0
 40
6.437567731519493
  1
.
 41
0.5
  7
EXCESS_STANDARD
  0
TEXT
  5
2DE
  8
寸法線
  6
CONTINUOUS
 62
     7
 10
-131.8238047386636
 20
141.3120345294129
 30
0.0
 40
6.437567731519493
  1
5
 41
0.5
  7
EXCESS_STANDARD
  0
TEXT
  5
2DF
  8
寸法線
  6
CONTINUOUS
 62
     7
 10
-125.3710776786342
 20
-35.33730353406364
 30
0.0
 40
6.104042708460355
  1
1
 41
0.5
  7
EXCESS_STANDARD
  0
TEXT
  5
2E0
  8
寸法線
  6
CONTINUOUS
 62
     7
 10
-122.319056324404
 20
-35.33730353406364
 30
0.0
 40
6.104042708460355
  1
8
 41
0.5
  7
EXCESS_STANDARD
  0
TEXT
  5
2E1
  8
寸法線
  6
CONTINUOUS
 62
     7
 10
-119.2670349701739
 20
-35.33730353406364
 30
0.0
 40
6.104042708460355
  1
2
 41
0.5
  7
EXCESS_STANDARD
  0
TEXT
  5
2E2
  8
寸法線
  6
CONTINUOUS
 62
     7
 10
106.5431041210261
 20
157.667280836088
 30
0.0
 40
6.104042708460383
  1
1
 41
0.4999999999999977
  7
EXCESS_STANDARD
  0
TEXT
  5
2E3
  8
寸法線
  6
CONTINUOUS
 62
     7
 10
109.5951254752563
 20
157.667280836088
 30
0.0
 40
6.104042708460383
  1
5
 41
0.4999999999999977
  7
EXCESS_STANDARD
  0
TEXT
  5
2E4
  8
寸法線
  6
CONTINUOUS
 62
     7
 10
112.6471468294865
 20
157.667280836088
 30
0.0
 40
6.104042708460383
  1
1
 41
0.4999999999999977
  7
EXCESS_STANDARD
  0
TEXT
  5
2E5
  8
寸法線
  6
CONTINUOUS
 62
     7
 10
115.6991681837167
 20
157.667280836088
 30
0.0
 40
6.104042708460383
  1
.
 41
0.4999999999999977
  7
EXCESS_STANDARD
  0
TEXT
  5
2E6
  8
寸法線
  6
CONTINUOUS
 62
     7
 10
117.2251788608317
 20
157.667280836088
 30
0.0
 40
6.104042708460383
  1
5
 41
0.4999999999999977
  7
EXCESS_STANDARD
  0
TEXT
  5
2E7
  8
寸法線
  6
CONTINUOUS
 62
     7
 10
72.440792931635
 20
141.6141694034693
 30
0.0
 40
6.104042708460383
  1
9
 41
0.4999999999999977
  7
EXCESS_STANDARD
  0
TEXT
  5
2E8
  8
寸法線
  6
CONTINUOUS
 62
     7
 10
75.49281428586518
 20
141.6141694034693
 30
0.0
 40
6.104042708460383
  1
6
 41
0.4999999999999977
  7
EXCESS_STANDARD
  0
TEXT
  5
2E9
  8
寸法線
  6
CONTINUOUS
 62
     7
 10
152.3990475774441
 20
142.2039697505441
 30
0.0
 40
6.104042708460383
  1
5
 41
0.4999999999999953
  7
EXCESS_STANDARD
  0
TEXT
  5
2EA
  8
寸法線
  6
CONTINUOUS
 62
     7
 10
155.4510689316743
 20
142.2039697505441
 30
0.0
 40
6.104042708460383
  1
5
 41
0.5
  7
EXCESS_STANDARD
  0
TEXT
  5
2EB
  8
寸法線
  6
CONTINUOUS
 62
     7
 10
158.5030902859045
 20
142.2039697505441
 30
0.0
 40
6.104042708460383
  1
.
 41
0.5
  7
EXCESS_STANDARD
  0
TEXT
  5
2EC
  8
寸法線
  6
CONTINUOUS
 62
     7
 10
160.0291009630196
 20
142.2039697505441
 30
0.0
 40
6.104042708460383
  1
5
 41
0.5
  7
EXCESS_STANDARD
  0
TEXT
  5
2ED
  8
寸法線
  6
CONTINUOUS
 62
     7
 10
103.3026473076001
 20
128.2740706654849
 30
0.0
 40
6.104042708460383
  1
5
 41
0.4999999999999977
  7
EXCESS_STANDARD
  0
TEXT
  5
2EE
  8
寸法線
  6
CONTINUOUS
 62
     7
 10
106.3546686618303
 20
128.2740706654849
 30
0.0
 40
6.104042708460383
  1
.
 41
0.4999999999999977
  7
EXCESS_STANDARD
  0
TEXT
  5
2EF
  8
寸法線
  6
CONTINUOUS
 62
     7
 10
107.8806793389454
 20
128.2740706654849
 30
0.0
 40
6.104042708460383
  1
5
 41
0.4999999999999977
  7
EXCESS_STANDARD
  0
TEXT
  5
2F0
  8
寸法線
  6
CONTINUOUS
 62
     7
 10
-140.632161659194
 20
-127.7905749953253
 30
0.0
 40
6.104042708460355
  1
2
 41
0.5000000000000023
  7
EXCESS_STANDARD
  0
TEXT
  5
2F1
  8
寸法線
  6
CONTINUOUS
 62
     7
 10
-137.5801403049638
 20
-127.7905749953253
 30
0.0
 40
6.104042708460355
  1
0
 41
0.5000000000000023
  7
EXCESS_STANDARD
  0
TEXT
  5
2F2
  8
寸法線
  6
CONTINUOUS
 62
     7
 10
-134.5281189507336
 20
-127.7905749953253
 30
0.0
 40
6.104042708460355
  1
4
 41
0.4999999999999977
  7
EXCESS_STANDARD
  0
TEXT
  5
2F3
  8
寸法線
  6
CONTINUOUS
 62
     7
 10
16.17928307156848
 20
60.72194937160909
 30
0.0
 40
6.104042708460355
  1
9
 50
90.0
 41
0.5
  7
EXCESS_STANDARD
  0
TEXT
  5
2F4
  8
寸法線
  6
CONTINUOUS
 62
     7
 10
16.17928307156848
 20
63.77397072583926
 30
0.0
 40
6.104042708460355
  1
6
 50
90.0
 41
0.5
  7
EXCESS_STANDARD
  0
TEXT
  5
2F5
  8
寸法線
  6
CONTINUOUS
 62
     7
 10
16.179627581117
 20
-28.74166822755282
 30
0.0
 40
6.104042708460355
  1
1
 50
90.0
 41
0.5
  7
EXCESS_STANDARD
  0
TEXT
  5
2F6
  8
寸法線
  6
CONTINUOUS
 62
     7
 10
16.179627581117
 20
-25.68964687332264
 30
0.0
 40
6.104042708460355
  1
1
 50
90.0
 41
0.5
  7
EXCESS_STANDARD
  0
TEXT
  5
2F7
  8
寸法線
  6
CONTINUOUS
 62
     7
 10
16.179627581117
 20
-22.63762551909247
 30
0.0
 40
6.104042708460355
  1
0
 50
90.0
 41
0.5
  7
EXCESS_STANDARD
  0
TEXT
  5
2F8
  8
寸法線
  6
CONTINUOUS
 62
     7
 10
202.0855927039114
 20
6.858570478824888
 30
0.0
 40
6.104042708460383
  1
φ
 50
90.0
 41
0.9999999999999953
  7
EXCESS_STANDARD
  0
TEXT
  5
2F9
  8
寸法線
  6
CONTINUOUS
 62
     7
 10
202.0855927039114
 20
12.96261318728524
 30
0.0
 40
6.104042708460383
  1
1
 50
90.0
 41
0.4999999999999977
  7
EXCESS_STANDARD
  0
TEXT
  5
2FA
  8
寸法線
  6
CONTINUOUS
 62
     7
 10
202.0855927039114
 20
16.01463454151542
 30
0.0
 40
6.104042708460383
  1
4
 50
90.0
 41
0.4999999999999977
  7
EXCESS_STANDARD
  0
TEXT
  5
2FB
  8
寸法線
  6
CONTINUOUS
 62
     7
 10
202.0855927039114
 20
19.0666558957456
 30
0.0
 40
6.104042708460383
  1
5
 50
90.0
 41
0.4999999999999977
  7
EXCESS_STANDARD
  0
TEXT
  5
2FC
  8
寸法線
  6
CONTINUOUS
 62
     7
 10
217.3587345186695
 20
7.070099341619184
 30
0.0
 40
6.104042708460383
  1
2
 50
90.0
 41
0.4999999999999977
  7
EXCESS_STANDARD
  0
TEXT
  5
2FD
  8
寸法線
  6
CONTINUOUS
 62
     7
 10
217.3587345186695
 20
10.12212069584936
 30
0.0
 40
6.104042708460383
  1
0
 50
90.0
 41
0.4999999999999977
  7
EXCESS_STANDARD
  0
TEXT
  5
2FE
  8
寸法線
  6
CONTINUOUS
 62
     7
 10
217.3587345186695
 20
13.17414205007954
 30
0.0
 40
6.104042708460383
  1
6
 50
90.0
 41
0.4999999999999977
  7
EXCESS_STANDARD
  0
TEXT
  5
2FF
  8
寸法線
  6
CONTINUOUS
 62
     7
 10
217.3587345186695
 20
16.22616340430972
 30
0.0
 40
6.104042708460383
  1
.
 50
90.0
 41
0.4999999999999977
  7
EXCESS_STANDARD
  0
TEXT
  5
300
  8
寸法線
  6
CONTINUOUS
 62
     7
 10
217.3587345186695
 20
17.7521740814248
 30
0.0
 40
6.104042708460383
  1
5
 50
90.0
 41
0.4999999999999977
  7
EXCESS_STANDARD
  0
TEXT
  5
301
  8
寸法線
  6
CONTINUOUS
 62
     7
 10
-237.5978191870359
 20
-5.22131233065511
 30
0.0
 40
6.104042708460355
  1
4
 50
90.0
 41
0.5
  7
EXCESS_STANDARD
  0
TEXT
  5
302
  8
寸法線
  6
CONTINUOUS
 62
     7
 10
-237.5978191870359
 20
-2.169290976424932
 30
0.0
 40
6.104042708460355
  1
5
 50
90.0
 41
0.5
  7
EXCESS_STANDARD
  0
TEXT
  5
303
  8
寸法線
  6
CONTINUOUS
 62
     7
 10
152.2653778726164
 20
-83.35745597431554
 30
0.0
 40
6.104042708460355
  1
1
 50
90.0
 41
0.5
  7
EXCESS_STANDARD
  0
TEXT
  5
304
  8
寸法線
  6
CONTINUOUS
 62
     7
 10
152.2653778726164
 20
-80.30543462008536
 30
0.0
 40
6.104042708460355
  1
0
 50
90.0
 41
0.5
  7
EXCESS_STANDARD
  0
TEXT
  5
305
  8
寸法線
  6
CONTINUOUS
 62
     7
 10
216.4247691326182
 20
-108.8552966797466
 30
0.0
 40
6.104042708460383
  1
2
 50
90.0
 41
0.4999999999999977
  7
EXCESS_STANDARD
  0
TEXT
  5
306
  8
寸法線
  6
CONTINUOUS
 62
     7
 10
216.4247691326182
 20
-105.8032753255165
 30
0.0
 40
6.104042708460383
  1
2
 50
90.0
 41
0.4999999999999977
  7
EXCESS_STANDARD
  0
TEXT
  5
307
  8
寸法線
  6
CONTINUOUS
 62
     7
 10
216.4247691326182
 20
-102.7512539712863
 30
0.0
 40
6.104042708460383
  1
.
 50
90.0
 41
0.4999999999999977
  7
EXCESS_STANDARD
  0
TEXT
  5
308
  8
寸法線
  6
CONTINUOUS
 62
     7
 10
216.4247691326182
 20
-101.2252432941712
 30
0.0
 40
6.104042708460383
  1
5
 50
90.0
 41
0.4999999999999977
  7
EXCESS_STANDARD
  0
TEXT
  5
309
  8
寸法線
  6
CONTINUOUS
 62
     7
 10
232.6087941936764
 20
12.45616162325881
 30
0.0
 40
6.104042708460383
  1
2
 50
90.0
 41
0.4999999999999977
  7
EXCESS_STANDARD
  0
TEXT
  5
30A
  8
寸法線
  6
CONTINUOUS
 62
     7
 10
232.6087941936764
 20
15.50818297748899
 30
0.0
 40
6.104042708460383
  1
2
 50
90.0
 41
0.4999999999999977
  7
EXCESS_STANDARD
  0
TEXT
  5
30B
  8
寸法線
  6
CONTINUOUS
 62
     7
 10
232.6087941936764
 20
18.56020433171916
 30
0.0
 40
6.104042708460383
  1
9
 50
90.0
 41
0.4999999999999977
  7
EXCESS_STANDARD
  0
LINE
  5
30C
  8
レイヤー_4
  6
CONTINUOUS
 62
     7
 10
-215.7107830596951
 20
120.0023964054001
 30
0.0
 11
-215.7107830596951
 21
119.5242171520474
 31
0.0
  0
LINE
  5
30D
  8
レイヤー_4
  6
CONTINUOUS
 62
     7
 10
-45.21162945648658
 20
120.0023964054001
 30
0.0
 11
-215.7107830596951
 21
120.0023964054001
 31
0.0
  0
LINE
  5
30E
  8
レイヤー_4
  6
CONTINUOUS
 62
     7
 10
-45.21162945648658
 20
120.0023964054001
 30
0.0
 11
-45.21162945648658
 21
119.5242171520474
 31
0.0
  0
LINE
  5
30F
  8
レイヤー_4
  6
CONTINUOUS
 62
     7
 10
-215.7107830596951
 20
119.5242171520474
 30
0.0
 11
-215.2098661761398
 21
119.5242171520474
 31
0.0
  0
LINE
  5
310
  8
レイヤー_4
  6
CONTINUOUS
 62
     7
 10
-215.2098661761398
 20
119.5242171520474
 30
0.0
 11
-215.2098661761398
 21
119.5042355982329
 31
0.0
  0
LINE
  5
311
  8
レイヤー_4
  6
CONTINUOUS
 62
     7
 10
-215.7107830596951
 20
119.5042355982329
 30
0.0
 11
-215.7107830596951
 21
119.5242171520474
 31
0.0
  0
LINE
  5
312
  8
レイヤー_4
  6
CONTINUOUS
 62
     7
 10
-45.71116830184781
 20
119.5242171520474
 30
0.0
 11
-45.21162945648658
 21
119.5242171520474
 31
0.0
  0
LINE
  5
313
  8
レイヤー_4
  6
CONTINUOUS
 62
     7
 10
-45.71116830184781
 20
119.5042355982329
 30
0.0
 11
-45.71116830184781
 21
119.5242171520474
 31
0.0
  0
LINE
  5
314
  8
レイヤー_4
  6
CONTINUOUS
 62
     7
 10
-45.21162945648658
 20
119.5242171520474
 30
0.0
 11
-45.21162945648658
 21
119.5042355982329
 31
0.0
  0
LINE
  5
315
  8
レイヤー_4
  6
CONTINUOUS
 62
     7
 10
-202.0744061099792
 20
119.5042355982329
 30
0.0
 11
-202.0744061099792
 21
-86.49593796137813
 31
0.0
  0
LINE
  5
316
  8
レイヤー_4
  6
CONTINUOUS
 62
     7
 10
-202.0744061099792
 20
119.5042355982329
 30
0.0
 11
-58.84800640620249
 21
119.5042355982329
 31
0.0
  0
LINE
  5
317
  8
レイヤー_4
  6
CONTINUOUS
 62
     7
 10
-58.84800640620249
 20
-86.49593796137813
 30
0.0
 11
-58.84800640620249
 21
119.5042355982329
 31
0.0
  0
LINE
  5
318
  8
レイヤー_4
  6
CONTINUOUS
 62
     7
 10
-202.0744061099792
 20
-86.49593796137813
 30
0.0
 11
-58.84800640620249
 21
-86.49593796137813
 31
0.0
  0
LINE
  5
319
  8
レイヤー_4
  6
CONTINUOUS
 62
     7
 10
-44.71209061112535
 20
119.5042355982329
 30
0.0
 11
-44.71209061112535
 21
-86.49593796137813
 31
0.0
  0
LINE
  5
31A
  8
レイヤー_4
  6
CONTINUOUS
 62
     7
 10
-44.71209061112535
 20
-86.49593796137813
 30
0.0
 11
-58.84800640620249
 21
-86.49593796137813
 31
0.0
  0
LINE
  5
31B
  8
レイヤー_4
  6
CONTINUOUS
 62
     7
 10
-58.84800640620249
 20
119.5042355982329
 30
0.0
 11
-44.71209061112535
 21
119.5042355982329
 31
0.0
  0
LINE
  5
31C
  8
レイヤー_4
  6
CONTINUOUS
 62
     7
 10
-216.2103219050564
 20
-86.49593796137813
 30
0.0
 11
-216.2103219050564
 21
119.5042355982329
 31
0.0
  0
LINE
  5
31D
  8
レイヤー_4
  6
CONTINUOUS
 62
     7
 10
-202.0744061099792
 20
-86.49593796137813
 30
0.0
 11
-216.2103219050564
 21
-86.49593796137813
 31
0.0
  0
LINE
  5
31E
  8
レイヤー_4
  6
CONTINUOUS
 62
     7
 10
-216.2103219050564
 20
119.5042355982329
 30
0.0
 11
-202.0744061099792
 21
119.5042355982329
 31
0.0
  0
LINE
  5
31F
  8
レイヤー_4
  6
CONTINUOUS
 62
     7
 10
-226.4601699927717
 20
119.5042355982329
 30
0.0
 11
-226.4601699927717
 21
-86.49593796137813
 31
0.0
  0
CIRCLE
  5
320
  8
レイヤー_4
  6
CONTINUOUS
 62
     7
 10
-221.4590048529356
 20
-21.49364374100209
 30
0.0
 40
2.251290112154984
  0
LINE
  5
321
  8
レイヤー_4
  6
CONTINUOUS
 62
     7
 10
-226.4601699927717
 20
-86.49593796137813
 30
0.0
 11
-216.2103219050564
 21
-86.49593796137813
 31
0.0
  0
LINE
  5
322
  8
レイヤー_4
  6
CONTINUOUS
 62
     7
 10
-226.4601699927717
 20
119.5042355982329
 30
0.0
 11
-216.2103219050564
 21
119.5042355982329
 31
0.0
  0
LINE
  5
323
  8
レイヤー_4
  6
CONTINUOUS
 62
     7
 10
-34.46155350431299
 20
119.5042355982329
 30
0.0
 11
-34.46155350431299
 21
-86.49593796137813
 31
0.0
  0
CIRCLE
  5
324
  8
レイヤー_4
  6
CONTINUOUS
 62
     7
 10
-39.46081153906008
 20
-21.4936437410021
 30
0.0
 40
2.251290112154973
  0
LINE
  5
325
  8
レイヤー_4
  6
CONTINUOUS
 62
     7
 10
-44.71209061112535
 20
-86.49593796137813
 30
0.0
 11
-34.46155350431299
 21
-86.49593796137813
 31
0.0
  0
LINE
  5
326
  8
レイヤー_4
  6
CONTINUOUS
 62
     7
 10
-44.71209061112535
 20
119.5042355982329
 30
0.0
 11
-34.46155350431299
 21
119.5042355982329
 31
0.0
  0
POLYLINE
  5
327
  8
レイヤー_4
  6
CONTINUOUS
 62
     7
 66
     1
 10
0.0
 20
0.0
 30
0.0
  0
VERTEX
  5
328
  8
レイヤー_4
  6
CONTINUOUS
 62
     7
 10
-144.7879803430508
 20
-108.5617745444033
 30
0.0
  0
VERTEX
  5
329
  8
レイヤー_4
  6
CONTINUOUS
 62
     7
 10
-155.573885288271
 20
-108.4067452475671
 30
0.0
  0
VERTEX
  5
32A
  8
レイヤー_4
  6
CONTINUOUS
 62
     7
 10
-166.3542780807148
 20
-108.1648995445026
 30
0.0
  0
VERTEX
  5
32B
  8
レイヤー_4
  6
CONTINUOUS
 62
     7
 10
-177.125713624897
 20
-107.839682530695
 30
0.0
  0
VERTEX
  5
32C
  8
レイヤー_4
  6
CONTINUOUS
 62
     7
 10
-187.8840578062352
 20
-107.4290271488532
 30
0.0
  0
VERTEX
  5
32D
  8
レイヤー_4
  6
CONTINUOUS
 62
     7
 10
-198.6299996438264
 20
-106.9329333989772
 30
0.0
  0
VERTEX
  5
32E
  8
レイヤー_4
  6
CONTINUOUS
 62
     7
 10
-209.3580269848944
 20
-106.3548463765523
 30
0.0
  0
VERTEX
  5
32F
  8
レイヤー_4
  6
CONTINUOUS
 62
     7
 10
-220.0674508103421
 20
-105.688564909705
 30
0.0
  0
VERTEX
  5
330
  8
レイヤー_4
  6
CONTINUOUS
 62
     7
 10
-230.75344798649
 20
-104.9396011512117
 30
0.0
  0
SEQEND
  5
331
  8
レイヤー_4
  6
CONTINUOUS
 62
     7
  0
LINE
  5
332
  8
レイヤー_4
  6
CONTINUOUS
 62
     7
 10
-144.7879803430508
 20
-108.5617745444033
 30
0.0
 11
-116.1344321731309
 21
-108.5617745444033
 31
0.0
  0
POLYLINE
  5
333
  8
レイヤー_4
  6
CONTINUOUS
 62
     7
 66
     1
 10
0.0
 20
0.0
 30
0.0
  0
VERTEX
  5
334
  8
レイヤー_4
  6
CONTINUOUS
 62
     7
 10
-232.4594592707858
 20
-103.9501697278479
 30
0.0
  0
VERTEX
  5
335
  8
レイヤー_4
  6
CONTINUOUS
 62
     7
 10
-232.4277643923215
 20
-104.1272476357898
 30
0.0
  0
VERTEX
  5
336
  8
レイヤー_4
  6
CONTINUOUS
 62
     7
 10
-232.3347468142197
 20
-104.2981243718582
 30
0.0
  0
VERTEX
  5
337
  8
レイヤー_4
  6
CONTINUOUS
 62
     7
 10
-232.1824735937717
 20
-104.4586658214708
 30
0.0
  0
VERTEX
  5
338
  8
レイヤー_4
  6
CONTINUOUS
 62
     7
 10
-231.9737008073655
 20
-104.6033598318513
 30
0.0
  0
VERTEX
  5
339
  8
レイヤー_4
  6
CONTINUOUS
 62
     7
 10
-231.718763741457
 20
-104.7260052311262
 30
0.0
  0
VERTEX
  5
33A
  8
レイヤー_4
  6
CONTINUOUS
 62
     7
 10
-231.4238635679197
 20
-104.8259130001984
 30
0.0
  0
VERTEX
  5
33B
  8
レイヤー_4
  6
CONTINUOUS
 62
     7
 10
-231.0993355732091
 20
-104.8975709862916
 30
0.0
  0
VERTEX
  5
33C
  8
レイヤー_4
  6
CONTINUOUS
 62
     7
 10
-230.75344798649
 20
-104.9396011512117
 30
0.0
  0
SEQEND
  5
33D
  8
レイヤー_4
  6
CONTINUOUS
 62
     7
  0
LINE
  5
33E
  8
レイヤー_4
  6
CONTINUOUS
 62
     7
 10
-232.4594592707858
 20
-103.9501697278479
 30
0.0
 11
-232.4594592707858
 21
-103.9067615247338
 31
0.0
  0
LINE
  5
33F
  8
レイヤー_4
  6
CONTINUOUS
 62
     7
 10
-232.4594592707858
 20
-103.9067615247338
 30
0.0
 11
-231.9599204254245
 21
-103.9067615247338
 31
0.0
  0
LINE
  5
340
  8
レイヤー_4
  6
CONTINUOUS
 62
     7
 10
-231.9599204254245
 20
-96.20628409610333
 30
0.0
 11
-28.9624920907572
 21
-96.20628409610333
 31
0.0
  0
LINE
  5
341
  8
レイヤー_4
  6
CONTINUOUS
 62
     7
 10
-28.46157520720187
 20
-103.9067615247338
 30
0.0
 11
-28.9624920907572
 21
-103.9067615247338
 31
0.0
  0
LINE
  5
342
  8
レイヤー_4
  6
CONTINUOUS
 62
     7
 10
-28.46157520720187
 20
-103.9501697278479
 30
0.0
 11
-28.46157520720187
 21
-103.9067615247338
 31
0.0
  0
POLYLINE
  5
343
  8
レイヤー_4
  6
CONTINUOUS
 62
     7
 66
     1
 10
0.0
 20
0.0
 30
0.0
  0
VERTEX
  5
344
  8
レイヤー_4
  6
CONTINUOUS
 62
     7
 10
-30.16827551059464
 20
-104.9396011512117
 30
0.0
  0
VERTEX
  5
345
  8
レイヤー_4
  6
CONTINUOUS
 62
     7
 10
-29.82307694297261
 20
-104.8975709862916
 30
0.0
  0
VERTEX
  5
346
  8
レイヤー_4
  6
CONTINUOUS
 62
     7
 10
-29.49717091006797
 20
-104.8259130001984
 30
0.0
  0
VERTEX
  5
347
  8
レイヤー_4
  6
CONTINUOUS
 62
     7
 10
-29.20364877472468
 20
-104.7260052311262
 30
0.0
  0
VERTEX
  5
348
  8
レイヤー_4
  6
CONTINUOUS
 62
     7
 10
-28.94802268971915
 20
-104.6033598318513
 30
0.0
  0
VERTEX
  5
349
  8
レイヤー_4
  6
CONTINUOUS
 62
     7
 10
-28.73993892241006
 20
-104.4586658214708
 30
0.0
  0
VERTEX
  5
34A
  8
レイヤー_4
  6
CONTINUOUS
 62
     7
 10
-28.58766570196202
 20
-104.2981243718582
 30
0.0
  0
VERTEX
  5
34B
  8
レイヤー_4
  6
CONTINUOUS
 62
     7
 10
-28.49395910476322
 20
-104.1272476357898
 30
0.0
  0
VERTEX
  5
34C
  8
レイヤー_4
  6
CONTINUOUS
 62
     7
 10
-28.46157520720187
 20
-103.9501697278479
 30
0.0
  0
SEQEND
  5
34D
  8
レイヤー_4
  6
CONTINUOUS
 62
     7
  0
POLYLINE
  5
34E
  8
レイヤー_4
  6
CONTINUOUS
 62
     7
 66
     1
 10
0.0
 20
0.0
 30
0.0
  0
VERTEX
  5
34F
  8
レイヤー_4
  6
CONTINUOUS
 62
     7
 10
-30.16827551059464
 20
-104.9396011512117
 30
0.0
  0
VERTEX
  5
350
  8
レイヤー_4
  6
CONTINUOUS
 62
     7
 10
-40.85496170583964
 20
-105.688564909705
 30
0.0
  0
VERTEX
  5
351
  8
レイヤー_4
  6
CONTINUOUS
 62
     7
 10
-51.56300749309318
 20
-106.3548463765523
 30
0.0
  0
VERTEX
  5
352
  8
レイヤー_4
  6
CONTINUOUS
 62
     7
 10
-62.29172385325822
 20
-106.9329333989772
 30
0.0
  0
VERTEX
  5
353
  8
レイヤー_4
  6
CONTINUOUS
 62
     7
 10
-73.03697667175247
 20
-107.4290271488532
 30
0.0
  0
VERTEX
  5
354
  8
レイヤー_4
  6
CONTINUOUS
 62
     7
 10
-83.79669889128476
 20
-107.839682530695
 30
0.0
  0
VERTEX
  5
355
  8
レイヤー_4
  6
CONTINUOUS
 62
     7
 10
-94.5681344354669
 20
-108.1648995445026
 30
0.0
  0
VERTEX
  5
356
  8
レイヤー_4
  6
CONTINUOUS
 62
     7
 10
-105.3485272279107
 20
-108.4067452475671
 30
0.0
  0
VERTEX
  5
357
  8
レイヤー_4
  6
CONTINUOUS
 62
     7
 10
-116.1344321731309
 20
-108.5617745444033
 30
0.0
  0
SEQEND
  5
358
  8
レイヤー_4
  6
CONTINUOUS
 62
     7
  0
LINE
  5
359
  8
レイヤー_4
  6
CONTINUOUS
 62
     7
 10
-232.4594592707858
 20
-98.89001347911295
 30
0.0
 11
-231.9599204254245
 21
-98.89001347911295
 31
0.0
  0
LINE
  5
35A
  8
レイヤー_4
  6
CONTINUOUS
 62
     7
 10
-231.9599204254245
 20
-98.89001347911295
 30
0.0
 11
-231.9599204254245
 21
-103.9067615247338
 31
0.0
  0
LINE
  5
35B
  8
レイヤー_4
  6
CONTINUOUS
 62
     7
 10
-232.4594592707858
 20
-103.9067615247338
 30
0.0
 11
-232.4594592707858
 21
-98.89001347911295
 31
0.0
  0
LINE
  5
35C
  8
レイヤー_4
  6
CONTINUOUS
 62
     7
 10
-28.9624920907572
 20
-98.89001347911295
 30
0.0
 11
-28.46157520720187
 21
-98.89001347911295
 31
0.0
  0
LINE
  5
35D
  8
レイヤー_4
  6
CONTINUOUS
 62
     7
 10
-28.9624920907572
 20
-103.9067615247338
 30
0.0
 11
-28.9624920907572
 21
-98.89001347911295
 31
0.0
  0
LINE
  5
35E
  8
レイヤー_4
  6
CONTINUOUS
 62
     7
 10
-28.46157520720187
 20
-98.89001347911295
 30
0.0
 11
-28.46157520720187
 21
-103.9067615247338
 31
0.0
  0
LINE
  5
35F
  8
レイヤー_4
  6
CONTINUOUS
 62
     7
 10
-28.9624920907572
 20
-94.18539108445577
 30
0.0
 11
-28.46157520720187
 21
-94.18539108445577
 31
0.0
  0
LINE
  5
360
  8
レイヤー_4
  6
CONTINUOUS
 62
     7
 10
-28.9624920907572
 20
-98.89001347911295
 30
0.0
 11
-28.9624920907572
 21
-94.18539108445577
 31
0.0
  0
LINE
  5
361
  8
レイヤー_4
  6
CONTINUOUS
 62
     7
 10
-28.46157520720187
 20
-94.18539108445577
 30
0.0
 11
-28.46157520720187
 21
-98.89001347911295
 31
0.0
  0
LINE
  5
362
  8
レイヤー_4
  6
CONTINUOUS
 62
     7
 10
-232.4594592707858
 20
-94.18539108445577
 30
0.0
 11
-231.9599204254245
 21
-94.18539108445577
 31
0.0
  0
LINE
  5
363
  8
レイヤー_4
  6
CONTINUOUS
 62
     7
 10
-231.9599204254245
 20
-98.89001347911295
 30
0.0
 11
-231.9599204254245
 21
-94.18539108445577
 31
0.0
  0
LINE
  5
364
  8
レイヤー_4
  6
CONTINUOUS
 62
     7
 10
-232.4594592707858
 20
-94.18539108445577
 30
0.0
 11
-232.4594592707858
 21
-98.89001347911295
 31
0.0
  0
LINE
  5
365
  8
レイヤー_4
  6
CONTINUOUS
 62
     7
 10
-28.46157520720187
 20
-89.49523809083664
 30
0.0
 11
-28.9624920907572
 21
-89.49523809083664
 31
0.0
  0
LINE
  5
366
  8
レイヤー_4
  6
CONTINUOUS
 62
     7
 10
-28.9624920907572
 20
-94.18539108445577
 30
0.0
 11
-28.9624920907572
 21
-89.49523809083664
 31
0.0
  0
LINE
  5
367
  8
レイヤー_4
  6
CONTINUOUS
 62
     7
 10
-28.46157520720187
 20
-89.49523809083664
 30
0.0
 11
-28.46157520720187
 21
-94.18539108445577
 31
0.0
  0
LINE
  5
368
  8
レイヤー_4
  6
CONTINUOUS
 62
     7
 10
-231.9599204254245
 20
-89.49523809083664
 30
0.0
 11
-232.4594592707858
 21
-89.49523809083664
 31
0.0
  0
LINE
  5
369
  8
レイヤー_4
  6
CONTINUOUS
 62
     7
 10
-231.9599204254245
 20
-94.18539108445577
 30
0.0
 11
-231.9599204254245
 21
-89.49523809083664
 31
0.0
  0
LINE
  5
36A
  8
レイヤー_4
  6
CONTINUOUS
 62
     7
 10
-232.4594592707858
 20
-89.49523809083664
 30
0.0
 11
-232.4594592707858
 21
-94.18539108445577
 31
0.0
  0
LINE
  5
36B
  8
レイヤー_4
  6
CONTINUOUS
 62
     7
 10
-28.9624920907572
 20
-88.493404323726
 30
0.0
 11
-28.46157520720187
 21
-88.493404323726
 31
0.0
  0
LINE
  5
36C
  8
レイヤー_4
  6
CONTINUOUS
 62
     7
 10
-28.9624920907572
 20
-89.49523809083664
 30
0.0
 11
-28.9624920907572
 21
-88.493404323726
 31
0.0
  0
LINE
  5
36D
  8
レイヤー_4
  6
CONTINUOUS
 62
     7
 10
-28.46157520720187
 20
-88.493404323726
 30
0.0
 11
-28.46157520720187
 21
-89.49523809083664
 31
0.0
  0
LINE
  5
36E
  8
レイヤー_4
  6
CONTINUOUS
 62
     7
 10
-232.4594592707858
 20
-88.493404323726
 30
0.0
 11
-231.9599204254245
 21
-88.493404323726
 31
0.0
  0
LINE
  5
36F
  8
レイヤー_4
  6
CONTINUOUS
 62
     7
 10
-231.9599204254245
 20
-88.493404323726
 30
0.0
 11
-231.9599204254245
 21
-89.49523809083664
 31
0.0
  0
LINE
  5
370
  8
レイヤー_4
  6
CONTINUOUS
 62
     7
 10
-232.4594592707858
 20
-89.49523809083664
 30
0.0
 11
-232.4594592707858
 21
-88.493404323726
 31
0.0
  0
POLYLINE
  5
371
  8
レイヤー_4
  6
CONTINUOUS
 62
     7
 66
     1
 10
0.0
 20
0.0
 30
0.0
  0
VERTEX
  5
372
  8
レイヤー_4
  6
CONTINUOUS
 62
     7
 10
-28.46157557312639
 20
-88.49340501120511
 30
0.0
 42
0.0499138212795868
  0
VERTEX
  5
373
  8
レイヤー_4
  6
CONTINUOUS
 62
     7
 10
-28.50146340988879
 20
-88.09483343721494
 30
0.0
 42
0.050342253952522
  0
VERTEX
  5
374
  8
レイヤー_4
  6
CONTINUOUS
 62
     7
 10
-28.61880157312639
 20
-87.7156310112051
 30
0.0
 42
0.0724010583994521
  0
VERTEX
  5
375
  8
レイヤー_4
  6
CONTINUOUS
 62
     7
 10
-28.91666570608359
 20
-87.22456880741939
 30
0.0
 42
0.0720794715681848
  0
VERTEX
  5
376
  8
レイヤー_4
  6
CONTINUOUS
 62
     7
 10
-29.34370857312638
 20
-86.8369060112051
 30
0.0
 42
0.0744701152630418
  0
VERTEX
  5
377
  8
レイヤー_4
  6
CONTINUOUS
 62
     7
 10
-29.87609365610909
 20
-86.58332121232002
 30
0.0
 42
0.0740993308676905
  0
VERTEX
  5
378
  8
レイヤー_4
  6
CONTINUOUS
 62
     7
 10
-30.46248757312639
 20
-86.49593801120511
 30
0.0
  0
SEQEND
  5
379
  8
レイヤー_4
  6
CONTINUOUS
 62
     7
  0
POLYLINE
  5
37A
  8
レイヤー_4
  6
CONTINUOUS
 62
     7
 66
     1
 10
0.0
 20
0.0
 30
0.0
  0
VERTEX
  5
37B
  8
レイヤー_4
  6
CONTINUOUS
 62
     7
 10
-230.4599255731264
 20
-86.4959380112051
 30
0.0
 42
0.0497630363316647
  0
VERTEX
  5
37C
  8
レイヤー_4
  6
CONTINUOUS
 62
     7
 10
-230.8587778325393
 20
-86.53573275626368
 30
0.0
 42
0.0502161504957382
  0
VERTEX
  5
37D
  8
レイヤー_4
  6
CONTINUOUS
 62
     7
 10
-231.2383125731264
 20
-86.65281901120511
 30
0.0
 42
0.0722885308482559
  0
VERTEX
  5
37E
  8
レイヤー_4
  6
CONTINUOUS
 62
     7
 10
-231.7300209045413
 20
-86.95018327244009
 30
0.0
 42
0.0721126930280626
  0
VERTEX
  5
37F
  8
レイヤー_4
  6
CONTINUOUS
 62
     7
 10
-232.1180185731264
 20
-87.3763220112051
 30
0.0
 42
0.0746242654737162
  0
VERTEX
  5
380
  8
レイヤー_4
  6
CONTINUOUS
 62
     7
 10
-232.3719753443189
 20
-87.90796087944295
 30
0.0
 42
0.0743026451370985
  0
VERTEX
  5
381
  8
レイヤー_4
  6
CONTINUOUS
 62
     7
 10
-232.4594585731264
 20
-88.49340501153202
 30
0.0
  0
SEQEND
  5
382
  8
レイヤー_4
  6
CONTINUOUS
 62
     7
  0
LINE
  5
383
  8
レイヤー_4
  6
CONTINUOUS
 62
     7
 10
-34.46155350431299
 20
-86.49593796137813
 30
0.0
 11
-30.46248666503497
 21
-86.49593796137813
 31
0.0
  0
LINE
  5
384
  8
レイヤー_4
  6
CONTINUOUS
 62
     7
 10
-230.4599258511467
 20
-86.49593796137813
 30
0.0
 11
-226.4601699927717
 21
-86.49593796137813
 31
0.0
  0
POLYLINE
  5
385
  8
レイヤー_4
  6
CONTINUOUS
 62
     7
 66
     1
 10
0.0
 20
0.0
 30
0.0
  0
VERTEX
  5
386
  8
レイヤー_4
  6
CONTINUOUS
 62
     7
 10
-42.36253557312639
 20
23.5045819887949
 30
0.0
 42
0.0498474513543199
  0
VERTEX
  5
387
  8
レイヤー_4
  6
CONTINUOUS
 62
     7
 10
-42.30472901831384
 20
22.92618813570108
 30
0.0
 42
0.0502769378909219
  0
VERTEX
  5
388
  8
レイヤー_4
  6
CONTINUOUS
 62
     7
 10
-42.1345675731264
 20
22.3755059887949
 30
0.0
 42
0.0723071975991349
  0
VERTEX
  5
389
  8
レイヤー_4
  6
CONTINUOUS
 62
     7
 10
-41.70262267003411
 20
21.66225633840931
 30
0.0
 42
0.0720597541806225
  0
VERTEX
  5
38A
  8
レイヤー_4
  6
CONTINUOUS
 62
     7
 10
-41.0835775731264
 20
21.09923998879491
 30
0.0
 42
0.0745572575185688
  0
VERTEX
  5
38B
  8
レイヤー_4
  6
CONTINUOUS
 62
     7
 10
-40.31145793494338
 20
20.73070467695256
 30
0.0
 42
0.0742574848648248
  0
VERTEX
  5
38C
  8
レイヤー_4
  6
CONTINUOUS
 62
     7
 10
-39.46176557312639
 20
20.6038119887949
 30
0.0
 42
0.04986878317883
  0
VERTEX
  5
38D
  8
レイヤー_4
  6
CONTINUOUS
 62
     7
 10
-38.88363712856723
 20
20.6616168675924
 30
0.0
 42
0.050297463543024
  0
VERTEX
  5
38E
  8
レイヤー_4
  6
CONTINUOUS
 62
     7
 10
-38.33319557312639
 20
20.83177998879491
 30
0.0
 42
0.0723183598858514
  0
VERTEX
  5
38F
  8
レイヤー_4
  6
CONTINUOUS
 62
     7
 10
-37.62038733328606
 20
21.26364193756673
 30
0.0
 42
0.0720650446769051
  0
VERTEX
  5
390
  8
レイヤー_4
  6
CONTINUOUS
 62
     7
 10
-37.05754657312638
 20
21.88276998879489
 30
0.0
 42
0.0745378396659664
  0
VERTEX
  5
391
  8
レイヤー_4
  6
CONTINUOUS
 62
     7
 10
-36.68919855131553
 20
22.65488431573523
 30
0.0
 42
0.0742185614712025
  0
VERTEX
  5
392
  8
レイヤー_4
  6
CONTINUOUS
 62
     7
 10
-36.56237357312639
 20
23.5045819887949
 30
0.0
 42
0.0498535043168831
  0
VERTEX
  5
393
  8
レイヤー_4
  6
CONTINUOUS
 62
     7
 10
-36.62016717132816
 20
24.08277564245246
 30
0.0
 42
0.0502835513857936
  0
VERTEX
  5
394
  8
レイヤー_4
  6
CONTINUOUS
 62
     7
 10
-36.79022357312638
 20
24.63304498879491
 30
0.0
 42
0.0483176706794888
  0
VERTEX
  5
395
  8
レイヤー_4
  6
CONTINUOUS
 62
     7
 10
-37.0556683289272
 20
25.12268544736612
 30
0.0
 42
0.0480940130811352
  0
VERTEX
  5
396
  8
レイヤー_4
  6
CONTINUOUS
 62
     7
 10
-37.41158957312639
 20
25.55441398879491
 30
0.0
 42
0.0480878438281466
  0
VERTEX
  5
397
  8
レイヤー_4
  6
CONTINUOUS
 62
     7
 10
-37.84343018223939
 20
25.91019816389012
 30
0.0
 42
0.0482978693913097
  0
VERTEX
  5
398
  8
レイヤー_4
  6
CONTINUOUS
 62
     7
 10
-38.33319557312639
 20
26.1755429887949
 30
0.0
 42
0.0502588236298891
  0
VERTEX
  5
399
  8
レイヤー_4
  6
CONTINUOUS
 62
     7
 10
-38.88357937011889
 20
26.34552917703037
 30
0.0
 42
0.0498213892282916
  0
VERTEX
  5
39A
  8
レイヤー_4
  6
CONTINUOUS
 62
     7
 10
-39.46176557312639
 20
26.40328598879491
 30
0.0
 42
0.0498013895622739
  0
VERTEX
  5
39B
  8
レイヤー_4
  6
CONTINUOUS
 62
     7
 10
-40.04022550429141
 20
26.3455265182473
 30
0.0
 42
0.050238171280706
  0
VERTEX
  5
39C
  8
レイヤー_4
  6
CONTINUOUS
 62
     7
 10
-40.59084157312638
 20
26.1755429887949
 30
0.0
 42
0.0722891836019016
  0
VERTEX
  5
39D
  8
レイヤー_4
  6
CONTINUOUS
 62
     7
 10
-41.3041819175644
 20
25.74391158993858
 30
0.0
 42
0.0720765264529806
  0
VERTEX
  5
39E
  8
レイヤー_4
  6
CONTINUOUS
 62
     7
 10
-41.86710857312639
 20
25.1254379887949
 30
0.0
 42
0.0365467230621943
  0
VERTEX
  5
39F
  8
レイヤー_4
  6
CONTINUOUS
 62
     7
 10
-42.07777591130365
 20
24.75873248265997
 30
0.0
 42
0.0366784877680983
  0
VERTEX
  5
3A0
  8
レイヤー_4
  6
CONTINUOUS
 62
     7
 10
-42.23211657312639
 20
24.36670598879489
 30
0.0
 42
0.0379144256974299
  0
VERTEX
  5
3A1
  8
レイヤー_4
  6
CONTINUOUS
 62
     7
 10
-42.32958217493572
 20
23.94270290960004
 30
0.0
 42
0.0375568710615449
  0
VERTEX
  5
3A2
  8
レイヤー_4
  6
CONTINUOUS
 62
     7
 10
-42.36253557312639
 20
23.50458198880615
 30
0.0
  0
SEQEND
  5
3A3
  8
レイヤー_4
  6
CONTINUOUS
 62
     7
  0
LINE
  5
3A4
  8
レイヤー_4
  6
CONTINUOUS
 62
     7
 10
-39.81178679290598
 20
23.85460454575649
 30
0.0
 11
-41.21187359811152
 21
23.85460454575649
 31
0.0
  0
LINE
  5
3A5
  8
レイヤー_4
  6
CONTINUOUS
 62
     7
 10
-39.11243240940027
 20
23.85460454575649
 30
0.0
 11
-39.11243240940027
 21
25.2540023318649
 31
0.0
  0
LINE
  5
3A6
  8
レイヤー_4
  6
CONTINUOUS
 62
     7
 10
-39.81178679290598
 20
25.2540023318649
 30
0.0
 11
-39.81178679290598
 21
23.85460454575649
 31
0.0
  0
LINE
  5
3A7
  8
レイヤー_4
  6
CONTINUOUS
 62
     7
 10
-37.71165658509769
 20
23.85460454575649
 30
0.0
 11
-39.11243240940027
 21
23.85460454575649
 31
0.0
  0
LINE
  5
3A8
  8
レイヤー_4
  6
CONTINUOUS
 62
     7
 10
-37.71165658509769
 20
23.1538721240566
 30
0.0
 11
-37.71165658509769
 21
23.85460454575649
 31
0.0
  0
LINE
  5
3A9
  8
レイヤー_4
  6
CONTINUOUS
 62
     7
 10
-39.11243240940027
 20
21.75378531885109
 30
0.0
 11
-39.11243240940027
 21
23.1538721240566
 31
0.0
  0
LINE
  5
3AA
  8
レイヤー_4
  6
CONTINUOUS
 62
     7
 10
-39.11243240940027
 20
25.2540023318649
 30
0.0
 11
-39.81178679290598
 21
25.2540023318649
 31
0.0
  0
LINE
  5
3AB
  8
レイヤー_4
  6
CONTINUOUS
 62
     7
 10
-39.81178679290598
 20
21.75378531885109
 30
0.0
 11
-39.11243240940027
 21
21.75378531885109
 31
0.0
  0
LINE
  5
3AC
  8
レイヤー_4
  6
CONTINUOUS
 62
     7
 10
-41.21187359811152
 20
23.85460454575649
 30
0.0
 11
-41.21187359811152
 21
23.1538721240566
 31
0.0
  0
LINE
  5
3AD
  8
レイヤー_4
  6
CONTINUOUS
 62
     7
 10
-41.21187359811152
 20
23.1538721240566
 30
0.0
 11
-39.81178679290598
 21
23.1538721240566
 31
0.0
  0
LINE
  5
3AE
  8
レイヤー_4
  6
CONTINUOUS
 62
     7
 10
-39.81178679290598
 20
23.1538721240566
 30
0.0
 11
-39.81178679290598
 21
21.75378531885109
 31
0.0
  0
LINE
  5
3AF
  8
レイヤー_4
  6
CONTINUOUS
 62
     7
 10
-39.11243240940027
 20
23.1538721240566
 30
0.0
 11
-37.71165658509769
 21
23.1538721240566
 31
0.0
  0
POLYLINE
  5
3B0
  8
レイヤー_4
  6
CONTINUOUS
 62
     7
 66
     1
 10
0.0
 20
0.0
 30
0.0
  0
VERTEX
  5
3B1
  8
レイヤー_4
  6
CONTINUOUS
 62
     7
 10
-224.3593505731264
 20
23.5045819887949
 30
0.0
 42
0.0498221678772332
  0
VERTEX
  5
3B2
  8
レイヤー_4
  6
CONTINUOUS
 62
     7
 10
-224.3015720623287
 20
22.92617389620655
 30
0.0
 42
0.0502564118096612
  0
VERTEX
  5
3B3
  8
レイヤー_4
  6
CONTINUOUS
 62
     7
 10
-224.1315005731264
 20
22.3755059887949
 30
0.0
 42
0.0722954854298244
  0
VERTEX
  5
3B4
  8
レイヤー_4
  6
CONTINUOUS
 62
     7
 10
-223.6997130224132
 20
21.66218212588434
 30
0.0
 42
0.072061738946834
  0
VERTEX
  5
3B5
  8
レイヤー_4
  6
CONTINUOUS
 62
     7
 10
-223.0810315731264
 20
21.09923998879491
 30
0.0
 42
0.0365424405749963
  0
VERTEX
  5
3B6
  8
レイヤー_4
  6
CONTINUOUS
 62
     7
 10
-222.7141753947721
 20
20.88854117726645
 30
0.0
 42
0.0366629287234384
  0
VERTEX
  5
3B7
  8
レイヤー_4
  6
CONTINUOUS
 62
     7
 10
-222.3221445731264
 20
20.73423198879489
 30
0.0
 42
0.0379087034046728
  0
VERTEX
  5
3B8
  8
レイヤー_4
  6
CONTINUOUS
 62
     7
 10
-221.898061343905
 20
20.63676117319646
 30
0.0
 42
0.0375511016399128
  0
VERTEX
  5
3B9
  8
レイヤー_4
  6
CONTINUOUS
 62
     7
 10
-221.4599575731264
 20
20.6038119887949
 30
0.0
 42
0.0498511805114433
  0
VERTEX
  5
3BA
  8
レイヤー_4
  6
CONTINUOUS
 62
     7
 10
-220.8815844299762
 20
20.66162081976886
 30
0.0
 42
0.0502900031852799
  0
VERTEX
  5
3BB
  8
レイヤー_4
  6
CONTINUOUS
 62
     7
 10
-220.3309895731264
 20
20.83177998879491
 30
0.0
 42
0.0723217530199381
  0
VERTEX
  5
3BC
  8
レイヤー_4
  6
CONTINUOUS
 62
     7
 10
-219.6179766702218
 20
21.26367481835048
 30
0.0
 42
0.0720734224566144
  0
VERTEX
  5
3BD
  8
レイヤー_4
  6
CONTINUOUS
 62
     7
 10
-219.0550865731264
 20
21.88276998879489
 30
0.0
 42
0.0745478063076779
  0
VERTEX
  5
3BE
  8
レイヤー_4
  6
CONTINUOUS
 62
     7
 10
-218.6867093602314
 20
22.65487777339895
 30
0.0
 42
0.0742217797495523
  0
VERTEX
  5
3BF
  8
レイヤー_4
  6
CONTINUOUS
 62
     7
 10
-218.5598765731264
 20
23.5045819887949
 30
0.0
 42
0.0498550616026105
  0
VERTEX
  5
3C0
  8
レイヤー_4
  6
CONTINUOUS
 62
     7
 10
-218.6176723988888
 20
24.08277977668315
 30
0.0
 42
0.0502887936209753
  0
VERTEX
  5
3C1
  8
レイヤー_4
  6
CONTINUOUS
 62
     7
 10
-218.7877375731264
 20
24.63304498879491
 30
0.0
 42
0.0483284180633907
  0
VERTEX
  5
3C2
  8
レイヤー_4
  6
CONTINUOUS
 62
     7
 10
-219.0532313128521
 20
25.1227199584289
 30
0.0
 42
0.0480969630912692
  0
VERTEX
  5
3C3
  8
レイヤー_4
  6
CONTINUOUS
 62
     7
 10
-219.4091785731264
 20
25.55441398879491
 30
0.0
 42
0.048096850610549
  0
VERTEX
  5
3C4
  8
レイヤー_4
  6
CONTINUOUS
 62
     7
 10
-219.8411286213068
 20
25.91021579252772
 30
0.0
 42
0.0482936216396394
  0
VERTEX
  5
3C5
  8
レイヤー_4
  6
CONTINUOUS
 62
     7
 10
-220.3309895731264
 20
26.1755429887949
 30
0.0
 42
0.0502529157646259
  0
VERTEX
  5
3C6
  8
レイヤー_4
  6
CONTINUOUS
 62
     7
 10
-220.8815449118453
 20
26.34552886060804
 30
0.0
 42
0.0498021362749377
  0
VERTEX
  5
3C7
  8
レイヤー_4
  6
CONTINUOUS
 62
     7
 10
-221.4599575731264
 20
26.40328598879491
 30
0.0
 42
0.0498266642202027
  0
VERTEX
  5
3C8
  8
レイヤー_4
  6
CONTINUOUS
 62
     7
 10
-222.0381974994476
 20
26.34551903769444
 30
0.0
 42
0.0502545609841614
  0
VERTEX
  5
3C9
  8
レイヤー_4
  6
CONTINUOUS
 62
     7
 10
-222.5885285731264
 20
26.1755429887949
 30
0.0
 42
0.0723207803799489
  0
VERTEX
  5
3CA
  8
レイヤー_4
  6
CONTINUOUS
 62
     7
 10
-223.3016092495776
 20
25.74384482967993
 30
0.0
 42
0.0720621829966453
  0
VERTEX
  5
3CB
  8
レイヤー_4
  6
CONTINUOUS
 62
     7
 10
-223.8641765731264
 20
25.1254379887949
 30
0.0
 42
0.0365392442601149
  0
VERTEX
  5
3CC
  8
レイヤー_4
  6
CONTINUOUS
 62
     7
 10
-224.0747367280269
 20
24.75873342702813
 30
0.0
 42
0.0366640507044063
  0
VERTEX
  5
3CD
  8
レイヤー_4
  6
CONTINUOUS
 62
     7
 10
-224.2289985731264
 20
24.36670598879489
 30
0.0
 42
0.037897180079132
  0
VERTEX
  5
3CE
  8
レイヤー_4
  6
CONTINUOUS
 62
     7
 10
-224.326412942466
 20
23.94270722146855
 30
0.0
 42
0.0375360489035088
  0
VERTEX
  5
3CF
  8
レイヤー_4
  6
CONTINUOUS
 62
     7
 10
-224.3593505731264
 20
23.50458198833881
 30
0.0
  0
SEQEND
  5
3D0
  8
レイヤー_4
  6
CONTINUOUS
 62
     7
  0
LINE
  5
3D1
  8
レイヤー_4
  6
CONTINUOUS
 62
     7
 10
-221.1099367041787
 20
23.1538721240566
 30
0.0
 11
-219.7098498989732
 21
23.1538721240566
 31
0.0
  0
LINE
  5
3D2
  8
レイヤー_4
  6
CONTINUOUS
 62
     7
 10
-219.7098498989732
 20
23.1538721240566
 30
0.0
 11
-219.7098498989732
 21
23.85460454575649
 31
0.0
  0
LINE
  5
3D3
  8
レイヤー_4
  6
CONTINUOUS
 62
     7
 10
-219.7098498989732
 20
23.85460454575649
 30
0.0
 11
-221.1099367041787
 21
23.85460454575649
 31
0.0
  0
LINE
  5
3D4
  8
レイヤー_4
  6
CONTINUOUS
 62
     7
 10
-221.1099367041787
 20
23.85460454575649
 30
0.0
 11
-221.1099367041787
 21
25.2540023318649
 31
0.0
  0
LINE
  5
3D5
  8
レイヤー_4
  6
CONTINUOUS
 62
     7
 10
-221.1099367041787
 20
25.2540023318649
 30
0.0
 11
-221.8099801067814
 21
25.2540023318649
 31
0.0
  0
LINE
  5
3D6
  8
レイヤー_4
  6
CONTINUOUS
 62
     7
 10
-221.8099801067814
 20
25.2540023318649
 30
0.0
 11
-221.8099801067814
 21
23.85460454575649
 31
0.0
  0
LINE
  5
3D7
  8
レイヤー_4
  6
CONTINUOUS
 62
     7
 10
-221.8099801067814
 20
23.85460454575649
 30
0.0
 11
-223.210755931084
 21
23.85460454575649
 31
0.0
  0
LINE
  5
3D8
  8
レイヤー_4
  6
CONTINUOUS
 62
     7
 10
-223.210755931084
 20
23.85460454575649
 30
0.0
 11
-223.210755931084
 21
23.1538721240566
 31
0.0
  0
LINE
  5
3D9
  8
レイヤー_4
  6
CONTINUOUS
 62
     7
 10
-223.210755931084
 20
23.1538721240566
 30
0.0
 11
-221.8099801067814
 21
23.1538721240566
 31
0.0
  0
LINE
  5
3DA
  8
レイヤー_4
  6
CONTINUOUS
 62
     7
 10
-221.8099801067814
 20
23.1538721240566
 30
0.0
 11
-221.8099801067814
 21
21.75378531885109
 31
0.0
  0
LINE
  5
3DB
  8
レイヤー_4
  6
CONTINUOUS
 62
     7
 10
-221.8099801067814
 20
21.75378531885109
 30
0.0
 11
-221.1099367041787
 21
21.75378531885109
 31
0.0
  0
LINE
  5
3DC
  8
レイヤー_4
  6
CONTINUOUS
 62
     7
 10
-221.1099367041787
 20
21.75378531885109
 30
0.0
 11
-221.1099367041787
 21
23.1538721240566
 31
0.0
  0
CIRCLE
  5
3DD
  8
レイヤー_4
  6
CONTINUOUS
 62
     7
 10
-39.46066687725033
 20
-76.49324719220324
 30
0.0
 40
2.551158047624714
  0
POLYLINE
  5
3DE
  8
レイヤー_4
  6
CONTINUOUS
 62
     7
 66
     1
 10
0.0
 20
0.0
 30
0.0
  0
VERTEX
  5
3DF
  8
レイヤー_4
  6
CONTINUOUS
 62
     7
 10
-224.0100175731264
 20
-76.49413701120511
 30
0.0
 42
0.0498359139824334
  0
VERTEX
  5
3E0
  8
レイヤー_4
  6
CONTINUOUS
 62
     7
 10
-223.9591786711896
 20
-77.00293311281068
 30
0.0
 42
0.0502746054029691
  0
VERTEX
  5
3E1
  8
レイヤー_4
  6
CONTINUOUS
 62
     7
 10
-223.8096205731264
 20
-77.4870250112051
 30
0.0
 42
0.0723361745894366
  0
VERTEX
  5
3E2
  8
レイヤー_4
  6
CONTINUOUS
 62
     7
 10
-223.4298901624066
 20
-78.11405374426025
 30
0.0
 42
0.0720839020370932
  0
VERTEX
  5
3E3
  8
レイヤー_4
  6
CONTINUOUS
 62
     7
 10
-222.8857185731264
 20
-78.6088670112051
 30
0.0
 42
0.0745503548242936
  0
VERTEX
  5
3E4
  8
レイヤー_4
  6
CONTINUOUS
 62
     7
 10
-222.2070652365566
 20
-78.93267294769348
 30
0.0
 42
0.0742254691425147
  0
VERTEX
  5
3E5
  8
レイヤー_4
  6
CONTINUOUS
 62
     7
 10
-221.4599575731264
 20
-79.04419701120511
 30
0.0
 42
0.0498184914473509
  0
VERTEX
  5
3E6
  8
レイヤー_4
  6
CONTINUOUS
 62
     7
 10
-220.951443508577
 20
-78.99340414214184
 30
0.0
 42
0.0502641826233761
  0
VERTEX
  5
3E7
  8
レイヤー_4
  6
CONTINUOUS
 62
     7
 10
-220.4673615731264
 20
-78.84389701120512
 30
0.0
 42
0.0723213503389066
  0
VERTEX
  5
3E8
  8
レイヤー_4
  6
CONTINUOUS
 62
     7
 10
-219.8402906929337
 20
-78.46426209238479
 30
0.0
 42
0.0720845869031226
  0
VERTEX
  5
3E9
  8
レイヤー_4
  6
CONTINUOUS
 62
     7
 10
-219.3454095731264
 20
-77.92020101120511
 30
0.0
 42
0.0745781745700203
  0
VERTEX
  5
3EA
  8
レイヤー_4
  6
CONTINUOUS
 62
     7
 10
-219.0214778354716
 20
-77.24147740710285
 30
0.0
 42
0.0742398614745479
  0
VERTEX
  5
3EB
  8
レイヤー_4
  6
CONTINUOUS
 62
     7
 10
-218.9098985731264
 20
-76.49413701120511
 30
0.0
 42
0.0498742396456979
  0
VERTEX
  5
3EC
  8
レイヤー_4
  6
CONTINUOUS
 62
     7
 10
-218.9607004459822
 20
-75.98610414076552
 30
0.0
 42
0.0502650209771741
  0
VERTEX
  5
3ED
  8
レイヤー_4
  6
CONTINUOUS
 62
     7
 10
-219.1102955731264
 20
-75.5021220112051
 30
0.0
 42
0.048278190284238
  0
VERTEX
  5
3EE
  8
レイヤー_4
  6
CONTINUOUS
 62
     7
 10
-219.3437701267583
 20
-75.07138105890775
 30
0.0
 42
0.0480428195447574
  0
VERTEX
  5
3EF
  8
レイヤー_4
  6
CONTINUOUS
 62
     7
 10
-219.6567945731264
 20
-74.69149101120512
 30
0.0
 42
0.0480688419308886
  0
VERTEX
  5
3F0
  8
レイヤー_4
  6
CONTINUOUS
 62
     7
 10
-220.0367344994891
 20
-74.3782186899348
 30
0.0
 42
0.0482905927385351
  0
VERTEX
  5
3F1
  8
レイヤー_4
  6
CONTINUOUS
 62
     7
 10
-220.4673615731264
 20
-74.1446680112051
 30
0.0
 42
0.0503073990662147
  0
VERTEX
  5
3F2
  8
レイヤー_4
  6
CONTINUOUS
 62
     7
 10
-220.9515749718956
 20
-73.99492808233731
 30
0.0
 42
0.0498882272301426
  0
VERTEX
  5
3F3
  8
レイヤー_4
  6
CONTINUOUS
 62
     7
 10
-221.4599575731264
 20
-73.94407801120511
 30
0.0
 42
0.0498954950728627
  0
VERTEX
  5
3F4
  8
レイヤー_4
  6
CONTINUOUS
 62
     7
 10
-221.9684182660986
 20
-73.99494444226087
 30
0.0
 42
0.0502988552919988
  0
VERTEX
  5
3F5
  8
レイヤー_4
  6
CONTINUOUS
 62
     7
 10
-222.4525545731264
 20
-74.14466801120511
 30
0.0
 42
0.0722822241077696
  0
VERTEX
  5
3F6
  8
レイヤー_4
  6
CONTINUOUS
 62
     7
 10
-223.0794199507196
 20
-74.5244965162777
 30
0.0
 42
0.0720283926190973
  0
VERTEX
  5
3F7
  8
レイヤー_4
  6
CONTINUOUS
 62
     7
 10
-223.5745065731264
 20
-75.06898201120511
 30
0.0
 42
0.0745185195321899
  0
VERTEX
  5
3F8
  8
レイヤー_4
  6
CONTINUOUS
 62
     7
 10
-223.8985233126457
 20
-75.74779709015078
 30
0.0
 42
0.0742820373508197
  0
VERTEX
  5
3F9
  8
レイヤー_4
  6
CONTINUOUS
 62
     7
 10
-224.0100175731264
 20
-76.49413701066405
 30
0.0
  0
SEQEND
  5
3FA
  8
レイヤー_4
  6
CONTINUOUS
 62
     7
  0
POLYLINE
  5
3FB
  8
レイヤー_4
  6
CONTINUOUS
 62
     7
 66
     1
 10
0.0
 20
0.0
 30
0.0
  0
VERTEX
  5
3FC
  8
レイヤー_4
  6
CONTINUOUS
 62
     7
 10
-224.0100175731264
 20
109.5024339887949
 30
0.0
 42
0.0498832300495283
  0
VERTEX
  5
3FD
  8
レイヤー_4
  6
CONTINUOUS
 62
     7
 10
-223.9592037930596
 20
108.9943740834346
 30
0.0
 42
0.0502749563614987
  0
VERTEX
  5
3FE
  8
レイヤー_4
  6
CONTINUOUS
 62
     7
 10
-223.8096205731264
 20
108.5105259887949
 30
0.0
 42
0.0722931483143524
  0
VERTEX
  5
3FF
  8
レイヤー_4
  6
CONTINUOUS
 62
     7
 10
-223.4298780796285
 20
107.8836249595987
 30
0.0
 42
0.0720225631083766
  0
VERTEX
  5
400
  8
レイヤー_4
  6
CONTINUOUS
 62
     7
 10
-222.8857185731264
 20
107.3887199887949
 30
0.0
 42
0.0745502825280181
  0
VERTEX
  5
401
  8
レイヤー_4
  6
CONTINUOUS
 62
     7
 10
-222.2069016199173
 20
107.0646485388746
 30
0.0
 42
0.0742820515159723
  0
VERTEX
  5
402
  8
レイヤー_4
  6
CONTINUOUS
 62
     7
 10
-221.4599575731264
 20
106.9530629887949
 30
0.0
 42
0.0498628331499758
  0
VERTEX
  5
403
  8
レイヤー_4
  6
CONTINUOUS
 62
     7
 10
-220.9515355252132
 20
107.0038920927941
 30
0.0
 42
0.0502873416006409
  0
VERTEX
  5
404
  8
レイヤー_4
  6
CONTINUOUS
 62
     7
 10
-220.4673615731264
 20
107.1535459887949
 30
0.0
 42
0.072277747514092
  0
VERTEX
  5
405
  8
レイヤー_4
  6
CONTINUOUS
 62
     7
 10
-219.8404588571059
 20
107.5332355943716
 30
0.0
 42
0.0720434815554791
  0
VERTEX
  5
406
  8
レイヤー_4
  6
CONTINUOUS
 62
     7
 10
-219.3454095731264
 20
108.0774969887949
 30
0.0
 42
0.0745464209762544
  0
VERTEX
  5
407
  8
レイヤー_4
  6
CONTINUOUS
 62
     7
 10
-219.0213918131506
 20
108.7561700371267
 30
0.0
 42
0.0742888475418742
  0
VERTEX
  5
408
  8
レイヤー_4
  6
CONTINUOUS
 62
     7
 10
-218.9098985731264
 20
109.5024339887949
 30
0.0
 42
0.0498302802460957
  0
VERTEX
  5
409
  8
レイヤー_4
  6
CONTINUOUS
 62
     7
 10
-218.9607260384103
 20
110.0111734294395
 30
0.0
 42
0.0502804297539748
  0
VERTEX
  5
40A
  8
レイヤー_4
  6
CONTINUOUS
 62
     7
 10
-219.1102955731264
 20
110.4953209887949
 30
0.0
 42
0.0483222399803397
  0
VERTEX
  5
40B
  8
レイヤー_4
  6
CONTINUOUS
 62
     7
 10
-219.34378365569
 20
110.926113695561
 30
0.0
 42
0.0480975301597388
  0
VERTEX
  5
40C
  8
レイヤー_4
  6
CONTINUOUS
 62
     7
 10
-219.6567945731264
 20
111.3058549887949
 30
0.0
 42
0.0481077685149116
  0
VERTEX
  5
40D
  8
レイヤー_4
  6
CONTINUOUS
 62
     7
 10
-220.0366993002897
 20
111.6188701356268
 30
0.0
 42
0.0482936284589533
  0
VERTEX
  5
40E
  8
レイヤー_4
  6
CONTINUOUS
 62
     7
 10
-220.4673615731264
 20
111.8521939887949
 30
0.0
 42
0.0502633607497358
  0
VERTEX
  5
40F
  8
レイヤー_4
  6
CONTINUOUS
 62
     7
 10
-220.9514364036268
 20
112.0016995644689
 30
0.0
 42
0.0498190921544303
  0
VERTEX
  5
410
  8
レイヤー_4
  6
CONTINUOUS
 62
     7
 10
-221.4599575731264
 20
112.0524939887949
 30
0.0
 42
0.0498242446989608
  0
VERTEX
  5
411
  8
レイヤー_4
  6
CONTINUOUS
 62
     7
 10
-221.968529489117
 20
112.0016894456057
 30
0.0
 42
0.0502582387636633
  0
VERTEX
  5
412
  8
レイヤー_4
  6
CONTINUOUS
 62
     7
 10
-222.4525545731264
 20
111.8521939887949
 30
0.0
 42
0.0723187243153311
  0
VERTEX
  5
413
  8
レイヤー_4
  6
CONTINUOUS
 62
     7
 10
-223.0796048977815
 20
111.472575976477
 30
0.0
 42
0.0720872128418059
  0
VERTEX
  5
414
  8
レイヤー_4
  6
CONTINUOUS
 62
     7
 10
-223.5745065731264
 20
110.9284979887949
 30
0.0
 42
0.0745767870648057
  0
VERTEX
  5
415
  8
レイヤー_4
  6
CONTINUOUS
 62
     7
 10
-223.8984342119585
 20
110.2497877607376
 30
0.0
 42
0.0742412445232046
  0
VERTEX
  5
416
  8
レイヤー_4
  6
CONTINUOUS
 62
     7
 10
-224.0100175731264
 20
109.5024339890683
 30
0.0
  0
SEQEND
  5
417
  8
レイヤー_4
  6
CONTINUOUS
 62
     7
  0
CIRCLE
  5
418
  8
レイヤー_4
  6
CONTINUOUS
 62
     7
 10
-39.46066784587687
 20
109.5041950129121
 30
0.0
 40
2.551157531439627
  0
LINE
  5
419
  8
レイヤー_4
  6
DASHDOT
 62
     7
 10
-215.2098661761398
 20
104.8253727546804
 30
0.0
 11
-215.7107830596951
 21
104.8253727546804
 31
0.0
  0
LINE
  5
41A
  8
レイヤー_4
  6
DASHDOT
 62
     7
 10
-45.71116830184781
 20
104.8253727546804
 30
0.0
 11
-45.21162945648658
 21
104.8253727546804
 31
0.0
  0
LINE
  5
41B
  8
レイヤー_4
  6
DASHDOT
 62
     7
 10
-215.2098661761398
 20
118.2019895048085
 30
0.0
 11
-215.7107830596951
 21
118.2019895048085
 31
0.0
  0
LINE
  5
41C
  8
レイヤー_4
  6
DASHDOT
 62
     7
 10
-215.2098661761398
 20
119.5042355982329
 30
0.0
 11
-215.2098661761398
 21
118.2019895048085
 31
0.0
  0
LINE
  5
41D
  8
レイヤー_4
  6
DASHDOT
 62
     7
 10
-45.21162945648658
 20
118.2019895048085
 30
0.0
 11
-45.71116830184781
 21
118.2019895048085
 31
0.0
  0
LINE
  5
41E
  8
レイヤー_4
  6
DASHDOT
 62
     7
 10
-45.71116830184781
 20
118.2019895048085
 30
0.0
 11
-45.71116830184781
 21
119.5042355982329
 31
0.0
  0
LINE
  5
41F
  8
レイヤー_4
  6
DASHDOT
 62
     7
 10
-215.2098661761398
 20
104.8253727546804
 30
0.0
 11
-215.2098661761398
 21
118.2019895048085
 31
0.0
  0
LINE
  5
420
  8
レイヤー_4
  6
DASHDOT
 62
     7
 10
-45.71116830184781
 20
104.8253727546804
 30
0.0
 11
-45.71116830184781
 21
118.2019895048085
 31
0.0
  0
LINE
  5
421
  8
レイヤー_4
  6
DASHDOT
 62
     7
 10
-215.3097739452121
 20
116.0253781772276
 30
0.0
 11
-215.3097739452121
 21
113.0253890286721
 31
0.0
  0
LINE
  5
422
  8
レイヤー_4
  6
DASHDOT
 62
     7
 10
-45.61194955187261
 20
116.0253781772276
 30
0.0
 11
-45.61194955187261
 21
113.0253890286721
 31
0.0
  0
LINE
  5
423
  8
レイヤー_4
  6
DOT
 62
     7
 10
-170.4608318991326
 20
119.9031776554249
 30
0.0
 11
-168.9608373248548
 21
119.9031776554249
 31
0.0
  0
LINE
  5
424
  8
レイヤー_4
  6
DOT
 62
     7
 10
-171.9608264734104
 20
119.9031776554249
 30
0.0
 11
-170.4608318991326
 21
119.9031776554249
 31
0.0
  0
LINE
  5
425
  8
レイヤー_4
  6
DOT
 62
     7
 10
-212.2098770275843
 20
119.9031776554249
 30
0.0
 11
-210.7098824533065
 21
119.9031776554249
 31
0.0
  0
LINE
  5
426
  8
レイヤー_4
  6
DOT
 62
     7
 10
-213.709871601862
 20
119.9031776554249
 30
0.0
 11
-212.2098770275843
 21
119.9031776554249
 31
0.0
  0
LINE
  5
427
  8
レイヤー_4
  6
DOT
 62
     7
 10
-130.4605172389938
 20
119.9031776554249
 30
0.0
 11
-128.960522664716
 21
119.9031776554249
 31
0.0
  0
LINE
  5
428
  8
レイヤー_4
  6
DOT
 62
     7
 10
-131.9605118132716
 20
119.9031776554249
 30
0.0
 11
-130.4605172389938
 21
119.9031776554249
 31
0.0
  0
LINE
  5
429
  8
レイヤー_4
  6
DOT
 62
     7
 10
-90.4615806170491
 20
119.9031776554249
 30
0.0
 11
-88.9615860427713
 21
119.9031776554249
 31
0.0
  0
LINE
  5
42A
  8
レイヤー_4
  6
DOT
 62
     7
 10
-91.96157519132687
 20
119.9031776554249
 30
0.0
 11
-90.4615806170491
 21
119.9031776554249
 31
0.0
  0
LINE
  5
42B
  8
レイヤー_4
  6
DOT
 62
     7
 10
-48.71184646950041
 20
119.9031776554249
 30
0.0
 11
-47.21116287612558
 21
119.9031776554249
 31
0.0
  0
LINE
  5
42C
  8
レイヤー_4
  6
DOT
 62
     7
 10
-50.21115202468115
 20
119.9031776554249
 30
0.0
 11
-48.71184646950041
 21
119.9031776554249
 31
0.0
  0
POLYLINE
  5
42D
  8
レイヤー_4
  6
DASHDOT
 62
     7
 66
     1
 10
0.0
 20
0.0
 30
0.0
  0
VERTEX
  5
42E
  8
レイヤー_4
  6
DASHDOT
 62
     7
 10
-223.1101585731264
 20
109.5024339887949
 30
0.0
 42
0.0982180776663097
  0
VERTEX
  5
42F
  8
レイヤー_4
  6
DASHDOT
 62
     7
 10
-222.9853232629654
 20
108.8730638515484
 30
0.0
 42
0.0988013444022401
  0
VERTEX
  5
430
  8
レイヤー_4
  6
DASHDOT
 62
     7
 10
-222.6268975731264
 20
108.3360969887949
 30
0.0
 42
0.0480848274722594
  0
VERTEX
  5
431
  8
レイヤー_4
  6
DASHDOT
 62
     7
 10
-222.3811258092898
 20
108.1336002269368
 30
0.0
 42
0.0482973138708244
  0
VERTEX
  5
432
  8
レイヤー_4
  6
DASHDOT
 62
     7
 10
-222.1023715731264
 20
107.9825649887949
 30
0.0
 42
0.0502558923643434
  0
VERTEX
  5
433
  8
レイヤー_4
  6
DASHDOT
 62
     7
 10
-221.789137813203
 20
107.8858107916835
 30
0.0
 42
0.0498326528364954
  0
VERTEX
  5
434
  8
レイヤー_4
  6
DASHDOT
 62
     7
 10
-221.4599575731264
 20
107.8529219887949
 30
0.0
 42
0.1988503918208394
  0
VERTEX
  5
435
  8
レイヤー_4
  6
DASHDOT
 62
     7
 10
-220.2930232729165
 20
108.3361189985352
 30
0.0
 42
0.1989746185014747
  0
VERTEX
  5
436
  8
レイヤー_4
  6
DASHDOT
 62
     7
 10
-219.8097575731264
 20
109.5024339887949
 30
0.0
 42
0.0983911057090275
  0
VERTEX
  5
437
  8
レイヤー_4
  6
DASHDOT
 62
     7
 10
-219.9351860239219
 20
110.1336607696076
 30
0.0
 42
0.0984824541470576
  0
VERTEX
  5
438
  8
レイヤー_4
  6
DASHDOT
 62
     7
 10
-220.2932765731264
 20
110.6700629887949
 30
0.0
 42
0.0984686253839576
  0
VERTEX
  5
439
  8
レイヤー_4
  6
DASHDOT
 62
     7
 10
-220.828880462832
 20
111.0283120962309
 30
0.0
 42
0.0986229965830391
  0
VERTEX
  5
43A
  8
レイヤー_4
  6
DASHDOT
 62
     7
 10
-221.4599575731264
 20
111.1540129887949
 30
0.0
 42
0.1989609213254369
  0
VERTEX
  5
43B
  8
レイヤー_4
  6
DASHDOT
 62
     7
 10
-222.6263550163682
 20
110.6707476956824
 30
0.0
 42
0.1988638040900588
  0
VERTEX
  5
43C
  8
レイヤー_4
  6
DASHDOT
 62
     7
 10
-223.1101585731264
 20
109.5024339885299
 30
0.0
  0
SEQEND
  5
43D
  8
レイヤー_4
  6
DASHDOT
 62
     7
  0
POLYLINE
  5
43E
  8
レイヤー_4
  6
DASHDOT
 62
     7
 66
     1
 10
0.0
 20
0.0
 30
0.0
  0
VERTEX
  5
43F
  8
レイヤー_4
  6
DASHDOT
 62
     7
 10
-223.1101585731264
 20
-76.49413701120511
 30
0.0
 42
0.1989608951174734
  0
VERTEX
  5
440
  8
レイヤー_4
  6
DASHDOT
 62
     7
 10
-222.626263206607
 20
-77.66205471351223
 30
0.0
 42
0.4140890998489131
  0
VERTEX
  5
441
  8
レイヤー_4
  6
DASHDOT
 62
     7
 10
-220.2937120204607
 20
-77.66211489107134
 30
0.0
 42
0.1989744926245495
  0
VERTEX
  5
442
  8
レイヤー_4
  6
DASHDOT
 62
     7
 10
-219.8097575731264
 20
-76.49413701120511
 30
0.0
 42
0.098602917663638
  0
VERTEX
  5
443
  8
レイヤー_4
  6
DASHDOT
 62
     7
 10
-219.9353210476178
 20
-75.86361469951547
 30
0.0
 42
0.0984890620647699
  0
VERTEX
  5
444
  8
レイヤー_4
  6
DASHDOT
 62
     7
 10
-220.2932765731264
 20
-75.3284030112051
 30
0.0
 42
0.3031980262605911
  0
VERTEX
  5
445
  8
レイヤー_4
  6
DASHDOT
 62
     7
 10
-222.0922212801277
 20
-74.97087067367724
 30
0.0
 42
0.3033772061129237
  0
VERTEX
  5
446
  8
レイヤー_4
  6
DASHDOT
 62
     7
 10
-223.1101585731264
 20
-76.49413701199762
 30
0.0
  0
SEQEND
  5
447
  8
レイヤー_4
  6
DASHDOT
 62
     7
  0
POLYLINE
  5
448
  8
レイヤー_4
  6
DASHDOT
 62
     7
 66
     1
 10
0.0
 20
0.0
 30
0.0
  0
VERTEX
  5
449
  8
レイヤー_4
  6
DASHDOT
 62
     7
 10
-41.11127757312639
 20
-76.49413701120511
 30
0.0
 42
0.1988504560892833
  0
VERTEX
  5
44A
  8
レイヤー_4
  6
DASHDOT
 62
     7
 10
-40.62773573773067
 20
-77.66190366652373
 30
0.0
 42
0.1989742904540796
  0
VERTEX
  5
44B
  8
レイヤー_4
  6
DASHDOT
 62
     7
 10
-39.46176557312639
 20
-78.14502701120512
 30
0.0
 42
0.1987400081674919
  0
VERTEX
  5
44C
  8
レイヤー_4
  6
DASHDOT
 62
     7
 10
-38.29601624021268
 20
-77.662610663809
 30
0.0
 42
0.1990847340882755
  0
VERTEX
  5
44D
  8
レイヤー_4
  6
DASHDOT
 62
     7
 10
-37.81156457312639
 20
-76.49413701120511
 30
0.0
 42
0.0986029176634773
  0
VERTEX
  5
44E
  8
レイヤー_4
  6
DASHDOT
 62
     7
 10
-37.93712804761738
 20
-75.8636146995164
 30
0.0
 42
0.0984890620649396
  0
VERTEX
  5
44F
  8
レイヤー_4
  6
DASHDOT
 62
     7
 10
-38.29508357312639
 20
-75.3284030112051
 30
0.0
 42
0.0985578535069173
  0
VERTEX
  5
450
  8
レイヤー_4
  6
DASHDOT
 62
     7
 10
-38.83142469144948
 20
-74.97046896993973
 30
0.0
 42
0.0983162199308663
  0
VERTEX
  5
451
  8
レイヤー_4
  6
DASHDOT
 62
     7
 10
-39.46176557312639
 20
-74.8453150112051
 30
0.0
 42
0.0498317899383206
  0
VERTEX
  5
452
  8
レイヤー_4
  6
DASHDOT
 62
     7
 10
-39.79089425398691
 20
-74.87819881107124
 30
0.0
 42
0.0502732426371809
  0
VERTEX
  5
453
  8
レイヤー_4
  6
DASHDOT
 62
     7
 10
-40.10407157312639
 20
-74.9749470112051
 30
0.0
 42
0.1473713993992296
  0
VERTEX
  5
454
  8
レイヤー_4
  6
DASHDOT
 62
     7
 10
-40.8366695645091
 20
-75.58295134260672
 30
0.0
 42
0.1474125241106337
  0
VERTEX
  5
455
  8
レイヤー_4
  6
DASHDOT
 62
     7
 10
-41.11127757312639
 20
-76.49413701111067
 30
0.0
  0
SEQEND
  5
456
  8
レイヤー_4
  6
DASHDOT
 62
     7
  0
POLYLINE
  5
457
  8
レイヤー_4
  6
DASHDOT
 62
     7
 66
     1
 10
0.0
 20
0.0
 30
0.0
  0
VERTEX
  5
458
  8
レイヤー_4
  6
DASHDOT
 62
     7
 10
-41.11127757312639
 20
109.5024339887949
 30
0.0
 42
0.0986198802905515
  0
VERTEX
  5
459
  8
レイヤー_4
  6
DASHDOT
 62
     7
 10
-40.98533952519221
 20
108.8701416501417
 30
0.0
 42
0.0983270633474244
  0
VERTEX
  5
45A
  8
レイヤー_4
  6
DASHDOT
 62
     7
 10
-40.62836057312639
 20
108.3360969887949
 30
0.0
 42
0.0481067447582658
  0
VERTEX
  5
45B
  8
レイヤー_4
  6
DASHDOT
 62
     7
 10
-40.3826953348166
 20
108.1335870167113
 30
0.0
 42
0.0483181504954099
  0
VERTEX
  5
45C
  8
レイヤー_4
  6
DASHDOT
 62
     7
 10
-40.10407157312639
 20
107.9825649887949
 30
0.0
 42
0.050281747158024
  0
VERTEX
  5
45D
  8
レイヤー_4
  6
DASHDOT
 62
     7
 10
-39.79090581354058
 20
107.8858092253389
 30
0.0
 42
0.0498361138026939
  0
VERTEX
  5
45E
  8
レイヤー_4
  6
DASHDOT
 62
     7
 10
-39.46176557312639
 20
107.8529219887949
 30
0.0
 42
0.198960895379619
  0
VERTEX
  5
45F
  8
レイヤー_4
  6
DASHDOT
 62
     7
 10
-38.29433497039527
 20
108.3366152753747
 30
0.0
 42
0.1988638441535036
  0
VERTEX
  5
460
  8
レイヤー_4
  6
DASHDOT
 62
     7
 10
-37.81156457312639
 20
109.5024339887949
 30
0.0
 42
0.0983911057090275
  0
VERTEX
  5
461
  8
レイヤー_4
  6
DASHDOT
 62
     7
 10
-37.93699302392196
 20
110.1336607696076
 30
0.0
 42
0.098482454147053
  0
VERTEX
  5
462
  8
レイヤー_4
  6
DASHDOT
 62
     7
 10
-38.29508357312638
 20
110.6700629887949
 30
0.0
 42
0.0985168351268638
  0
VERTEX
  5
463
  8
レイヤー_4
  6
DASHDOT
 62
     7
 10
-38.83097887610865
 20
111.028432949404
 30
0.0
 42
0.0985750805926868
  0
VERTEX
  5
464
  8
レイヤー_4
  6
DASHDOT
 62
     7
 10
-39.46176557312639
 20
111.1540129887949
 30
0.0
 42
0.0499217406436474
  0
VERTEX
  5
465
  8
レイヤー_4
  6
DASHDOT
 62
     7
 10
-39.79087280079904
 20
111.1210716817945
 30
0.0
 42
0.050347317621235
  0
VERTEX
  5
466
  8
レイヤー_4
  6
DASHDOT
 62
     7
 10
-40.10407157312639
 20
111.0241429887949
 30
0.0
 42
0.147380284893382
  0
VERTEX
  5
467
  8
レイヤー_4
  6
DASHDOT
 62
     7
 10
-40.83644090919319
 20
110.4155054719283
 30
0.0
 42
0.1472381553396963
  0
VERTEX
  5
468
  8
レイヤー_4
  6
DASHDOT
 62
     7
 10
-41.11127757312639
 20
109.5024339887961
 30
0.0
  0
SEQEND
  5
469
  8
レイヤー_4
  6
DASHDOT
 62
     7
  0
LINE
  5
46A
  8
レイヤー_4
  6
DASHDOT
 62
     7
 10
-215.2098661761398
 20
116.0253781772276
 30
0.0
 11
-215.3097739452121
 21
116.0253781772276
 31
0.0
  0
LINE
  5
46B
  8
レイヤー_4
  6
DASHDOT
 62
     7
 10
-215.3097739452121
 20
113.0253890286721
 30
0.0
 11
-215.2098661761398
 21
113.0253890286721
 31
0.0
  0
LINE
  5
46C
  8
レイヤー_4
  6
DASHDOT
 62
     7
 10
-45.71116830184781
 20
113.0253890286721
 30
0.0
 11
-45.61194955187261
 21
113.0253890286721
 31
0.0
  0
LINE
  5
46D
  8
レイヤー_4
  6
DASHDOT
 62
     7
 10
-45.61194955187261
 20
116.0253781772276
 30
0.0
 11
-45.71116830184781
 21
116.0253781772276
 31
0.0
  0
LINE
  5
46E
  8
レイヤー_4
  6
DOT
 62
     7
 10
-171.9608264734104
 20
120.0023964054001
 30
0.0
 11
-171.9608264734104
 21
119.9031776554249
 31
0.0
  0
LINE
  5
46F
  8
レイヤー_4
  6
DOT
 62
     7
 10
-168.9608373248548
 20
119.9031776554249
 30
0.0
 11
-168.9608373248548
 21
120.0023964054001
 31
0.0
  0
LINE
  5
470
  8
レイヤー_4
  6
DOT
 62
     7
 10
-213.709871601862
 20
120.0023964054001
 30
0.0
 11
-213.709871601862
 21
119.9031776554249
 31
0.0
  0
LINE
  5
471
  8
レイヤー_4
  6
DOT
 62
     7
 10
-210.7098824533065
 20
119.9031776554249
 30
0.0
 11
-210.7098824533065
 21
120.0023964054001
 31
0.0
  0
LINE
  5
472
  8
レイヤー_4
  6
DOT
 62
     7
 10
-131.9605118132716
 20
120.0023964054001
 30
0.0
 11
-131.9605118132716
 21
119.9031776554249
 31
0.0
  0
LINE
  5
473
  8
レイヤー_4
  6
DOT
 62
     7
 10
-128.960522664716
 20
119.9031776554249
 30
0.0
 11
-128.960522664716
 21
120.0023964054001
 31
0.0
  0
LINE
  5
474
  8
レイヤー_4
  6
DOT
 62
     7
 10
-91.96157519132687
 20
120.0023964054001
 30
0.0
 11
-91.96157519132687
 21
119.9031776554249
 31
0.0
  0
LINE
  5
475
  8
レイヤー_4
  6
DOT
 62
     7
 10
-88.9615860427713
 20
119.9031776554249
 30
0.0
 11
-88.9615860427713
 21
120.0023964054001
 31
0.0
  0
LINE
  5
476
  8
レイヤー_4
  6
DOT
 62
     7
 10
-50.21115202468115
 20
120.0023964054001
 30
0.0
 11
-50.21115202468115
 21
119.9031776554249
 31
0.0
  0
LINE
  5
477
  8
レイヤー_4
  6
DOT
 62
     7
 10
-47.21116287612558
 20
119.9031776554249
 30
0.0
 11
-47.21116287612558
 21
120.0023964054001
 31
0.0
  0
LINE
  5
478
  8
レイヤー_4
  6
DASHDOT
 62
     7
 10
-130.4605172389938
 20
23.5045828444551
 30
0.0
 11
-130.4605172389938
 21
126.3317258309011
 31
0.0
  0
LINE
  5
479
  8
レイヤー_4
  6
DASHDOT
 62
     7
 10
-130.4605172389938
 20
23.5045828444551
 30
0.0
 11
-130.4605172389938
 21
-114.7767267997941
 31
0.0
  0
LINE
  5
47A
  8
レイヤー_4
  6
DASHDOT
 62
     7
 10
-130.4605172389938
 20
23.5045828444551
 30
0.0
 11
-30.0311607102817
 21
23.5045828444551
 31
0.0
  0
LINE
  5
47B
  8
レイヤー_4
  6
DASHDOT
 62
     7
 10
-130.4605172389938
 20
23.5045828444551
 30
0.0
 11
-229.2396730302712
 21
23.5045828444551
 31
0.0
  0
LINE
  5
47C
  8
レイヤー_4
  6
DASHDOT
 62
     7
 10
31.41625138373141
 20
23.5045828444551
 30
0.0
 11
191.1742862830281
 21
23.5045828444551
 31
0.0
  0
LINE
  5
47D
  8
レイヤー_4
  6
CONTINUOUS
 62
     7
 10
34.8895966519603
 20
119.5042355982329
 30
0.0
 11
34.8895966519603
 21
-86.49593796137813
 31
0.0
  0
POLYLINE
  5
47E
  8
レイヤー_4
  6
CONTINUOUS
 62
     7
 66
     1
 10
0.0
 20
0.0
 30
0.0
  0
VERTEX
  5
47F
  8
レイヤー_4
  6
CONTINUOUS
 62
     7
 10
130.887182348447
 20
-50.09505906422837
 30
0.0
  0
VERTEX
  5
480
  8
レイヤー_4
  6
CONTINUOUS
 62
     7
 10
130.9126760550379
 20
-50.09092494964607
 30
0.0
  0
VERTEX
  5
481
  8
レイヤー_4
  6
CONTINUOUS
 62
     7
 10
131.8883270964607
 20
-49.99446227605907
 30
0.0
  0
SEQEND
  5
482
  8
レイヤー_4
  6
CONTINUOUS
 62
     7
  0
POLYLINE
  5
483
  8
レイヤー_4
  6
CONTINUOUS
 62
     7
 66
     1
 10
0.0
 20
0.0
 30
0.0
  0
VERTEX
  5
484
  8
レイヤー_4
  6
CONTINUOUS
 62
     7
 10
131.8883270964607
 20
97.0036279649692
 30
0.0
  0
VERTEX
  5
485
  8
レイヤー_4
  6
CONTINUOUS
 62
     7
 10
130.9126760550379
 20
97.0994016194591
 30
0.0
  0
VERTEX
  5
486
  8
レイヤー_4
  6
CONTINUOUS
 62
     7
 10
130.887182348447
 20
97.1042247531385
 30
0.0
  0
SEQEND
  5
487
  8
レイヤー_4
  6
CONTINUOUS
 62
     7
  0
POLYLINE
  5
488
  8
レイヤー_4
  6
CONTINUOUS
 62
     7
 66
     1
 10
0.0
 20
0.0
 30
0.0
  0
VERTEX
  5
489
  8
レイヤー_4
  6
CONTINUOUS
 62
     7
 10
186.3876704268736
 20
92.52638098879488
 30
0.0
 42
0.0435577327758182
  0
VERTEX
  5
48A
  8
レイヤー_4
  6
CONTINUOUS
 62
     7
 10
186.3566514669969
 20
92.88177263079469
 30
0.0
 42
0.0374106207914805
  0
VERTEX
  5
48B
  8
レイヤー_4
  6
CONTINUOUS
 62
     7
 10
186.2543774268736
 20
93.2841439887949
 30
0.0
 42
0.0268444741217949
  0
VERTEX
  5
48C
  8
レイヤー_4
  6
CONTINUOUS
 62
     7
 10
186.1261354141419
 20
93.60768829782315
 30
0.0
 42
0.0235052453680765
  0
VERTEX
  5
48D
  8
レイヤー_4
  6
CONTINUOUS
 62
     7
 10
185.9433044268736
 20
93.9605539887949
 30
0.0
 42
0.0177158412121255
  0
VERTEX
  5
48E
  8
レイヤー_4
  6
CONTINUOUS
 62
     7
 10
185.7647087322059
 20
94.24511731690764
 30
0.0
 42
0.0161689884033233
  0
VERTEX
  5
48F
  8
レイヤー_4
  6
CONTINUOUS
 62
     7
 10
185.5483864268736
 20
94.5429089887949
 30
0.0
 42
0.0248184951389882
  0
VERTEX
  5
490
  8
レイヤー_4
  6
CONTINUOUS
 62
     7
 10
185.1394042964092
 20
95.01853508425471
 30
0.0
 42
0.0228421728089748
  0
VERTEX
  5
491
  8
レイヤー_4
  6
CONTINUOUS
 62
     7
 10
184.6479074268736
 20
95.4906529887949
 30
0.0
 42
0.016380718817838
  0
VERTEX
  5
492
  8
レイヤー_4
  6
CONTINUOUS
 62
     7
 10
184.2597484251665
 20
95.80896855891824
 30
0.0
 42
0.0165444702875549
  0
VERTEX
  5
493
  8
レイヤー_4
  6
CONTINUOUS
 62
     7
 10
183.8554304268736
 20
96.09823298879489
 30
0.0
 42
0.0129171652622456
  0
VERTEX
  5
494
  8
レイヤー_4
  6
CONTINUOUS
 62
     7
 10
183.5387601742508
 20
96.29769372516601
 30
0.0
 42
0.0135634865498071
  0
VERTEX
  5
495
  8
レイヤー_4
  6
CONTINUOUS
 62
     7
 10
183.2275544268736
 20
96.4714159887949
 30
0.0
 42
0.0227318161732026
  0
VERTEX
  5
496
  8
レイヤー_4
  6
CONTINUOUS
 62
     7
 10
182.730913990633
 20
96.70313644177604
 30
0.0
 42
0.0260816021804512
  0
VERTEX
  5
497
  8
レイヤー_4
  6
CONTINUOUS
 62
     7
 10
182.2803674268736
 20
96.8619769887949
 30
0.0
 42
0.0152159242254641
  0
VERTEX
  5
498
  8
レイヤー_4
  6
CONTINUOUS
 62
     7
 10
182.0427036850486
 20
96.92427660023004
 30
0.0
 42
0.0166919436371059
  0
VERTEX
  5
499
  8
レイヤー_4
  6
CONTINUOUS
 62
     7
 10
181.8228584268736
 20
96.9671399887949
 30
0.0
 42
0.0188947898752664
  0
VERTEX
  5
49A
  8
レイヤー_4
  6
CONTINUOUS
 62
     7
 10
181.5948806205834
 20
96.99495136210051
 30
0.0
 42
0.0209056048011242
  0
VERTEX
  5
49B
  8
レイヤー_4
  6
CONTINUOUS
 62
     7
 10
181.3874584268736
 20
97.00362698879489
 30
0.0
  0
SEQEND
  5
49C
  8
レイヤー_4
  6
CONTINUOUS
 62
     7
  0
POLYLINE
  5
49D
  8
レイヤー_4
  6
CONTINUOUS
 62
     7
 66
     1
 10
0.0
 20
0.0
 30
0.0
  0
VERTEX
  5
49E
  8
レイヤー_4
  6
CONTINUOUS
 62
     7
 10
181.3874584268736
 20
-49.9944630112051
 30
0.0
 42
0.0498294872256384
  0
VERTEX
  5
49F
  8
レイヤー_4
  6
CONTINUOUS
 62
     7
 10
182.3845826784609
 20
-49.89484327730398
 30
0.0
 42
0.0502657049567119
  0
VERTEX
  5
4A0
  8
レイヤー_4
  6
CONTINUOUS
 62
     7
 10
183.3337864268736
 20
-49.6016360112051
 30
0.0
 42
0.0723049317109879
  0
VERTEX
  5
4A1
  8
レイヤー_4
  6
CONTINUOUS
 62
     7
 10
184.5632285400251
 20
-48.85728989948788
 30
0.0
 42
0.0720777314032523
  0
VERTEX
  5
4A2
  8
レイヤー_4
  6
CONTINUOUS
 62
     7
 10
185.5337254268736
 20
-47.79040901120509
 30
0.0
 42
0.0365331973246914
  0
VERTEX
  5
4A3
  8
レイヤー_4
  6
CONTINUOUS
 62
     7
 10
185.896824302467
 20
-47.15798262701453
 30
0.0
 42
0.0366634397697431
  0
VERTEX
  5
4A4
  8
レイヤー_4
  6
CONTINUOUS
 62
     7
 10
186.1628744268736
 20
-46.4818040112051
 30
0.0
 42
0.0378962786351714
  0
VERTEX
  5
4A5
  8
レイヤー_4
  6
CONTINUOUS
 62
     7
 10
186.3308781873071
 20
-45.75048124592909
 30
0.0
 42
0.0375301956223631
  0
VERTEX
  5
4A6
  8
レイヤー_4
  6
CONTINUOUS
 62
     7
 10
186.3876704268736
 20
-44.99494001102543
 30
0.0
  0
SEQEND
  5
4A7
  8
レイヤー_4
  6
CONTINUOUS
 62
     7
  0
LINE
  5
4A8
  8
レイヤー_4
  6
CONTINUOUS
 62
     7
 10
149.3873451042387
 20
97.0036279649692
 30
0.0
 11
131.8883270964607
 21
97.0036279649692
 31
0.0
  0
LINE
  5
4A9
  8
レイヤー_4
  6
CONTINUOUS
 62
     7
 10
181.3874590285303
 20
97.0036279649692
 30
0.0
 11
166.3888913239466
 21
97.0036279649692
 31
0.0
  0
LINE
  5
4AA
  8
レイヤー_4
  6
CONTINUOUS
 62
     7
 10
131.8883270964607
 20
-49.99446227605907
 30
0.0
 11
181.3874590285303
 21
-49.99446227605907
 31
0.0
  0
LINE
  5
4AB
  8
レイヤー_4
  6
CONTINUOUS
 62
     7
 10
125.3894989730854
 20
26.40328618574431
 30
0.0
 11
124.088630917855
 21
26.40328618574431
 31
0.0
  0
LINE
  5
4AC
  8
レイヤー_4
  6
CONTINUOUS
 62
     7
 10
124.088630917855
 20
20.60381244587468
 30
0.0
 11
125.3894989730854
 21
20.60381244587468
 31
0.0
  0
POLYLINE
  5
4AD
  8
レイヤー_4
  6
CONTINUOUS
 62
     7
 66
     1
 10
0.0
 20
0.0
 30
0.0
  0
VERTEX
  5
4AE
  8
レイヤー_4
  6
CONTINUOUS
 62
     7
 10
123.0874854268736
 20
21.60426798879489
 30
0.0
 42
0.1987400062179847
  0
VERTEX
  5
4AF
  8
レイヤー_4
  6
CONTINUOUS
 62
     7
 10
123.3799004719924
 20
20.89765294716123
 30
0.0
 42
0.1990847315873829
  0
VERTEX
  5
4B0
  8
レイヤー_4
  6
CONTINUOUS
 62
     7
 10
124.0886304268736
 20
20.6038119887949
 30
0.0
  0
SEQEND
  5
4B1
  8
レイヤー_4
  6
CONTINUOUS
 62
     7
  0
POLYLINE
  5
4B2
  8
レイヤー_4
  6
CONTINUOUS
 62
     7
 66
     1
 10
0.0
 20
0.0
 30
0.0
  0
VERTEX
  5
4B3
  8
レイヤー_4
  6
CONTINUOUS
 62
     7
 10
124.0886304268736
 20
26.40328598879491
 30
0.0
 42
0.1986666295011532
  0
VERTEX
  5
4B4
  8
レイヤー_4
  6
CONTINUOUS
 62
     7
 10
123.3803487882366
 20
26.11029837603316
 30
0.0
 42
0.1991581540603939
  0
VERTEX
  5
4B5
  8
レイヤー_4
  6
CONTINUOUS
 62
     7
 10
123.0874854268736
 20
25.4042079888013
 30
0.0
  0
SEQEND
  5
4B6
  8
レイヤー_4
  6
CONTINUOUS
 62
     7
  0
POLYLINE
  5
4B7
  8
レイヤー_4
  6
CONTINUOUS
 62
     7
 66
     1
 10
0.0
 20
0.0
 30
0.0
  0
VERTEX
  5
4B8
  8
レイヤー_4
  6
CONTINUOUS
 62
     7
 10
125.2875234268736
 20
-73.94407801120511
 30
0.0
 42
0.0849573794241522
  0
VERTEX
  5
4B9
  8
レイヤー_4
  6
CONTINUOUS
 62
     7
 10
124.6197913300417
 20
-75.1423605529447
 30
0.0
 42
0.0849226582522404
  0
VERTEX
  5
4BA
  8
レイヤー_4
  6
CONTINUOUS
 62
     7
 10
124.3883534268736
 20
-76.49517101120512
 30
0.0
 42
0.0849945290256705
  0
VERTEX
  5
4BB
  8
レイヤー_4
  6
CONTINUOUS
 62
     7
 10
124.6199809754334
 20
-77.84793016864376
 30
0.0
 42
0.085113545077376
  0
VERTEX
  5
4BC
  8
レイヤー_4
  6
CONTINUOUS
 62
     7
 10
125.2875234268736
 20
-79.04419701120509
 30
0.0
  0
SEQEND
  5
4BD
  8
レイヤー_4
  6
CONTINUOUS
 62
     7
  0
LINE
  5
4BE
  8
レイヤー_4
  6
CONTINUOUS
 62
     7
 10
125.287524146722
 20
-79.04419642678275
 30
0.0
 11
125.3894989730854
 21
-79.04419642678275
 31
0.0
  0
LINE
  5
4BF
  8
レイヤー_4
  6
CONTINUOUS
 62
     7
 10
125.3894989730854
 20
-73.94407707041889
 30
0.0
 11
125.287524146722
 21
-73.94407707041889
 31
0.0
  0
ARC
  5
4C0
  8
レイヤー_4
  6
CONTINUOUS
 62
     7
 10
128.4529662333889
 20
109.5027788950041
 30
0.0
 40
4.064612041167215
 50
141.1490878057501
 51
218.8509121942502
  0
LINE
  5
4C1
  8
レイヤー_4
  6
CONTINUOUS
 62
     7
 10
125.287524146722
 20
106.9530637263707
 30
0.0
 11
125.3894989730854
 21
106.9530637263707
 31
0.0
  0
LINE
  5
4C2
  8
レイヤー_4
  6
CONTINUOUS
 62
     7
 10
125.3894989730854
 20
112.0524940636375
 30
0.0
 11
125.287524146722
 21
112.0524940636375
 31
0.0
  0
ARC
  5
4C3
  8
レイヤー_4
  6
CONTINUOUS
 62
     7
 10
138.5550410343981
 20
60.33836894409218
 30
0.0
 40
61.00453322878374
 50
102.0334291040513
 51
104.0255599796087
  0
LINE
  5
4C4
  8
レイヤー_4
  6
CONTINUOUS
 62
     7
 10
92.23114394665271
 20
119.5242171520474
 30
0.0
 11
92.0251272366348
 21
119.5042355982329
 31
0.0
  0
LINE
  5
4C5
  8
レイヤー_4
  6
CONTINUOUS
 62
     7
 10
59.389048685766
 20
119.5042355982329
 30
0.0
 11
123.7703040950179
 21
119.5242171520474
 31
0.0
  0
LINE
  5
4C6
  8
レイヤー_4
  6
CONTINUOUS
 62
     7
 10
130.887182348447
 20
120.0023964054001
 30
0.0
 11
125.8366723670708
 21
120.0023964054001
 31
0.0
  0
LINE
  5
4C7
  8
レイヤー_4
  6
CONTINUOUS
 62
     7
 10
130.887182348447
 20
119.5042355982329
 30
0.0
 11
130.887182348447
 21
120.0023964054001
 31
0.0
  0
LINE
  5
4C8
  8
レイヤー_4
  6
CONTINUOUS
 62
     7
 10
125.3894989730854
 20
119.5042355982329
 30
0.0
 11
125.3894989730854
 21
-86.49593796137813
 31
0.0
  0
LINE
  5
4C9
  8
レイヤー_4
  6
CONTINUOUS
 62
     7
 10
125.3894989730854
 20
-86.49593796137813
 30
0.0
 11
130.389710560377
 21
-86.49593796137813
 31
0.0
  0
LINE
  5
4CA
  8
レイヤー_4
  6
CONTINUOUS
 62
     7
 10
130.887182348447
 20
119.5042355982329
 30
0.0
 11
130.887182348447
 21
-86.49593796137813
 31
0.0
  0
LINE
  5
4CB
  8
レイヤー_4
  6
CONTINUOUS
 62
     7
 10
59.389048685766
 20
119.5042355982329
 30
0.0
 11
59.389048685766
 21
-86.49593796137813
 31
0.0
  0
LINE
  5
4CC
  8
レイヤー_4
  6
CONTINUOUS
 62
     7
 10
59.389048685766
 20
-86.49593796137813
 30
0.0
 11
125.3894989730854
 21
-86.49593796137813
 31
0.0
  0
LINE
  5
4CD
  8
レイヤー_4
  6
CONTINUOUS
 62
     7
 10
45.25244387159181
 20
-86.49593796137813
 30
0.0
 11
45.25244387159181
 21
119.5042355982329
 31
0.0
  0
LINE
  5
4CE
  8
レイヤー_4
  6
CONTINUOUS
 62
     7
 10
59.389048685766
 20
-86.49593796137813
 30
0.0
 11
45.25244387159181
 21
-86.49593796137813
 31
0.0
  0
LINE
  5
4CF
  8
レイヤー_4
  6
CONTINUOUS
 62
     7
 10
45.25244387159181
 20
119.5042355982329
 30
0.0
 11
59.389048685766
 21
119.5042355982329
 31
0.0
  0
LINE
  5
4D0
  8
レイヤー_4
  6
CONTINUOUS
 62
     7
 10
34.8895966519603
 20
-86.49593796137813
 30
0.0
 11
45.25244387159181
 21
-86.49593796137813
 31
0.0
  0
LINE
  5
4D1
  8
レイヤー_4
  6
CONTINUOUS
 62
     7
 10
34.8895966519603
 20
119.5042355982329
 30
0.0
 11
45.25244387159181
 21
119.5042355982329
 31
0.0
  0
LINE
  5
4D2
  8
レイヤー_4
  6
CONTINUOUS
 62
     7
 10
186.3876706158219
 20
92.52638187233849
 30
0.0
 11
186.3876706158219
 21
-44.9949397078645
 31
0.0
  0
LINE
  5
4D3
  8
レイヤー_4
  6
CONTINUOUS
 62
     7
 10
149.3873451042387
 20
96.97262210560199
 30
0.0
 11
149.3873451042387
 21
97.0036279649692
 31
0.0
  0
ARC
  5
4D4
  8
レイヤー_4
  6
CONTINUOUS
 62
     7
 10
150.0265986772216
 20
101.9171885090929
 30
0.0
 40
4.985717806805927
 50
262.6334307060356
 51
272.8138847391756
  0
LINE
  5
4D5
  8
レイヤー_4
  6
CONTINUOUS
 62
     7
 10
165.2830156731814
 20
96.84170847716238
 30
0.0
 11
150.2713566057538
 21
96.9374821316524
 31
0.0
  0
LINE
  5
4D6
  8
レイヤー_4
  6
CONTINUOUS
 62
     7
 10
166.3888913239466
 20
96.83275122890079
 30
0.0
 11
165.2830156731814
 21
96.84170847716238
 31
0.0
  0
LINE
  5
4D7
  8
レイヤー_4
  6
CONTINUOUS
 62
     7
 10
166.3888913239466
 20
97.0036279649692
 30
0.0
 11
166.3888913239466
 21
96.88236060388839
 31
0.0
  0
LINE
  5
4D8
  8
レイヤー_4
  6
CONTINUOUS
 62
     7
 10
166.3888913239466
 20
96.88236060388839
 30
0.0
 11
166.3888913239466
 21
96.83275122890079
 31
0.0
  0
LINE
  5
4D9
  8
レイヤー_4
  6
CONTINUOUS
 62
     7
 10
130.389710560377
 20
-86.49593796137813
 30
0.0
 11
130.887182348447
 21
-86.49593796137813
 31
0.0
  0
LINE
  5
4DA
  8
レイヤー_4
  6
CONTINUOUS
 62
     7
 10
130.887182348447
 20
-86.49593796137813
 30
0.0
 11
130.887182348447
 21
-88.493404323726
 31
0.0
  0
LINE
  5
4DB
  8
レイヤー_4
  6
CONTINUOUS
 62
     7
 10
130.887182348447
 20
-88.493404323726
 30
0.0
 11
130.389710560377
 21
-88.493404323726
 31
0.0
  0
LINE
  5
4DC
  8
レイヤー_4
  6
CONTINUOUS
 62
     7
 10
116.9758867790082
 20
-103.9501697278479
 30
0.0
 11
117.2260007112374
 21
-104.3828737207953
 31
0.0
  0
LINE
  5
4DD
  8
レイヤー_4
  6
CONTINUOUS
 62
     7
 10
116.9758867790082
 20
-103.9501697278479
 30
0.0
 11
117.0516788796837
 21
-103.9067615247338
 31
0.0
  0
POLYLINE
  5
4DE
  8
レイヤー_4
  6
CONTINUOUS
 62
     7
 66
     1
 10
0.0
 20
0.0
 30
0.0
  0
VERTEX
  5
4DF
  8
レイヤー_4
  6
CONTINUOUS
 62
     7
 10
118.7383974268736
 20
-98.89001401120511
 30
0.0
 42
0.0457188003147331
  0
VERTEX
  5
4E0
  8
レイヤー_4
  6
CONTINUOUS
 62
     7
 10
118.1382946680477
 20
-99.31473372992838
 30
0.0
 42
0.0459877952335939
  0
VERTEX
  5
4E1
  8
レイヤー_4
  6
CONTINUOUS
 62
     7
 10
117.6288714268736
 20
-99.8384060112051
 30
0.0
 42
0.0666505678783765
  0
VERTEX
  5
4E2
  8
レイヤー_4
  6
CONTINUOUS
 62
     7
 10
117.0765309957534
 20
-100.7462273962598
 30
0.0
 42
0.0665053247885901
  0
VERTEX
  5
4E3
  8
レイヤー_4
  6
CONTINUOUS
 62
     7
 10
116.7816974268736
 20
-101.7689560112051
 30
0.0
 42
0.0684704058658326
  0
VERTEX
  5
4E4
  8
レイヤー_4
  6
CONTINUOUS
 62
     7
 10
116.7696124094518
 20
-102.8547910439489
 30
0.0
 42
0.0682912822077436
  0
VERTEX
  5
4E5
  8
レイヤー_4
  6
CONTINUOUS
 62
     7
 10
117.0516784268736
 20
-103.9067620112051
 30
0.0
  0
SEQEND
  5
4E6
  8
レイヤー_4
  6
CONTINUOUS
 62
     7
  0
LINE
  5
4E7
  8
レイヤー_4
  6
CONTINUOUS
 62
     7
 10
126.888115509169
 20
-94.18539108445577
 30
0.0
 11
118.738397629262
 21
-98.89001347911295
 31
0.0
  0
LINE
  5
4E8
  8
レイヤー_4
  6
CONTINUOUS
 62
     7
 10
126.888115509169
 20
-89.49523809083664
 30
0.0
 11
126.888115509169
 21
-94.18539108445577
 31
0.0
  0
POLYLINE
  5
4E9
  8
レイヤー_4
  6
CONTINUOUS
 62
     7
 66
     1
 10
0.0
 20
0.0
 30
0.0
  0
VERTEX
  5
4EA
  8
レイヤー_4
  6
CONTINUOUS
 62
     7
 10
127.8878814268736
 20
-88.49340501120511
 30
0.0
 42
0.1991452160442529
  0
VERTEX
  5
4EB
  8
レイヤー_4
  6
CONTINUOUS
 62
     7
 10
127.1813389246817
 20
-88.78643536696813
 30
0.0
 42
0.1986799569927666
  0
VERTEX
  5
4EC
  8
レイヤー_4
  6
CONTINUOUS
 62
     7
 10
126.8881154268736
 20
-89.49523901115887
 30
0.0
  0
SEQEND
  5
4ED
  8
レイヤー_4
  6
CONTINUOUS
 62
     7
  0
LINE
  5
4EE
  8
レイヤー_4
  6
CONTINUOUS
 62
     7
 10
130.887182348447
 20
-88.493404323726
 30
0.0
 11
130.887182348447
 21
-96.49429407867022
 31
0.0
  0
LINE
  5
4EF
  8
レイヤー_4
  6
CONTINUOUS
 62
     7
 10
130.887182348447
 20
-96.49429407867022
 30
0.0
 11
117.2260007112374
 21
-104.3828737207953
 31
0.0
  0
LINE
  5
4F0
  8
レイヤー_4
  6
CONTINUOUS
 62
     7
 10
127.8878822189885
 20
-88.493404323726
 30
0.0
 11
130.389710560377
 21
-88.493404323726
 31
0.0
  0
LINE
  5
4F1
  8
レイヤー_4
  6
CONTINUOUS
 62
     7
 10
115.5130992359711
 20
-105.370927105965
 30
0.0
 11
115.262985303742
 21
-104.9396011512117
 31
0.0
  0
POLYLINE
  5
4F2
  8
レイヤー_4
  6
CONTINUOUS
 62
     7
 66
     1
 10
0.0
 20
0.0
 30
0.0
  0
VERTEX
  5
4F3
  8
レイヤー_4
  6
CONTINUOUS
 62
     7
 10
115.262985303742
 20
-104.9396011512117
 30
0.0
  0
VERTEX
  5
4F4
  8
レイヤー_4
  6
CONTINUOUS
 62
     7
 10
115.3339542707381
 20
-104.8975709862916
 30
0.0
  0
VERTEX
  5
4F5
  8
レイヤー_4
  6
CONTINUOUS
 62
     7
 10
115.4579777082071
 20
-104.8259130001984
 30
0.0
  0
VERTEX
  5
4F6
  8
レイヤー_4
  6
CONTINUOUS
 62
     7
 10
115.6309215015667
 20
-104.7260052311262
 30
0.0
  0
VERTEX
  5
4F7
  8
レイヤー_4
  6
CONTINUOUS
 62
     7
 10
115.8445174216522
 20
-104.6033598318513
 30
0.0
  0
VERTEX
  5
4F8
  8
レイヤー_4
  6
CONTINUOUS
 62
     7
 10
116.0939423347842
 20
-104.4586658214708
 30
0.0
  0
VERTEX
  5
4F9
  8
レイヤー_4
  6
CONTINUOUS
 62
     7
 10
116.3709280117983
 20
-104.2981243718582
 30
0.0
  0
VERTEX
  5
4FA
  8
レイヤー_4
  6
CONTINUOUS
 62
     7
 10
116.6685842617239
 20
-104.1272476357898
 30
0.0
  0
VERTEX
  5
4FB
  8
レイヤー_4
  6
CONTINUOUS
 62
     7
 10
116.9758867790082
 20
-103.9501697278479
 30
0.0
  0
SEQEND
  5
4FC
  8
レイヤー_4
  6
CONTINUOUS
 62
     7
  0
POLYLINE
  5
4FD
  8
レイヤー_4
  6
CONTINUOUS
 62
     7
 66
     1
 10
0.0
 20
0.0
 30
0.0
  0
VERTEX
  5
4FE
  8
レイヤー_4
  6
CONTINUOUS
 62
     7
 10
117.2260007112374
 20
-104.3828737207953
 30
0.0
  0
VERTEX
  5
4FF
  8
レイヤー_4
  6
CONTINUOUS
 62
     7
 10
116.9193872130501
 20
-104.5592626096401
 30
0.0
  0
VERTEX
  5
500
  8
レイヤー_4
  6
CONTINUOUS
 62
     7
 10
116.6217309631245
 20
-104.7308283648055
 30
0.0
  0
VERTEX
  5
501
  8
レイヤー_4
  6
CONTINUOUS
 62
     7
 10
116.3447452861104
 20
-104.8906807953211
 30
0.0
  0
VERTEX
  5
502
  8
レイヤー_4
  6
CONTINUOUS
 62
     7
 10
116.0939423347842
 20
-105.0367528438957
 30
0.0
  0
VERTEX
  5
503
  8
レイヤー_4
  6
CONTINUOUS
 62
     7
 10
115.8789683765047
 20
-105.1607762813647
 30
0.0
  0
VERTEX
  5
504
  8
レイヤー_4
  6
CONTINUOUS
 62
     7
 10
115.7080916404363
 20
-105.260684050437
 30
0.0
  0
VERTEX
  5
505
  8
レイヤー_4
  6
CONTINUOUS
 62
     7
 10
115.5833791838702
 20
-105.3309639983361
 30
0.0
  0
VERTEX
  5
506
  8
レイヤー_4
  6
CONTINUOUS
 62
     7
 10
115.5130992359711
 20
-105.370927105965
 30
0.0
  0
SEQEND
  5
507
  8
レイヤー_4
  6
CONTINUOUS
 62
     7
  0
LINE
  5
508
  8
レイヤー_4
  6
CONTINUOUS
 62
     7
 10
109.2388913382341
 20
-108.9951675564478
 30
0.0
 11
108.9880883869079
 21
-108.5617745444033
 31
0.0
  0
POLYLINE
  5
509
  8
レイヤー_4
  6
CONTINUOUS
 62
     7
 66
     1
 10
0.0
 20
0.0
 30
0.0
  0
VERTEX
  5
50A
  8
レイヤー_4
  6
CONTINUOUS
 62
     7
 10
115.262985303742
 20
-104.9396011512117
 30
0.0
  0
VERTEX
  5
50B
  8
レイヤー_4
  6
CONTINUOUS
 62
     7
 10
113.9655623439969
 20
-105.688564909705
 30
0.0
  0
VERTEX
  5
50C
  8
レイヤー_4
  6
CONTINUOUS
 62
     7
 10
112.8114553564382
 20
-106.3548463765523
 30
0.0
  0
VERTEX
  5
50D
  8
レイヤー_4
  6
CONTINUOUS
 62
     7
 10
111.8082435511335
 20
-106.9329333989772
 30
0.0
  0
VERTEX
  5
50E
  8
レイヤー_4
  6
CONTINUOUS
 62
     7
 10
110.9497257562092
 20
-107.4290271488532
 30
0.0
  0
VERTEX
  5
50F
  8
レイヤー_4
  6
CONTINUOUS
 62
     7
 10
110.2400360862477
 20
-107.839682530695
 30
0.0
  0
VERTEX
  5
510
  8
レイヤー_4
  6
CONTINUOUS
 62
     7
 10
109.6743514075697
 20
-108.1648995445026
 30
0.0
  0
VERTEX
  5
511
  8
レイヤー_4
  6
CONTINUOUS
 62
     7
 10
109.2561168156604
 20
-108.4067452475671
 30
0.0
  0
VERTEX
  5
512
  8
レイヤー_4
  6
CONTINUOUS
 62
     7
 10
108.9880883869079
 20
-108.5617745444033
 30
0.0
  0
SEQEND
  5
513
  8
レイヤー_4
  6
CONTINUOUS
 62
     7
  0
POLYLINE
  5
514
  8
レイヤー_4
  6
CONTINUOUS
 62
     7
 66
     1
 10
0.0
 20
0.0
 30
0.0
  0
VERTEX
  5
515
  8
レイヤー_4
  6
CONTINUOUS
 62
     7
 10
115.5130992359711
 20
-105.370927105965
 30
0.0
  0
VERTEX
  5
516
  8
レイヤー_4
  6
CONTINUOUS
 62
     7
 10
114.2142982380319
 20
-106.1205798835553
 30
0.0
  0
VERTEX
  5
517
  8
レイヤー_4
  6
CONTINUOUS
 62
     7
 10
113.0622583077644
 20
-106.7854833122085
 30
0.0
  0
VERTEX
  5
518
  8
レイヤー_4
  6
CONTINUOUS
 62
     7
 10
112.0576684642656
 20
-107.3663264110217
 30
0.0
  0
VERTEX
  5
519
  8
レイヤー_4
  6
CONTINUOUS
 62
     7
 10
111.2005287075354
 20
-107.8624201608976
 30
0.0
  0
VERTEX
  5
51A
  8
レイヤー_4
  6
CONTINUOUS
 62
     7
 10
110.4880829611857
 20
-108.2723865236424
 30
0.0
  0
VERTEX
  5
51B
  8
レイヤー_4
  6
CONTINUOUS
 62
     7
 10
109.9244653397988
 20
-108.598981575644
 30
0.0
  0
VERTEX
  5
51C
  8
レイヤー_4
  6
CONTINUOUS
 62
     7
 10
109.5069197669865
 20
-108.8387602214174
 30
0.0
  0
VERTEX
  5
51D
  8
レイヤー_4
  6
CONTINUOUS
 62
     7
 10
109.2388913382341
 20
-108.9951675564478
 30
0.0
  0
SEQEND
  5
51E
  8
レイヤー_4
  6
CONTINUOUS
 62
     7
  0
LINE
  5
51F
  8
レイヤー_4
  6
CONTINUOUS
 62
     7
 10
123.0874861698414
 20
21.60426817479119
 30
0.0
 11
123.0874861698414
 21
25.40420849502179
 31
0.0
  0
LINE
  5
520
  8
レイヤー_4
  6
CONTINUOUS
 62
     7
 10
125.287524146722
 20
-73.94407707041889
 30
0.0
 11
125.287524146722
 21
-79.04419642678275
 31
0.0
  0
LINE
  5
521
  8
レイヤー_4
  6
CONTINUOUS
 62
     7
 10
125.287524146722
 20
112.0524940636375
 30
0.0
 11
125.287524146722
 21
106.9530637263707
 31
0.0
  0
LINE
  5
522
  8
レイヤー_4
  6
CONTINUOUS
 62
     7
 10
181.3874590285303
 20
-49.99446227605907
 30
0.0
 11
181.3874590285303
 21
97.0036279649692
 31
0.0
  0
LINE
  5
523
  8
レイヤー_4
  6
CONTINUOUS
 62
     7
 10
124.088630917855
 20
26.40328618574431
 30
0.0
 11
124.088630917855
 21
20.60381244587468
 31
0.0
  0
LINE
  5
524
  8
レイヤー_4
  6
DOT
 62
     7
 10
181.3874590285303
 20
-44.16673875321044
 30
0.0
 11
181.3874590285303
 21
-49.46253953313649
 31
0.0
  0
LINE
  5
525
  8
レイヤー_4
  6
DOT
 62
     7
 10
181.4157088115093
 20
-43.63481601028786
 30
0.0
 11
181.3874590285303
 21
-44.16673875321044
 31
0.0
  0
LINE
  5
526
  8
レイヤー_4
  6
DASHDOT
 62
     7
 10
123.3872094770581
 20
-58.99442972172574
 30
0.0
 11
123.3872094770581
 21
106.0042844297329
 31
0.0
  0
LINE
  5
527
  8
レイヤー_4
  6
DASHDOT
 62
     7
 10
123.8874373415164
 20
105.5033675461776
 30
0.0
 11
123.8874373415164
 21
-58.49557989546156
 31
0.0
  0
LINE
  5
528
  8
レイヤー_4
  6
DOT
 62
     7
 10
130.389710560377
 20
-88.493404323726
 30
0.0
 11
130.887182348447
 21
-88.493404323726
 31
0.0
  0
LINE
  5
529
  8
レイヤー_4
  6
DOT
 62
     7
 10
115.262985303742
 20
-104.9396011512117
 30
0.0
 11
115.5130992359711
 21
-105.370927105965
 31
0.0
  0
LINE
  5
52A
  8
レイヤー_4
  6
DOT
 62
     7
 10
117.2260007112374
 20
-104.3828737207953
 30
0.0
 11
116.9758867790082
 21
-103.9501697278479
 31
0.0
  0
LINE
  5
52B
  8
レイヤー_4
  6
DOT
 62
     7
 10
124.088630917855
 20
23.1538721240566
 30
0.0
 11
124.088630917855
 21
23.85460454575649
 31
0.0
  0
LINE
  5
52C
  8
レイヤー_4
  6
DOT
 62
     7
 10
124.088630917855
 20
23.85460454575649
 30
0.0
 11
123.0874861698414
 21
23.85460454575649
 31
0.0
  0
LINE
  5
52D
  8
レイヤー_4
  6
DOT
 62
     7
 10
124.088630917855
 20
23.1538721240566
 30
0.0
 11
123.0874861698414
 21
23.1538721240566
 31
0.0
  0
LINE
  5
52E
  8
レイヤー_4
  6
DOT
 62
     7
 10
124.088630917855
 20
23.85460454575649
 30
0.0
 11
124.088630917855
 21
25.2540023318649
 31
0.0
  0
LINE
  5
52F
  8
レイヤー_4
  6
DOT
 62
     7
 10
124.088630917855
 20
21.75378531885109
 30
0.0
 11
123.0874861698414
 21
21.75378531885109
 31
0.0
  0
LINE
  5
530
  8
レイヤー_4
  6
DOT
 62
     7
 10
124.088630917855
 20
21.75378531885109
 30
0.0
 11
124.088630917855
 21
23.1538721240566
 31
0.0
  0
LINE
  5
531
  8
レイヤー_4
  6
DOT
 62
     7
 10
124.088630917855
 20
25.2540023318649
 30
0.0
 11
123.0874861698414
 21
25.2540023318649
 31
0.0
  0
LINE
  5
532
  8
レイヤー_4
  6
DASHDOT
 62
     7
 10
125.3894989730854
 20
106.0042844297329
 30
0.0
 11
123.3872094770581
 21
106.0042844297329
 31
0.0
  0
LINE
  5
533
  8
レイヤー_4
  6
DASHDOT
 62
     7
 10
123.3872094770581
 20
-58.99442972172574
 30
0.0
 11
125.3894989730854
 21
-58.99442972172574
 31
0.0
  0
LINE
  5
534
  8
レイヤー_4
  6
DASHDOT
 62
     7
 10
125.3894989730854
 20
105.5033675461776
 30
0.0
 11
123.8874373415164
 21
105.5033675461776
 31
0.0
  0
LINE
  5
535
  8
レイヤー_4
  6
DASHDOT
 62
     7
 10
123.8874373415164
 20
-58.49557989546156
 30
0.0
 11
125.3894989730854
 21
-58.49557989546156
 31
0.0
  0
LINE
  5
536
  8
レイヤー_4
  6
DOT
 62
     7
 10
123.3872094770581
 20
-53.49536830816994
 30
0.0
 11
123.8874373415164
 21
-53.49536830816994
 31
0.0
  0
LINE
  5
537
  8
レイヤー_4
  6
DOT
 62
     7
 10
124.088630917855
 20
25.2540023318649
 30
0.0
 11
124.088630917855
 21
26.40328618574431
 31
0.0
  0
LINE
  5
538
  8
レイヤー_4
  6
DOT
 62
     7
 10
124.088630917855
 20
20.60381244587468
 30
0.0
 11
124.088630917855
 21
21.75378531885109
 31
0.0
  0
LINE
  5
539
  8
レイヤー_4
  6
DASHDOT
 62
     7
 10
-215.79139829405
 20
119.2052013101133
 30
0.0
 11
-215.79139829405
 21
118.7029063883638
 31
0.0
  0
LINE
  5
53A
  8
レイヤー_4
  6
DASHDOT
 62
     7
 10
-45.42935949115437
 20
119.2052013101133
 30
0.0
 11
-45.42935949115437
 21
118.7029063883638
 31
0.0
  0
LINE
  5
53B
  8
レイヤー_4
  6
DASHDOT
 62
     7
 10
-66.27907736788639
 20
85.2916813533139
 30
0.0
 11
-66.27907736788639
 21
85.8745915094181
 31
0.0
  0
POLYLINE
  5
53C
  8
レイヤー_4
  6
DASHDOT
 62
     7
 66
     1
 10
0.0
 20
0.0
 30
0.0
  0
VERTEX
  5
53D
  8
レイヤー_4
  6
DASHDOT
 62
     7
 10
-194.9409913982209
 20
85.2916813533139
 30
0.0
  0
VERTEX
  5
53E
  8
レイヤー_4
  6
DASHDOT
 62
     7
 10
-185.6978002112956
 20
89.3679183314615
 30
0.0
  0
VERTEX
  5
53F
  8
レイヤー_4
  6
DASHDOT
 62
     7
 10
-176.1438614116008
 20
92.87915965002809
 30
0.0
  0
VERTEX
  5
540
  8
レイヤー_4
  6
DASHDOT
 62
     7
 10
-166.3370526032886
 20
95.76477162847338
 30
0.0
  0
VERTEX
  5
541
  8
レイヤー_4
  6
DASHDOT
 62
     7
 10
-157.4245905829472
 20
97.7553477998507
 30
0.0
  0
VERTEX
  5
542
  8
レイヤー_4
  6
DASHDOT
 62
     7
 10
-148.3350506546641
 20
99.18850752171458
 30
0.0
  0
VERTEX
  5
543
  8
レイヤー_4
  6
DASHDOT
 62
     7
 10
-139.1400908045322
 20
100.048403354833
 30
0.0
  0
VERTEX
  5
544
  8
レイヤー_4
  6
DASHDOT
 62
     7
 10
-129.912058037742
 20
100.3184988408766
 30
0.0
  0
VERTEX
  5
545
  8
レイヤー_4
  6
DASHDOT
 62
     7
 10
-120.7239883785807
 20
99.9829465406133
 30
0.0
  0
VERTEX
  5
546
  8
レイヤー_4
  6
DASHDOT
 62
     7
 10
-110.2364287023832
 20
98.8439979731897
 30
0.0
  0
VERTEX
  5
547
  8
レイヤー_4
  6
DASHDOT
 62
     7
 10
-99.8591120817136
 20
96.9388601698465
 30
0.0
  0
VERTEX
  5
548
  8
レイヤー_4
  6
DASHDOT
 62
     7
 10
-89.68436707557673
 20
94.3171425055714
 30
0.0
  0
VERTEX
  5
549
  8
レイヤー_4
  6
DASHDOT
 62
     7
 10
-79.79969910929789
 20
91.02983239354599
 30
0.0
  0
VERTEX
  5
54A
  8
レイヤー_4
  6
DASHDOT
 62
     7
 10
-72.95842849468877
 20
88.30751794110161
 30
0.0
  0
VERTEX
  5
54B
  8
レイヤー_4
  6
DASHDOT
 62
     7
 10
-66.27907736788639
 20
85.2916813533139
 30
0.0
  0
SEQEND
  5
54C
  8
レイヤー_4
  6
DASHDOT
 62
     7
  0
LINE
  5
54D
  8
レイヤー_4
  6
DASHDOT
 62
     7
 10
-194.9409913982209
 20
85.8745915094181
 30
0.0
 11
-194.9409913982209
 21
85.2916813533139
 31
0.0
  0
POLYLINE
  5
54E
  8
レイヤー_4
  6
DASHDOT
 62
     7
 66
     1
 10
0.0
 20
0.0
 30
0.0
  0
VERTEX
  5
54F
  8
レイヤー_4
  6
DASHDOT
 62
     7
 10
-194.9409913982209
 20
85.8745915094181
 30
0.0
  0
VERTEX
  5
550
  8
レイヤー_4
  6
DASHDOT
 62
     7
 10
-185.6785076765782
 20
89.95082848756569
 30
0.0
  0
VERTEX
  5
551
  8
レイヤー_4
  6
DASHDOT
 62
     7
 10
-176.1045873230689
 20
93.4600027488412
 30
0.0
  0
VERTEX
  5
552
  8
レイヤー_4
  6
DASHDOT
 62
     7
 10
-166.2771079418452
 20
96.34216963180118
 30
0.0
  0
VERTEX
  5
553
  8
レイヤー_4
  6
DASHDOT
 62
     7
 10
-157.3536216159511
 20
98.3279226694993
 30
0.0
  0
VERTEX
  5
554
  8
レイヤー_4
  6
DASHDOT
 62
     7
 10
-148.2530573821151
 20
99.7555702385868
 30
0.0
  0
VERTEX
  5
555
  8
レイヤー_4
  6
DASHDOT
 62
     7
 10
-139.0477622455276
 20
100.6092648998317
 30
0.0
  0
VERTEX
  5
556
  8
レイヤー_4
  6
DASHDOT
 62
     7
 10
-129.8100832113786
 20
100.8724701949048
 30
0.0
  0
VERTEX
  5
557
  8
レイヤー_4
  6
DASHDOT
 62
     7
 10
-120.6130563039557
 20
100.530716722768
 30
0.0
  0
VERTEX
  5
558
  8
レイヤー_4
  6
DASHDOT
 62
     7
 10
-110.1137833031082
 20
99.3834999261798
 30
0.0
  0
VERTEX
  5
559
  8
レイヤー_4
  6
DASHDOT
 62
     7
 10
-99.72682041508001
 20
97.470093893672
 30
0.0
  0
VERTEX
  5
55A
  8
レイヤー_4
  6
DASHDOT
 62
     7
 10
-89.54105110339034
 20
94.84079701932929
 30
0.0
  0
VERTEX
  5
55B
  8
レイヤー_4
  6
DASHDOT
 62
     7
 10
-79.64880392704396
 20
91.54452965904228
 30
0.0
  0
VERTEX
  5
55C
  8
レイヤー_4
  6
DASHDOT
 62
     7
 10
-72.88539247040147
 20
88.85253204686809
 30
0.0
  0
VERTEX
  5
55D
  8
レイヤー_4
  6
DASHDOT
 62
     7
 10
-66.27907736788639
 20
85.8745915094181
 30
0.0
  0
SEQEND
  5
55E
  8
レイヤー_4
  6
DASHDOT
 62
     7
  0
ARC
  5
55F
  8
レイヤー_4
  6
DASHDOT
 62
     7
 10
-288.9359273015341
 20
-191.2879377931717
 30
0.0
 40
355.0666959172461
 50
48.53446275990458
 51
51.16464581488081
  0
LINE
  5
560
  8
レイヤー_4
  6
DASHDOT
 62
     7
 10
-53.82161209322297
 20
74.65598257125059
 30
0.0
 11
-53.82161209322297
 21
74.7827620851077
 31
0.0
  0
POLYLINE
  5
561
  8
レイヤー_4
  6
DASHDOT
 62
     7
 66
     1
 10
0.0
 20
0.0
 30
0.0
  0
VERTEX
  5
562
  8
レイヤー_4
  6
DASHDOT
 62
     7
 10
-207.3991456919814
 20
74.65598257125059
 30
0.0
  0
VERTEX
  5
563
  8
レイヤー_4
  6
DASHDOT
 62
     7
 10
-199.0055150517187
 20
77.49267419380529
 30
0.0
  0
VERTEX
  5
564
  8
レイヤー_4
  6
DASHDOT
 62
     7
 10
-190.488549993084
 20
79.9552284466619
 30
0.0
  0
VERTEX
  5
565
  8
レイヤー_4
  6
DASHDOT
 62
     7
 10
-178.8620417494629
 20
82.69545739562959
 30
0.0
  0
VERTEX
  5
566
  8
レイヤー_4
  6
DASHDOT
 62
     7
 10
-167.0488093305412
 20
84.8100570044759
 30
0.0
  0
VERTEX
  5
567
  8
レイヤー_4
  6
DASHDOT
 62
     7
 10
-155.1067303404711
 20
86.31074059785068
 30
0.0
  0
VERTEX
  5
568
  8
レイヤー_4
  6
DASHDOT
 62
     7
 10
-143.0936823834049
 20
87.20991051950101
 30
0.0
  0
VERTEX
  5
569
  8
レイヤー_4
  6
DASHDOT
 62
     7
 10
-131.0689211016889
 20
87.5220361704646
 30
0.0
  0
VERTEX
  5
56A
  8
レイヤー_4
  6
DASHDOT
 62
     7
 10
-120.5531116425123
 20
87.3187755368349
 30
0.0
  0
VERTEX
  5
56B
  8
レイヤー_4
  6
DASHDOT
 62
     7
 10
-109.1904977130613
 20
86.5959945040294
 30
0.0
  0
VERTEX
  5
56C
  8
レイヤー_4
  6
DASHDOT
 62
     7
 10
-97.85820062388049
 20
85.33922367101029
 30
0.0
  0
VERTEX
  5
56D
  8
レイヤー_4
  6
DASHDOT
 62
     7
 10
-86.60651876905452
 20
83.53192657944818
 30
0.0
  0
VERTEX
  5
56E
  8
レイヤー_4
  6
DASHDOT
 62
     7
 10
-75.48299446627985
 20
81.15825579011108
 30
0.0
  0
VERTEX
  5
56F
  8
レイヤー_4
  6
DASHDOT
 62
     7
 10
-64.53792610964112
 20
78.20511994015489
 30
0.0
  0
VERTEX
  5
570
  8
レイヤー_4
  6
DASHDOT
 62
     7
 10
-53.82161209322297
 20
74.65598257125059
 30
0.0
  0
SEQEND
  5
571
  8
レイヤー_4
  6
DASHDOT
 62
     7
  0
LINE
  5
572
  8
レイヤー_4
  6
DASHDOT
 62
     7
 10
-207.3991456919814
 20
74.65598257125059
 30
0.0
 11
-207.3991456919814
 21
74.7827620851077
 31
0.0
  0
ARC
  5
573
  8
レイヤー_4
  6
DASHDOT
 62
     7
 10
28.54150019469839
 20
-192.2821379965294
 30
0.0
 40
356.358877028535
 50
128.8385194704258
 51
131.459248338969
  0
LINE
  5
574
  8
レイヤー_4
  6
DASHDOT
 62
     7
 10
-53.82161209322297
 20
75.378763604056
 30
0.0
 11
-53.82161209322297
 21
74.7827620851077
 31
0.0
  0
ARC
  5
575
  8
レイヤー_4
  6
DASHDOT
 62
     7
 10
-290.4028382506358
 20
-192.7779756857333
 30
0.0
 40
357.6013330465597
 50
48.57965764652386
 51
51.18984268685286
  0
LINE
  5
576
  8
レイヤー_4
  6
DASHDOT
 62
     7
 10
-207.3991456919814
 20
74.7827620851077
 30
0.0
 11
-207.3991456919814
 21
75.378763604056
 31
0.0
  0
ARC
  5
577
  8
レイヤー_4
  6
DASHDOT
 62
     7
 10
29.6041481148379
 20
-193.2936671835511
 30
0.0
 40
358.2672694241035
 50
128.8109799737191
 51
131.4163967354484
  0
POLYLINE
  5
578
  8
レイヤー_4
  6
DASHDOT
 62
     7
 66
     1
 10
0.0
 20
0.0
 30
0.0
  0
VERTEX
  5
579
  8
レイヤー_4
  6
DASHDOT
 62
     7
 10
-53.82161209322297
 20
76.43916399441589
 30
0.0
  0
VERTEX
  5
57A
  8
レイヤー_4
  6
DASHDOT
 62
     7
 10
-64.44559755063642
 20
79.75885800400259
 30
0.0
  0
VERTEX
  5
57B
  8
レイヤー_4
  6
DASHDOT
 62
     7
 10
-75.24872797328287
 20
82.51975752588179
 30
0.0
  0
VERTEX
  5
57C
  8
レイヤー_4
  6
DASHDOT
 62
     7
 10
-86.18759515804815
 20
84.74115509477089
 30
0.0
  0
VERTEX
  5
57D
  8
レイヤー_4
  6
DASHDOT
 62
     7
 10
-97.51300205625846
 20
86.4823063530162
 30
0.0
  0
VERTEX
  5
57E
  8
レイヤー_4
  6
DASHDOT
 62
     7
 10
-108.9355606471528
 20
87.6970470211153
 30
0.0
  0
VERTEX
  5
57F
  8
レイヤー_4
  6
DASHDOT
 62
     7
 10
-120.4091066512289
 20
88.3977794428151
 30
0.0
  0
VERTEX
  5
580
  8
レイヤー_4
  6
DASHDOT
 62
     7
 10
-131.0751222735624
 20
88.59552792366848
 30
0.0
  0
VERTEX
  5
581
  8
レイヤー_4
  6
DASHDOT
 62
     7
 10
-141.1492704915299
 20
88.38468807997118
 30
0.0
  0
VERTEX
  5
582
  8
レイヤー_4
  6
DASHDOT
 62
     7
 10
-151.2068822511683
 20
87.78524146553768
 30
0.0
  0
VERTEX
  5
583
  8
レイヤー_4
  6
DASHDOT
 62
     7
 10
-161.2155736549162
 20
86.79236494668869
 30
0.0
  0
VERTEX
  5
584
  8
レイヤー_4
  6
DASHDOT
 62
     7
 10
-171.3531116298123
 20
85.3674734539894
 30
0.0
  0
VERTEX
  5
585
  8
レイヤー_4
  6
DASHDOT
 62
     7
 10
-181.4079673130625
 20
83.5140120829249
 30
0.0
  0
VERTEX
  5
586
  8
レイヤー_4
  6
DASHDOT
 62
     7
 10
-191.3477568071053
 20
81.21888947065149
 30
0.0
  0
VERTEX
  5
587
  8
レイヤー_4
  6
DASHDOT
 62
     7
 10
-199.4175484717546
 20
78.991290729889
 30
0.0
  0
VERTEX
  5
588
  8
レイヤー_4
  6
DASHDOT
 62
     7
 10
-207.3991456919814
 20
76.43916399441589
 30
0.0
  0
SEQEND
  5
589
  8
レイヤー_4
  6
DASHDOT
 62
     7
  0
LINE
  5
58A
  8
レイヤー_4
  6
DASHDOT
 62
     7
 10
-207.3991456919814
 20
74.43618547929158
 30
0.0
 11
-207.3991456919814
 21
74.65598257125059
 31
0.0
  0
LINE
  5
58B
  8
レイヤー_4
  6
DASHDOT
 62
     7
 10
-53.82161209322297
 20
74.65598257125059
 30
0.0
 11
-53.82161209322297
 21
74.40449060082729
 31
0.0
  0
LINE
  5
58C
  8
レイヤー_4
  6
DASHDOT
 62
     7
 10
-207.3991456919814
 20
75.4958968505545
 30
0.0
 11
-207.3991456919814
 21
76.63208934158989
 31
0.0
  0
POLYLINE
  5
58D
  8
レイヤー_4
  6
DASHDOT
 62
     7
 66
     1
 10
0.0
 20
0.0
 30
0.0
  0
VERTEX
  5
58E
  8
レイヤー_4
  6
DASHDOT
 62
     7
 10
-207.3991456919814
 20
76.63208934158989
 30
0.0
  0
VERTEX
  5
58F
  8
レイヤー_4
  6
DASHDOT
 62
     7
 10
-199.5718887494937
 20
79.1552772749868
 30
0.0
  0
VERTEX
  5
590
  8
レイヤー_4
  6
DASHDOT
 62
     7
 10
-191.6336997323811
 20
81.3718517101966
 30
0.0
  0
VERTEX
  5
591
  8
レイヤー_4
  6
DASHDOT
 62
     7
 10
-181.9068171393267
 20
83.6511268832379
 30
0.0
  0
VERTEX
  5
592
  8
レイヤー_4
  6
DASHDOT
 62
     7
 10
-172.0676244334531
 20
85.5045882543023
 30
0.0
  0
VERTEX
  5
593
  8
レイヤー_4
  6
DASHDOT
 62
     7
 10
-162.1464384550306
 20
86.94257110984559
 30
0.0
  0
VERTEX
  5
594
  8
レイヤー_4
  6
DASHDOT
 62
     7
 10
-151.9641142388263
 20
87.9947032710409
 30
0.0
  0
VERTEX
  5
595
  8
レイヤー_4
  6
DASHDOT
 62
     7
 10
-141.728735552149
 20
88.6354910312974
 30
0.0
  0
VERTEX
  5
596
  8
レイヤー_4
  6
DASHDOT
 62
     7
 10
-131.4747533498514
 20
88.87113556248839
 30
0.0
  0
VERTEX
  5
597
  8
レイヤー_4
  6
DASHDOT
 62
     7
 10
-120.7742867726654
 20
88.6871674635761
 30
0.0
  0
VERTEX
  5
598
  8
レイヤー_4
  6
DASHDOT
 62
     7
 10
-109.5115806122866
 20
88.01537384395239
 30
0.0
  0
VERTEX
  5
599
  8
レイヤー_4
  6
DASHDOT
 62
     7
 10
-98.29848382689542
 20
86.8454194171615
 30
0.0
  0
VERTEX
  5
59A
  8
レイヤー_4
  6
DASHDOT
 62
     7
 10
-87.17771560050895
 20
85.16765791584488
 30
0.0
  0
VERTEX
  5
59B
  8
レイヤー_4
  6
DASHDOT
 62
     7
 10
-75.89916200089803
 20
82.90354116293871
 30
0.0
  0
VERTEX
  5
59C
  8
レイヤー_4
  6
DASHDOT
 62
     7
 10
-64.76461339257057
 20
80.06547150218991
 30
0.0
  0
VERTEX
  5
59D
  8
レイヤー_4
  6
DASHDOT
 62
     7
 10
-53.82161209322297
 20
76.63208934158989
 30
0.0
  0
SEQEND
  5
59E
  8
レイヤー_4
  6
DASHDOT
 62
     7
  0
LINE
  5
59F
  8
レイヤー_4
  6
DASHDOT
 62
     7
 10
-53.82161209322297
 20
76.63208934158989
 30
0.0
 11
-53.82161209322297
 21
75.4958968505545
 31
0.0
  0
LINE
  5
5A0
  8
レイヤー_4
  6
DASHDOT
 62
     7
 10
-53.82161209322297
 20
75.02874190275459
 30
0.0
 11
-53.82161209322297
 21
74.9460596111086
 31
0.0
  0
POLYLINE
  5
5A1
  8
レイヤー_4
  6
DASHDOT
 62
     7
 66
     1
 10
0.0
 20
0.0
 30
0.0
  0
VERTEX
  5
5A2
  8
レイヤー_4
  6
DASHDOT
 62
     7
 10
-53.82161209322297
 20
75.14656416835008
 30
0.0
  0
VERTEX
  5
5A3
  8
レイヤー_4
  6
DASHDOT
 62
     7
 10
-64.5930476374051
 20
78.70121369003088
 30
0.0
  0
VERTEX
  5
5A4
  8
レイヤー_4
  6
DASHDOT
 62
     7
 10
-75.59392654090489
 20
81.65641659727818
 30
0.0
  0
VERTEX
  5
5A5
  8
レイヤー_4
  6
DASHDOT
 62
     7
 10
-86.77395040963766
 20
84.0280203293242
 30
0.0
  0
VERTEX
  5
5A6
  8
レイヤー_4
  6
DASHDOT
 62
     7
 10
-98.08282084951878
 20
85.8298052681099
 30
0.0
  0
VERTEX
  5
5A7
  8
レイヤー_4
  6
DASHDOT
 62
     7
 10
-109.4716175046577
 20
87.07830787196438
 30
0.0
  0
VERTEX
  5
5A8
  8
レイヤー_4
  6
DASHDOT
 62
     7
 10
-120.8900419809698
 20
87.78799754192589
 30
0.0
  0
VERTEX
  5
5A9
  8
レイヤー_4
  6
DASHDOT
 62
     7
 10
-131.4644180633956
 20
87.97609975542049
 30
0.0
  0
VERTEX
  5
5AA
  8
レイヤー_4
  6
DASHDOT
 62
     7
 10
-143.4974475742762
 20
87.64537058883649
 30
0.0
  0
VERTEX
  5
5AB
  8
レイヤー_4
  6
DASHDOT
 62
     7
 10
-155.51807474141
 20
86.727597151566
 30
0.0
  0
VERTEX
  5
5AC
  8
レイヤー_4
  6
DASHDOT
 62
     7
 10
-167.4656658842564
 20
85.2083100425708
 30
0.0
  0
VERTEX
  5
5AD
  8
レイヤー_4
  6
DASHDOT
 62
     7
 10
-179.2837214368575
 20
83.07579593720119
 30
0.0
  0
VERTEX
  5
5AE
  8
レイヤー_4
  6
DASHDOT
 62
     7
 10
-190.9143637950609
 20
80.31627445351599
 30
0.0
  0
VERTEX
  5
5AF
  8
レイヤー_4
  6
DASHDOT
 62
     7
 10
-199.2156658763189
 20
77.90953074752049
 30
0.0
  0
VERTEX
  5
5B0
  8
レイヤー_4
  6
DASHDOT
 62
     7
 10
-207.3991456919814
 20
75.14656416835008
 30
0.0
  0
SEQEND
  5
5B1
  8
レイヤー_4
  6
DASHDOT
 62
     7
  0
ARC
  5
5B2
  8
レイヤー_4
  6
DASHDOT
 62
     7
 10
-304.7962818593866
 20
60.93151403893579
 30
0.0
 40
99.03830472533606
 50
10.44513799417009
 51
26.01339851331725
  0
LINE
  5
5B3
  8
レイヤー_4
  6
DASHDOT
 62
     7
 10
-215.79139829405
 20
104.3802664179861
 30
0.0
 11
-215.79139829405
 21
104.3678640742393
 31
0.0
  0
LINE
  5
5B4
  8
レイヤー_4
  6
DASHDOT
 62
     7
 10
-216.2936932157994
 20
104.3802664179861
 30
0.0
 11
-215.79139829405
 21
104.3802664179861
 31
0.0
  0
LINE
  5
5B5
  8
レイヤー_4
  6
DASHDOT
 62
     7
 10
-44.92637555030789
 20
104.3802664179861
 30
0.0
 11
-45.42935949115437
 21
104.3802664179861
 31
0.0
  0
LINE
  5
5B6
  8
レイヤー_4
  6
DASHDOT
 62
     7
 10
-45.42935949115437
 20
104.3802664179861
 30
0.0
 11
-45.42935949115437
 21
104.3678640742393
 31
0.0
  0
ARC
  5
5B7
  8
レイヤー_4
  6
DASHDOT
 62
     7
 10
43.65147475514716
 20
60.90649972672644
 30
0.0
 40
99.11753235913564
 50
153.9928620964386
 51
169.5486013960748
  0
LINE
  5
5B8
  8
レイヤー_4
  6
DASHDOT
 62
     7
 10
-53.82161209322297
 20
78.88655982713739
 30
0.0
 11
-53.82161209322297
 21
76.63208934158989
 31
0.0
  0
LINE
  5
5B9
  8
レイヤー_4
  6
DASHDOT
 62
     7
 10
-207.3991456919814
 20
78.88655982713739
 30
0.0
 11
-207.3991456919814
 21
76.63208934158989
 31
0.0
  0
POLYLINE
  5
5BA
  8
レイヤー_4
  6
DASHDOT
 62
     7
 66
     1
 10
0.0
 20
0.0
 30
0.0
  0
VERTEX
  5
5BB
  8
レイヤー_4
  6
DASHDOT
 62
     7
 10
-131.6153125731264
 20
95.32310998879488
 30
0.0
 42
0.19895090932224
  0
VERTEX
  5
5BC
  8
レイヤー_4
  6
DASHDOT
 62
     7
 10
-131.2755138094133
 20
94.72518712710261
 30
0.0
 42
0.1988737186918361
  0
VERTEX
  5
5BD
  8
レイヤー_4
  6
DASHDOT
 62
     7
 10
-130.6141684976359
 20
94.54314076940379
 30
0.0
  0
VERTEX
  5
5BE
  8
レイヤー_4
  6
DASHDOT
 62
     7
 10
-130.6100343830537
 20
94.54382978850079
 30
0.0
  0
SEQEND
  5
5BF
  8
レイヤー_4
  6
DASHDOT
 62
     7
  0
ARC
  5
5C0
  8
レイヤー_4
  6
DASHDOT
 62
     7
 10
-130.5263006954279
 20
95.47304770004204
 30
0.0
 40
0.9329829888976912
 50
264.850869745016
 51
350.7520387428256
  0
POLYLINE
  5
5C1
  8
レイヤー_4
  6
DASHDOT
 62
     7
 66
     1
 10
0.0
 20
0.0
 30
0.0
  0
VERTEX
  5
5C2
  8
レイヤー_4
  6
DASHDOT
 62
     7
 10
-130.6100343830537
 20
115.7421913283401
 30
0.0
  0
VERTEX
  5
5C3
  8
レイヤー_4
  6
DASHDOT
 62
     7
 10
-130.2772381591785
 20
115.7194536981375
 30
0.0
  0
VERTEX
  5
5C4
  8
レイヤー_4
  6
DASHDOT
 62
     7
 10
-129.9823379856411
 20
115.6526188457236
 30
0.0
  0
VERTEX
  5
5C5
  8
レイヤー_4
  6
DASHDOT
 62
     7
 10
-129.7577177600028
 20
115.5499550002632
 30
0.0
  0
VERTEX
  5
5C6
  8
レイヤー_4
  6
DASHDOT
 62
     7
 10
-129.6295602079516
 20
115.4217974482119
 30
0.0
  0
VERTEX
  5
5C7
  8
レイヤー_4
  6
DASHDOT
 62
     7
 10
-129.6054445395548
 20
115.3301579083042
 30
0.0
  0
SEQEND
  5
5C8
  8
レイヤー_4
  6
DASHDOT
 62
     7
  0
POLYLINE
  5
5C9
  8
レイヤー_4
  6
DASHDOT
 62
     7
 66
     1
 10
0.0
 20
0.0
 30
0.0
  0
VERTEX
  5
5CA
  8
レイヤー_4
  6
DASHDOT
 62
     7
 10
-131.6153132456496
 20
115.3301579083042
 30
0.0
  0
VERTEX
  5
5CB
  8
レイヤー_4
  6
DASHDOT
 62
     7
 10
-131.5581246605944
 20
115.4672727086172
 30
0.0
  0
VERTEX
  5
5CC
  8
レイヤー_4
  6
DASHDOT
 62
     7
 10
-131.3948271345936
 20
115.588540069698
 30
0.0
  0
VERTEX
  5
5CD
  8
レイヤー_4
  6
DASHDOT
 62
     7
 10
-131.1426461450733
 20
115.6801796096056
 30
0.0
  0
VERTEX
  5
5CE
  8
レイヤー_4
  6
DASHDOT
 62
     7
 10
-130.8305204941096
 20
115.7325450609814
 30
0.0
  0
VERTEX
  5
5CF
  8
レイヤー_4
  6
DASHDOT
 62
     7
 10
-130.6100343830537
 20
115.7421913283401
 30
0.0
  0
SEQEND
  5
5D0
  8
レイヤー_4
  6
DASHDOT
 62
     7
  0
POLYLINE
  5
5D1
  8
レイヤー_4
  6
DASHDOT
 62
     7
 66
     1
 10
0.0
 20
0.0
 30
0.0
  0
VERTEX
  5
5D2
  8
レイヤー_4
  6
DASHDOT
 62
     7
 10
-71.05880357312638
 20
90.19542998879488
 30
0.0
 42
0.1990722106706826
  0
VERTEX
  5
5D3
  8
レイヤー_4
  6
DASHDOT
 62
     7
 10
-70.73233567557673
 20
89.57261572606468
 30
0.0
 42
0.1991043824622279
  0
VERTEX
  5
5D4
  8
レイヤー_4
  6
DASHDOT
 62
     7
 10
-70.06179221069071
 20
89.36378421687918
 30
0.0
  0
VERTEX
  5
5D5
  8
レイヤー_4
  6
DASHDOT
 62
     7
 10
-70.05283496242906
 20
89.3644732359762
 30
0.0
  0
SEQEND
  5
5D6
  8
レイヤー_4
  6
DASHDOT
 62
     7
  0
POLYLINE
  5
5D7
  8
レイヤー_4
  6
DASHDOT
 62
     7
 66
     1
 10
0.0
 20
0.0
 30
0.0
  0
VERTEX
  5
5D8
  8
レイヤー_4
  6
DASHDOT
 62
     7
 10
-70.05283557312639
 20
89.3644729887949
 30
0.0
 42
0.1928402641724868
  0
VERTEX
  5
5D9
  8
レイヤー_4
  6
DASHDOT
 62
     7
 10
-69.38497177852368
 20
89.57832777338037
 30
0.0
 42
0.1925267275518303
  0
VERTEX
  5
5DA
  8
レイヤー_4
  6
DASHDOT
 62
     7
 10
-69.0482455731264
 20
90.19542998879488
 30
0.0
  0
SEQEND
  5
5DB
  8
レイヤー_4
  6
DASHDOT
 62
     7
  0
POLYLINE
  5
5DC
  8
レイヤー_4
  6
DASHDOT
 62
     7
 66
     1
 10
0.0
 20
0.0
 30
0.0
  0
VERTEX
  5
5DD
  8
レイヤー_4
  6
DASHDOT
 62
     7
 10
-70.05283496242906
 20
115.7421913283401
 30
0.0
  0
VERTEX
  5
5DE
  8
レイヤー_4
  6
DASHDOT
 62
     7
 10
-69.72072775765098
 20
115.7194536981375
 30
0.0
  0
VERTEX
  5
5DF
  8
レイヤー_4
  6
DASHDOT
 62
     7
 10
-69.42582758411359
 20
115.6526188457236
 30
0.0
  0
VERTEX
  5
5E0
  8
レイヤー_4
  6
DASHDOT
 62
     7
 10
-69.2012073584753
 20
115.5499550002632
 30
0.0
  0
VERTEX
  5
5E1
  8
レイヤー_4
  6
DASHDOT
 62
     7
 10
-69.073049806424
 20
115.4217974482119
 30
0.0
  0
VERTEX
  5
5E2
  8
レイヤー_4
  6
DASHDOT
 62
     7
 10
-69.0482451189302
 20
115.3301579083042
 30
0.0
  0
SEQEND
  5
5E3
  8
レイヤー_4
  6
DASHDOT
 62
     7
  0
POLYLINE
  5
5E4
  8
レイヤー_4
  6
DASHDOT
 62
     7
 66
     1
 10
0.0
 20
0.0
 30
0.0
  0
VERTEX
  5
5E5
  8
レイヤー_4
  6
DASHDOT
 62
     7
 10
-71.05880284412201
 20
115.3301579083042
 30
0.0
  0
VERTEX
  5
5E6
  8
レイヤー_4
  6
DASHDOT
 62
     7
 10
-71.00161425906686
 20
115.4672727086172
 30
0.0
  0
VERTEX
  5
5E7
  8
レイヤー_4
  6
DASHDOT
 62
     7
 10
-70.83831673306602
 20
115.588540069698
 30
0.0
  0
VERTEX
  5
5E8
  8
レイヤー_4
  6
DASHDOT
 62
     7
 10
-70.58613574354573
 20
115.6801796096056
 30
0.0
  0
VERTEX
  5
5E9
  8
レイヤー_4
  6
DASHDOT
 62
     7
 10
-70.2740100925821
 20
115.7325450609814
 30
0.0
  0
VERTEX
  5
5EA
  8
レイヤー_4
  6
DASHDOT
 62
     7
 10
-70.05283496242906
 20
115.7421913283401
 30
0.0
  0
SEQEND
  5
5EB
  8
レイヤー_4
  6
DASHDOT
 62
     7
  0
POLYLINE
  5
5EC
  8
レイヤー_4
  6
DASHDOT
 62
     7
 66
     1
 10
0.0
 20
0.0
 30
0.0
  0
VERTEX
  5
5ED
  8
レイヤー_4
  6
DASHDOT
 62
     7
 10
-191.1672338036783
 20
115.7421913283401
 30
0.0
  0
VERTEX
  5
5EE
  8
レイヤー_4
  6
DASHDOT
 62
     7
 10
-190.8337485607061
 20
115.7194536981375
 30
0.0
  0
VERTEX
  5
5EF
  8
レイヤー_4
  6
DASHDOT
 62
     7
 10
-190.5388483871687
 20
115.6526188457236
 30
0.0
  0
VERTEX
  5
5F0
  8
レイヤー_4
  6
DASHDOT
 62
     7
 10
-190.3149171806274
 20
115.5499550002632
 30
0.0
  0
VERTEX
  5
5F1
  8
レイヤー_4
  6
DASHDOT
 62
     7
 10
-190.1860706094791
 20
115.4217974482119
 30
0.0
  0
VERTEX
  5
5F2
  8
レイヤー_4
  6
DASHDOT
 62
     7
 10
-190.1619549410824
 20
115.3301579083042
 30
0.0
  0
SEQEND
  5
5F3
  8
レイヤー_4
  6
DASHDOT
 62
     7
  0
POLYLINE
  5
5F4
  8
レイヤー_4
  6
DASHDOT
 62
     7
 66
     1
 10
0.0
 20
0.0
 30
0.0
  0
VERTEX
  5
5F5
  8
レイヤー_4
  6
DASHDOT
 62
     7
 10
-192.1718236471771
 20
115.3301579083042
 30
0.0
  0
VERTEX
  5
5F6
  8
レイヤー_4
  6
DASHDOT
 62
     7
 10
-192.115324081219
 20
115.4672727086172
 30
0.0
  0
VERTEX
  5
5F7
  8
レイヤー_4
  6
DASHDOT
 62
     7
 10
-191.9520265552182
 20
115.588540069698
 30
0.0
  0
VERTEX
  5
5F8
  8
レイヤー_4
  6
DASHDOT
 62
     7
 10
-191.6991565466008
 20
115.6801796096056
 30
0.0
  0
VERTEX
  5
5F9
  8
レイヤー_4
  6
DASHDOT
 62
     7
 10
-191.3870308956372
 20
115.7325450609814
 30
0.0
  0
VERTEX
  5
5FA
  8
レイヤー_4
  6
DASHDOT
 62
     7
 10
-191.1672338036783
 20
115.7421913283401
 30
0.0
  0
SEQEND
  5
5FB
  8
レイヤー_4
  6
DASHDOT
 62
     7
  0
POLYLINE
  5
5FC
  8
レイヤー_4
  6
DASHDOT
 62
     7
 66
     1
 10
0.0
 20
0.0
 30
0.0
  0
VERTEX
  5
5FD
  8
レイヤー_4
  6
DASHDOT
 62
     7
 10
-192.1718235731264
 20
90.19542998879488
 30
0.0
 42
0.1990722106309274
  0
VERTEX
  5
5FE
  8
レイヤー_4
  6
DASHDOT
 62
     7
 10
-191.8453556756846
 20
89.57261572615462
 30
0.0
 42
0.1991043825019445
  0
VERTEX
  5
5FF
  8
レイヤー_4
  6
DASHDOT
 62
     7
 10
-191.1748130137458
 20
89.36378421687918
 30
0.0
  0
VERTEX
  5
600
  8
レイヤー_4
  6
DASHDOT
 62
     7
 10
-191.1672338036783
 20
89.3644732359762
 30
0.0
  0
SEQEND
  5
601
  8
レイヤー_4
  6
DASHDOT
 62
     7
  0
POLYLINE
  5
602
  8
レイヤー_4
  6
DASHDOT
 62
     7
 66
     1
 10
0.0
 20
0.0
 30
0.0
  0
VERTEX
  5
603
  8
レイヤー_4
  6
DASHDOT
 62
     7
 10
-191.1672335731264
 20
89.3644729887949
 30
0.0
 42
0.1931187409268101
  0
VERTEX
  5
604
  8
レイヤー_4
  6
DASHDOT
 62
     7
 10
-190.4970963331946
 20
89.57945254461625
 30
0.0
 42
0.1925999534050459
  0
VERTEX
  5
605
  8
レイヤー_4
  6
DASHDOT
 62
     7
 10
-190.1619545731264
 20
90.19542998879488
 30
0.0
  0
SEQEND
  5
606
  8
レイヤー_4
  6
DASHDOT
 62
     7
  0
LINE
  5
607
  8
レイヤー_4
  6
DASHDOT
 62
     7
 10
-207.3991456919814
 20
76.43916399441589
 30
0.0
 11
-207.3991456919814
 21
76.63208934158989
 31
0.0
  0
LINE
  5
608
  8
レイヤー_4
  6
DASHDOT
 62
     7
 10
-215.79139829405
 20
103.7050277028772
 30
0.0
 11
-215.79139829405
 21
104.3678640742393
 31
0.0
  0
ARC
  5
609
  8
レイヤー_4
  6
DASHDOT
 62
     7
 10
-305.9081903968194
 20
60.29744100246999
 30
0.0
 40
100.0262705595242
 50
9.992086855498975
 51
25.71925397745239
  0
LINE
  5
60A
  8
レイヤー_4
  6
DASHDOT
 62
     7
 10
-45.42935949115437
 20
104.3678640742393
 30
0.0
 11
-45.42935949115437
 21
103.7050277028772
 31
0.0
  0
ARC
  5
60B
  8
レイヤー_4
  6
DASHDOT
 62
     7
 10
44.78711335907049
 20
60.26533014544843
 30
0.0
 40
100.1300119715177
 50
154.2889446846159
 51
169.9997144824333
  0
LINE
  5
60C
  8
レイヤー_4
  6
DASHDOT
 62
     7
 10
-192.1718236471771
 20
91.01191789702268
 30
0.0
 11
-192.1718236471771
 21
91.4728716729491
 31
0.0
  0
LINE
  5
60D
  8
レイヤー_4
  6
DASHDOT
 62
     7
 10
-190.1619549410824
 20
91.4728716729491
 30
0.0
 11
-192.1718236471771
 21
91.4728716729491
 31
0.0
  0
LINE
  5
60E
  8
レイヤー_4
  6
DASHDOT
 62
     7
 10
-190.1619549410824
 20
91.01191789702268
 30
0.0
 11
-190.1619549410824
 21
91.4728716729491
 31
0.0
  0
POLYLINE
  5
60F
  8
レイヤー_4
  6
DASHDOT
 62
     7
 66
     1
 10
0.0
 20
0.0
 30
0.0
  0
VERTEX
  5
610
  8
レイヤー_4
  6
DASHDOT
 62
     7
 10
-191.1672335731264
 20
89.37274098879489
 30
0.0
 42
0.109385850885225
  0
VERTEX
  5
611
  8
レイヤー_4
  6
DASHDOT
 62
     7
 10
-190.4836030064007
 20
90.0805641311042
 30
0.0
 42
0.1092193194764933
  0
VERTEX
  5
612
  8
レイヤー_4
  6
DASHDOT
 62
     7
 10
-190.1619545731264
 20
91.01191698879491
 30
0.0
  0
SEQEND
  5
613
  8
レイヤー_4
  6
DASHDOT
 62
     7
  0
POLYLINE
  5
614
  8
レイヤー_4
  6
DASHDOT
 62
     7
 66
     1
 10
0.0
 20
0.0
 30
0.0
  0
VERTEX
  5
615
  8
レイヤー_4
  6
DASHDOT
 62
     7
 10
-192.1718235731264
 20
91.01191698879491
 30
0.0
 42
0.115258835064978
  0
VERTEX
  5
616
  8
レイヤー_4
  6
DASHDOT
 62
     7
 10
-191.861242809706
 20
90.07580463894871
 30
0.0
 42
0.1150348808654212
  0
VERTEX
  5
617
  8
レイヤー_4
  6
DASHDOT
 62
     7
 10
-191.1672335731264
 20
89.37274098879487
 30
0.0
  0
SEQEND
  5
618
  8
レイヤー_4
  6
DASHDOT
 62
     7
  0
LINE
  5
619
  8
レイヤー_4
  6
DASHDOT
 62
     7
 10
-192.1718236471771
 20
90.1954302670185
 30
0.0
 11
-192.1718236471771
 21
91.01191789702268
 31
0.0
  0
LINE
  5
61A
  8
レイヤー_4
  6
DASHDOT
 62
     7
 10
-191.1672338036783
 20
89.3727414651408
 30
0.0
 11
-191.1672338036783
 21
89.3644732359762
 31
0.0
  0
LINE
  5
61B
  8
レイヤー_4
  6
DASHDOT
 62
     7
 10
-190.1619549410824
 20
91.01191789702268
 30
0.0
 11
-190.1619549410824
 21
90.1954302670185
 31
0.0
  0
ARC
  5
61C
  8
レイヤー_4
  6
DASHDOT
 62
     7
 10
-71.21279863670948
 20
91.2110657184973
 30
0.0
 40
2.17369542165612
 50
302.2515036306758
 51
354.74335150941
  0
POLYLINE
  5
61D
  8
レイヤー_4
  6
DASHDOT
 62
     7
 66
     1
 10
0.0
 20
0.0
 30
0.0
  0
VERTEX
  5
61E
  8
レイヤー_4
  6
DASHDOT
 62
     7
 10
-71.05880357312638
 20
91.01191698879491
 30
0.0
 42
0.1154062565089012
  0
VERTEX
  5
61F
  8
レイヤー_4
  6
DASHDOT
 62
     7
 10
-70.74787816031261
 20
90.075677405109
 30
0.0
 42
0.1151627589859347
  0
VERTEX
  5
620
  8
レイヤー_4
  6
DASHDOT
 62
     7
 10
-70.0528355731264
 20
89.37274098879489
 30
0.0
  0
SEQEND
  5
621
  8
レイヤー_4
  6
DASHDOT
 62
     7
  0
LINE
  5
622
  8
レイヤー_4
  6
DASHDOT
 62
     7
 10
-71.05880284412201
 20
91.01191789702268
 30
0.0
 11
-71.05880284412201
 21
91.4728716729491
 31
0.0
  0
LINE
  5
623
  8
レイヤー_4
  6
DASHDOT
 62
     7
 10
-71.05880284412201
 20
91.4728716729491
 30
0.0
 11
-69.0482451189302
 21
91.4728716729491
 31
0.0
  0
LINE
  5
624
  8
レイヤー_4
  6
DASHDOT
 62
     7
 10
-69.0482451189302
 20
91.01191789702268
 30
0.0
 11
-69.0482451189302
 21
91.4728716729491
 31
0.0
  0
LINE
  5
625
  8
レイヤー_4
  6
DASHDOT
 62
     7
 10
-69.0482451189302
 20
91.01191789702268
 30
0.0
 11
-69.0482451189302
 21
90.1954302670185
 31
0.0
  0
LINE
  5
626
  8
レイヤー_4
  6
DASHDOT
 62
     7
 10
-70.05283496242906
 20
89.3644732359762
 30
0.0
 11
-70.05283496242906
 21
89.3727414651408
 31
0.0
  0
LINE
  5
627
  8
レイヤー_4
  6
DASHDOT
 62
     7
 10
-71.05880284412201
 20
90.1954302670185
 30
0.0
 11
-71.05880284412201
 21
91.01191789702268
 31
0.0
  0
LINE
  5
628
  8
レイヤー_4
  6
DASHDOT
 62
     7
 10
-190.1619549410824
 20
116.48495391496
 30
0.0
 11
-192.1718236471771
 21
116.48495391496
 31
0.0
  0
LINE
  5
629
  8
レイヤー_4
  6
DASHDOT
 62
     7
 10
-192.1718236471771
 20
116.48495391496
 30
0.0
 11
-192.1718236471771
 21
91.4728716729491
 31
0.0
  0
LINE
  5
62A
  8
レイヤー_4
  6
DASHDOT
 62
     7
 10
-190.1619549410824
 20
116.48495391496
 30
0.0
 11
-190.1619549410824
 21
91.4728716729491
 31
0.0
  0
LINE
  5
62B
  8
レイヤー_4
  6
DASHDOT
 62
     7
 10
-71.05880284412201
 20
116.48495391496
 30
0.0
 11
-69.0482451189302
 21
116.48495391496
 31
0.0
  0
LINE
  5
62C
  8
レイヤー_4
  6
DASHDOT
 62
     7
 10
-69.0482451189302
 20
116.48495391496
 30
0.0
 11
-69.0482451189302
 21
91.4728716729491
 31
0.0
  0
LINE
  5
62D
  8
レイヤー_4
  6
DASHDOT
 62
     7
 10
-71.05880284412201
 20
116.48495391496
 30
0.0
 11
-71.05880284412201
 21
91.4728716729491
 31
0.0
  0
LINE
  5
62E
  8
レイヤー_4
  6
DASHDOT
 62
     7
 10
-191.1672338036783
 20
89.49263078802748
 30
0.0
 11
-191.1672338036783
 21
89.7847748851767
 31
0.0
  0
LINE
  5
62F
  8
レイヤー_4
  6
DASHDOT
 62
     7
 10
-190.6642498628318
 20
89.90742028445159
 30
0.0
 11
-190.6642498628318
 21
90.6949691123797
 31
0.0
  0
POLYLINE
  5
630
  8
レイヤー_4
  6
DASHDOT
 62
     7
 66
     1
 10
0.0
 20
0.0
 30
0.0
  0
VERTEX
  5
631
  8
レイヤー_4
  6
DASHDOT
 62
     7
 10
-191.1672335731264
 20
89.7847739887949
 30
0.0
 42
0.1012132175361556
  0
VERTEX
  5
632
  8
レイヤー_4
  6
DASHDOT
 62
     7
 10
-190.8217742903859
 20
90.18953986616135
 30
0.0
 42
0.1016715825981146
  0
VERTEX
  5
633
  8
レイヤー_4
  6
DASHDOT
 62
     7
 10
-190.6642495731264
 20
90.69496898879488
 30
0.0
  0
SEQEND
  5
634
  8
レイヤー_4
  6
DASHDOT
 62
     7
  0
LINE
  5
635
  8
レイヤー_4
  6
DASHDOT
 62
     7
 10
-191.6695287254277
 20
90.6949691123797
 30
0.0
 11
-191.6695287254277
 21
89.90742028445159
 31
0.0
  0
POLYLINE
  5
636
  8
レイヤー_4
  6
DASHDOT
 62
     7
 66
     1
 10
0.0
 20
0.0
 30
0.0
  0
VERTEX
  5
637
  8
レイヤー_4
  6
DASHDOT
 62
     7
 10
-191.6695285731264
 20
90.69496898879488
 30
0.0
 42
0.1025694822832408
  0
VERTEX
  5
638
  8
レイヤー_4
  6
DASHDOT
 62
     7
 10
-191.5122595614821
 20
90.18641368835209
 30
0.0
 42
0.1030518070894839
  0
VERTEX
  5
639
  8
レイヤー_4
  6
DASHDOT
 62
     7
 10
-191.1672335731264
 20
89.7847739887949
 30
0.0
  0
SEQEND
  5
63A
  8
レイヤー_4
  6
DASHDOT
 62
     7
  0
LINE
  5
63B
  8
レイヤー_4
  6
DASHDOT
 62
     7
 10
-69.55054004067964
 20
89.90742028445159
 30
0.0
 11
-69.55054004067964
 21
90.6949691123797
 31
0.0
  0
ARC
  5
63C
  8
レイヤー_4
  6
DASHDOT
 62
     7
 10
-70.87435865812235
 20
90.83183057041934
 30
0.0
 40
1.330874445838005
 50
308.1178596493759
 51
354.0975114696578
  0
LINE
  5
63D
  8
レイヤー_4
  6
DASHDOT
 62
     7
 10
-70.05283496242906
 20
89.7847748851767
 30
0.0
 11
-70.05283496242906
 21
89.49263078802748
 31
0.0
  0
LINE
  5
63E
  8
レイヤー_4
  6
DASHDOT
 62
     7
 10
-70.55650792237259
 20
90.6949691123797
 30
0.0
 11
-70.55650792237259
 21
89.90742028445159
 31
0.0
  0
POLYLINE
  5
63F
  8
レイヤー_4
  6
DASHDOT
 62
     7
 66
     1
 10
0.0
 20
0.0
 30
0.0
  0
VERTEX
  5
640
  8
レイヤー_4
  6
DASHDOT
 62
     7
 10
-70.5565085731264
 20
90.69496898879488
 30
0.0
 42
0.1028817293438079
  0
VERTEX
  5
641
  8
レイヤー_4
  6
DASHDOT
 62
     7
 10
-70.39900569578371
 20
90.18677031993887
 30
0.0
 42
0.1030325783368781
  0
VERTEX
  5
642
  8
レイヤー_4
  6
DASHDOT
 62
     7
 10
-70.0528355731264
 20
89.7847739887949
 30
0.0
  0
SEQEND
  5
643
  8
レイヤー_4
  6
DASHDOT
 62
     7
  0
LINE
  5
644
  8
レイヤー_4
  6
DASHDOT
 62
     7
 10
-191.6695287254277
 20
91.1841726712852
 30
0.0
 11
-191.6695287254277
 21
90.6949691123797
 31
0.0
  0
LINE
  5
645
  8
レイヤー_4
  6
DASHDOT
 62
     7
 10
-70.55650792237259
 20
91.1841726712852
 30
0.0
 11
-70.55650792237259
 21
90.6949691123797
 31
0.0
  0
LINE
  5
646
  8
レイヤー_4
  6
DASHDOT
 62
     7
 10
-190.6642498628318
 20
91.1841726712852
 30
0.0
 11
-190.6642498628318
 21
90.6949691123797
 31
0.0
  0
LINE
  5
647
  8
レイヤー_4
  6
DASHDOT
 62
     7
 10
-69.55054004067964
 20
91.1841726712852
 30
0.0
 11
-69.55054004067964
 21
90.6949691123797
 31
0.0
  0
LINE
  5
648
  8
レイヤー_4
  6
DASHDOT
 62
     7
 10
-190.6642498628318
 20
116.030201310907
 30
0.0
 11
-190.6642498628318
 21
91.1841726712852
 31
0.0
  0
LINE
  5
649
  8
レイヤー_4
  6
DASHDOT
 62
     7
 10
-191.6695287254277
 20
116.030201310907
 30
0.0
 11
-191.6695287254277
 21
91.1841726712852
 31
0.0
  0
LINE
  5
64A
  8
レイヤー_4
  6
DASHDOT
 62
     7
 10
-191.6695287254277
 20
91.1841726712852
 30
0.0
 11
-190.6642498628318
 21
91.1841726712852
 31
0.0
  0
LINE
  5
64B
  8
レイヤー_4
  6
DASHDOT
 62
     7
 10
-69.55054004067964
 20
116.030201310907
 30
0.0
 11
-69.55054004067964
 21
91.1841726712852
 31
0.0
  0
LINE
  5
64C
  8
レイヤー_4
  6
DASHDOT
 62
     7
 10
-70.55650792237259
 20
116.030201310907
 30
0.0
 11
-70.55650792237259
 21
91.1841726712852
 31
0.0
  0
LINE
  5
64D
  8
レイヤー_4
  6
DASHDOT
 62
     7
 10
-69.55054004067964
 20
91.1841726712852
 30
0.0
 11
-70.55650792237259
 21
91.1841726712852
 31
0.0
  0
ARC
  5
64E
  8
レイヤー_4
  6
DASHDOT
 62
     7
 10
-131.9531407739968
 20
96.49635555690047
 30
0.0
 40
2.361930467426507
 50
304.6559813590963
 51
353.7065402400011
  0
ARC
  5
64F
  8
レイヤー_4
  6
DASHDOT
 62
     7
 10
-129.2669075325431
 20
96.49732850749494
 30
0.0
 40
2.362742493436733
 50
186.315025337906
 51
235.3570270610551
  0
LINE
  5
650
  8
レイヤー_4
  6
DASHDOT
 62
     7
 10
-131.6153132456496
 20
96.2374387290496
 30
0.0
 11
-131.6153132456496
 21
96.67841095116158
 31
0.0
  0
LINE
  5
651
  8
レイヤー_4
  6
DASHDOT
 62
     7
 10
-131.6153132456496
 20
96.67841095116158
 30
0.0
 11
-129.6054445395548
 21
96.67841095116158
 31
0.0
  0
LINE
  5
652
  8
レイヤー_4
  6
DASHDOT
 62
     7
 10
-129.6054445395548
 20
96.2374387290496
 30
0.0
 11
-129.6054445395548
 21
96.67841095116158
 31
0.0
  0
LINE
  5
653
  8
レイヤー_4
  6
DASHDOT
 62
     7
 10
-130.6100343830537
 20
94.54382978850079
 30
0.0
 11
-130.6100343830537
 21
94.55347605585949
 31
0.0
  0
LINE
  5
654
  8
レイヤー_4
  6
DASHDOT
 62
     7
 10
-131.6153132456496
 20
95.3231103872643
 30
0.0
 11
-131.6153132456496
 21
96.2374387290496
 31
0.0
  0
LINE
  5
655
  8
レイヤー_4
  6
DASHDOT
 62
     7
 10
-129.6054445395548
 20
96.2374387290496
 30
0.0
 11
-129.6054445395548
 21
95.3231103872643
 31
0.0
  0
LINE
  5
656
  8
レイヤー_4
  6
DASHDOT
 62
     7
 10
-131.6153132456496
 20
116.48495391496
 30
0.0
 11
-129.6054445395548
 21
116.48495391496
 31
0.0
  0
LINE
  5
657
  8
レイヤー_4
  6
DASHDOT
 62
     7
 10
-131.6153132456496
 20
116.48495391496
 30
0.0
 11
-131.6153132456496
 21
96.67841095116158
 31
0.0
  0
LINE
  5
658
  8
レイヤー_4
  6
DASHDOT
 62
     7
 10
-129.6054445395548
 20
116.48495391496
 30
0.0
 11
-129.6054445395548
 21
96.67841095116158
 31
0.0
  0
LINE
  5
659
  8
レイヤー_4
  6
DASHDOT
 62
     7
 10
-130.1077394613042
 20
94.99927141165078
 30
0.0
 11
-130.1077394613042
 21
95.88328291316598
 31
0.0
  0
ARC
  5
65A
  8
レイヤー_4
  6
DASHDOT
 62
     7
 10
-131.5797405302585
 20
96.06012318157657
 30
0.0
 40
1.482585453703772
 50
310.8487346857323
 51
353.1495470957739
  0
LINE
  5
65B
  8
レイヤー_4
  6
DASHDOT
 62
     7
 10
-130.6100343830537
 20
94.9386377311104
 30
0.0
 11
-130.6100343830537
 21
94.61135366001169
 31
0.0
  0
LINE
  5
65C
  8
レイヤー_4
  6
DASHDOT
 62
     7
 10
-131.1130183239001
 20
95.88328291316598
 30
0.0
 11
-131.1130183239001
 21
94.99927141165078
 31
0.0
  0
POLYLINE
  5
65D
  8
レイヤー_4
  6
DASHDOT
 62
     7
 66
     1
 10
0.0
 20
0.0
 30
0.0
  0
VERTEX
  5
65E
  8
レイヤー_4
  6
DASHDOT
 62
     7
 10
-131.1130175731264
 20
95.8832819887949
 30
0.0
 42
0.0945834047608357
  0
VERTEX
  5
65F
  8
レイヤー_4
  6
DASHDOT
 62
     7
 10
-130.9514790182667
 20
95.3623713032337
 30
0.0
 42
0.0947611844933781
  0
VERTEX
  5
660
  8
レイヤー_4
  6
DASHDOT
 62
     7
 10
-130.6100335731264
 20
94.93863698879488
 30
0.0
  0
SEQEND
  5
661
  8
レイヤー_4
  6
DASHDOT
 62
     7
  0
LINE
  5
662
  8
レイヤー_4
  6
DASHDOT
 62
     7
 10
-130.1077394613042
 20
96.3545719755481
 30
0.0
 11
-130.1077394613042
 21
95.88328291316598
 31
0.0
  0
LINE
  5
663
  8
レイヤー_4
  6
DASHDOT
 62
     7
 10
-131.1130183239001
 20
96.3545719755481
 30
0.0
 11
-131.1130183239001
 21
95.88328291316598
 31
0.0
  0
LINE
  5
664
  8
レイヤー_4
  6
DASHDOT
 62
     7
 10
-131.1130183239001
 20
116.030201310907
 30
0.0
 11
-131.1130183239001
 21
96.3545719755481
 31
0.0
  0
LINE
  5
665
  8
レイヤー_4
  6
DASHDOT
 62
     7
 10
-130.1077394613042
 20
116.030201310907
 30
0.0
 11
-130.1077394613042
 21
96.3545719755481
 31
0.0
  0
LINE
  5
666
  8
レイヤー_4
  6
DASHDOT
 62
     7
 10
-131.1130183239001
 20
96.3545719755481
 30
0.0
 11
-130.1077394613042
 21
96.3545719755481
 31
0.0
  0
LINE
  5
667
  8
レイヤー_4
  6
DASHDOT
 62
     7
 10
-215.79139829405
 20
104.3802664179861
 30
0.0
 11
-215.79139829405
 21
118.7029063883638
 31
0.0
  0
LINE
  5
668
  8
レイヤー_4
  6
DASHDOT
 62
     7
 10
-45.42935949115437
 20
104.3802664179861
 30
0.0
 11
-45.42935949115437
 21
118.7029063883638
 31
0.0
  0
POLYLINE
  5
669
  8
レイヤー_4
  6
DASHDOT
 62
     7
 66
     1
 10
0.0
 20
0.0
 30
0.0
  0
VERTEX
  5
66A
  8
レイヤー_4
  6
DASHDOT
 62
     7
 10
-130.6100343830537
 20
115.7566607293782
 30
0.0
  0
VERTEX
  5
66B
  8
レイヤー_4
  6
DASHDOT
 62
     7
 10
-130.614857516733
 20
115.7614838630575
 30
0.0
  0
VERTEX
  5
66C
  8
レイヤー_4
  6
DASHDOT
 62
     7
 10
-131.125420667647
 20
116.2754921094568
 30
0.0
  0
VERTEX
  5
66D
  8
レイヤー_4
  6
DASHDOT
 62
     7
 10
-131.4189428029903
 20
116.5187158507154
 30
0.0
  0
VERTEX
  5
66E
  8
レイヤー_4
  6
DASHDOT
 62
     7
 10
-131.5698379852442
 20
116.6151785243024
 30
0.0
  0
VERTEX
  5
66F
  8
レイヤー_4
  6
DASHDOT
 62
     7
 10
-131.6153132456496
 20
116.6200016579818
 30
0.0
  0
SEQEND
  5
670
  8
レイヤー_4
  6
DASHDOT
 62
     7
  0
POLYLINE
  5
671
  8
レイヤー_4
  6
DASHDOT
 62
     7
 66
     1
 10
0.0
 20
0.0
 30
0.0
  0
VERTEX
  5
672
  8
レイヤー_4
  6
DASHDOT
 62
     7
 10
-129.6054435731264
 20
116.6193119887949
 30
0.0
 42
0.4128985089621984
  0
VERTEX
  5
673
  8
レイヤー_4
  6
DASHDOT
 62
     7
 10
-129.606067756677
 20
116.6199389824692
 30
0.0
 42
0.0167327208548831
  0
VERTEX
  5
674
  8
レイヤー_4
  6
DASHDOT
 62
     7
 10
-129.6247365731264
 20
116.6193979887949
 30
0.0
 42
0.0032929129457753
  0
VERTEX
  5
675
  8
レイヤー_4
  6
DASHDOT
 62
     7
 10
-129.634264294657
 20
116.6187394864475
 30
0.0
 42
0.0033545854444478
  0
VERTEX
  5
676
  8
レイヤー_4
  6
DASHDOT
 62
     7
 10
-129.6440296089896
 20
116.6179346006906
 30
0.0
  0
VERTEX
  5
677
  8
レイヤー_4
  6
DASHDOT
 62
     7
 10
-129.7914796957583
 20
116.5256060416859
 30
0.0
  0
VERTEX
  5
678
  8
レイヤー_4
  6
DASHDOT
 62
     7
 10
-130.0960261366544
 20
116.2741140712627
 30
0.0
  0
VERTEX
  5
679
  8
レイヤー_4
  6
DASHDOT
 62
     7
 10
-130.6052112493743
 20
115.7614838630575
 30
0.0
  0
VERTEX
  5
67A
  8
レイヤー_4
  6
DASHDOT
 62
     7
 10
-130.6100343830537
 20
115.7566607293782
 30
0.0
  0
SEQEND
  5
67B
  8
レイヤー_4
  6
DASHDOT
 62
     7
  0
LINE
  5
67C
  8
レイヤー_4
  6
DASHDOT
 62
     7
 10
-131.6153132456496
 20
116.48495391496
 30
0.0
 11
-131.6153132456496
 21
116.6193126388847
 31
0.0
  0
LINE
  5
67D
  8
レイヤー_4
  6
DASHDOT
 62
     7
 10
-129.6054445395548
 20
116.48495391496
 30
0.0
 11
-129.6054445395548
 21
116.6193126388847
 31
0.0
  0
POLYLINE
  5
67E
  8
レイヤー_4
  6
DASHDOT
 62
     7
 66
     1
 10
0.0
 20
0.0
 30
0.0
  0
VERTEX
  5
67F
  8
レイヤー_4
  6
DASHDOT
 62
     7
 10
-192.1718235731264
 20
116.6193119887949
 30
0.0
 42
-0.4128800263225568
  0
VERTEX
  5
680
  8
レイヤー_4
  6
DASHDOT
 62
     7
 10
-192.1712004246232
 20
116.6199379823004
 30
0.0
 42
-0.0164752390419827
  0
VERTEX
  5
681
  8
レイヤー_4
  6
DASHDOT
 62
     7
 10
-192.1521865731264
 20
116.6193979887949
 30
0.0
 42
-0.0030327982023554
  0
VERTEX
  5
682
  8
レイヤー_4
  6
DASHDOT
 62
     7
 10
-192.1430973079551
 20
116.6187845152518
 30
0.0
 42
-0.0034983079349133
  0
VERTEX
  5
683
  8
レイヤー_4
  6
DASHDOT
 62
     7
 10
-192.1325495586452
 20
116.6179346006906
 30
0.0
  0
VERTEX
  5
684
  8
レイヤー_4
  6
DASHDOT
 62
     7
 10
-191.9850994718766
 20
116.5256060416859
 30
0.0
  0
VERTEX
  5
685
  8
レイヤー_4
  6
DASHDOT
 62
     7
 10
-191.6805530309805
 20
116.2741140712627
 30
0.0
  0
VERTEX
  5
686
  8
レイヤー_4
  6
DASHDOT
 62
     7
 10
-191.1713679182606
 20
115.7614838630575
 30
0.0
  0
VERTEX
  5
687
  8
レイヤー_4
  6
DASHDOT
 62
     7
 10
-191.1672338036783
 20
115.7566607293782
 30
0.0
  0
SEQEND
  5
688
  8
レイヤー_4
  6
DASHDOT
 62
     7
  0
POLYLINE
  5
689
  8
レイヤー_4
  6
DASHDOT
 62
     7
 66
     1
 10
0.0
 20
0.0
 30
0.0
  0
VERTEX
  5
68A
  8
レイヤー_4
  6
DASHDOT
 62
     7
 10
-191.1672338036783
 20
115.7566607293782
 30
0.0
  0
VERTEX
  5
68B
  8
レイヤー_4
  6
DASHDOT
 62
     7
 10
-191.1617216509018
 20
115.7614838630575
 30
0.0
  0
VERTEX
  5
68C
  8
レイヤー_4
  6
DASHDOT
 62
     7
 10
-190.6511584999878
 20
116.2754921094568
 30
0.0
  0
VERTEX
  5
68D
  8
レイヤー_4
  6
DASHDOT
 62
     7
 10
-190.3576363646445
 20
116.5187158507154
 30
0.0
  0
VERTEX
  5
68E
  8
レイヤー_4
  6
DASHDOT
 62
     7
 10
-190.2074302014877
 20
116.6151785243024
 30
0.0
  0
VERTEX
  5
68F
  8
レイヤー_4
  6
DASHDOT
 62
     7
 10
-190.1619549410824
 20
116.6200016579818
 30
0.0
  0
SEQEND
  5
690
  8
レイヤー_4
  6
DASHDOT
 62
     7
  0
LINE
  5
691
  8
レイヤー_4
  6
DASHDOT
 62
     7
 10
-192.1718236471771
 20
116.48495391496
 30
0.0
 11
-192.1718236471771
 21
116.6193126388847
 31
0.0
  0
LINE
  5
692
  8
レイヤー_4
  6
DASHDOT
 62
     7
 10
-190.1619549410824
 20
116.48495391496
 30
0.0
 11
-190.1619549410824
 21
116.6193126388847
 31
0.0
  0
POLYLINE
  5
693
  8
レイヤー_4
  6
DASHDOT
 62
     7
 66
     1
 10
0.0
 20
0.0
 30
0.0
  0
VERTEX
  5
694
  8
レイヤー_4
  6
DASHDOT
 62
     7
 10
-70.05283496242906
 20
115.7566607293782
 30
0.0
  0
VERTEX
  5
695
  8
レイヤー_4
  6
DASHDOT
 62
     7
 10
-70.05834711520545
 20
115.7614838630575
 30
0.0
  0
VERTEX
  5
696
  8
レイヤー_4
  6
DASHDOT
 62
     7
 10
-70.56891026611949
 20
116.2754921094568
 30
0.0
  0
VERTEX
  5
697
  8
レイヤー_4
  6
DASHDOT
 62
     7
 10
-70.86243240146277
 20
116.5187158507154
 30
0.0
  0
VERTEX
  5
698
  8
レイヤー_4
  6
DASHDOT
 62
     7
 10
-71.01332758371672
 20
116.6151785243024
 30
0.0
  0
VERTEX
  5
699
  8
レイヤー_4
  6
DASHDOT
 62
     7
 10
-71.05880284412201
 20
116.6200016579818
 30
0.0
  0
SEQEND
  5
69A
  8
レイヤー_4
  6
DASHDOT
 62
     7
  0
POLYLINE
  5
69B
  8
レイヤー_4
  6
DASHDOT
 62
     7
 66
     1
 10
0.0
 20
0.0
 30
0.0
  0
VERTEX
  5
69C
  8
レイヤー_4
  6
DASHDOT
 62
     7
 10
-69.0482455731264
 20
116.6193119887949
 30
0.0
 42
0.412923842264899
  0
VERTEX
  5
69D
  8
レイヤー_4
  6
DASHDOT
 62
     7
 10
-69.04886981095774
 20
116.6199389827107
 30
0.0
 42
0.0161740328318726
  0
VERTEX
  5
69E
  8
レイヤー_4
  6
DASHDOT
 62
     7
 10
-69.06822757312639
 20
116.6193979887949
 30
0.0
 42
0.003265516251038
  0
VERTEX
  5
69F
  8
レイヤー_4
  6
DASHDOT
 62
     7
 10
-69.07835990378398
 20
116.6187201124653
 30
0.0
 42
0.003158834713715
  0
VERTEX
  5
6A0
  8
レイヤー_4
  6
DASHDOT
 62
     7
 10
-69.0882082265591
 20
116.6179346006906
 30
0.0
  0
VERTEX
  5
6A1
  8
レイヤー_4
  6
DASHDOT
 62
     7
 10
-69.23496929423075
 20
116.5256060416859
 30
0.0
  0
VERTEX
  5
6A2
  8
レイヤー_4
  6
DASHDOT
 62
     7
 10
-69.53951573512683
 20
116.2741140712627
 30
0.0
  0
VERTEX
  5
6A3
  8
レイヤー_4
  6
DASHDOT
 62
     7
 10
-70.04870084784676
 20
115.7614838630575
 30
0.0
  0
VERTEX
  5
6A4
  8
レイヤー_4
  6
DASHDOT
 62
     7
 10
-70.05283496242906
 20
115.7566607293782
 30
0.0
  0
SEQEND
  5
6A5
  8
レイヤー_4
  6
DASHDOT
 62
     7
  0
LINE
  5
6A6
  8
レイヤー_4
  6
DASHDOT
 62
     7
 10
-69.0482451189302
 20
116.48495391496
 30
0.0
 11
-69.0482451189302
 21
116.6193126388847
 31
0.0
  0
LINE
  5
6A7
  8
レイヤー_4
  6
DASHDOT
 62
     7
 10
-71.05880284412201
 20
116.48495391496
 30
0.0
 11
-71.05880284412201
 21
116.6193126388847
 31
0.0
  0
POLYLINE
  5
6A8
  8
レイヤー_4
  6
DASHDOT
 62
     7
 66
     1
 10
0.0
 20
0.0
 30
0.0
  0
VERTEX
  5
6A9
  8
レイヤー_4
  6
DASHDOT
 62
     7
 10
-130.1077385731264
 20
116.1204619887949
 30
0.0
 42
0.0181701459205892
  0
VERTEX
  5
6AA
  8
レイヤー_4
  6
DASHDOT
 62
     7
 10
-130.3660985941087
 20
115.8447273403995
 30
0.0
 42
0.0177224409413915
  0
VERTEX
  5
6AB
  8
レイヤー_4
  6
DASHDOT
 62
     7
 10
-130.6100335731264
 20
115.5437529887949
 30
0.0
  0
SEQEND
  5
6AC
  8
レイヤー_4
  6
DASHDOT
 62
     7
  0
POLYLINE
  5
6AD
  8
レイヤー_4
  6
DASHDOT
 62
     7
 66
     1
 10
0.0
 20
0.0
 30
0.0
  0
VERTEX
  5
6AE
  8
レイヤー_4
  6
DASHDOT
 62
     7
 10
-130.6100335731264
 20
115.5437529887949
 30
0.0
 42
0.0356781946772075
  0
VERTEX
  5
6AF
  8
レイヤー_4
  6
DASHDOT
 62
     7
 10
-130.8420806165072
 20
115.8516098149511
 30
0.0
 42
0.0360343422062632
  0
VERTEX
  5
6B0
  8
レイヤー_4
  6
DASHDOT
 62
     7
 10
-131.1130175731264
 20
116.1204619887949
 30
0.0
  0
SEQEND
  5
6B1
  8
レイヤー_4
  6
DASHDOT
 62
     7
  0
LINE
  5
6B2
  8
レイヤー_4
  6
DASHDOT
 62
     7
 10
-131.1130183239001
 20
116.030201310907
 30
0.0
 11
-130.1077394613042
 21
116.030201310907
 31
0.0
  0
LINE
  5
6B3
  8
レイヤー_4
  6
DASHDOT
 62
     7
 10
-131.1130183239001
 20
116.1239079081058
 30
0.0
 11
-131.1130183239001
 21
116.030201310907
 31
0.0
  0
LINE
  5
6B4
  8
レイヤー_4
  6
DASHDOT
 62
     7
 10
-130.1077394613042
 20
116.1239079081058
 30
0.0
 11
-130.1077394613042
 21
116.030201310907
 31
0.0
  0
ARC
  5
6B5
  8
レイヤー_4
  6
DASHDOT
 62
     7
 10
-186.9040176960046
 20
112.333233027568
 30
0.0
 40
5.336895670072131
 50
134.7950512379275
 51
143.0175163319589
  0
ARC
  5
6B6
  8
レイヤー_4
  6
DASHDOT
 62
     7
 10
-193.3992546138685
 20
114.1068315323918
 30
0.0
 40
2.654555062879313
 50
32.77247820774094
 51
49.3371493341798
  0
LINE
  5
6B7
  8
レイヤー_4
  6
DASHDOT
 62
     7
 10
-191.6695287254277
 20
116.030201310907
 30
0.0
 11
-190.6642498628318
 21
116.030201310907
 31
0.0
  0
LINE
  5
6B8
  8
レイヤー_4
  6
DASHDOT
 62
     7
 10
-190.6642498628318
 20
116.1239079081058
 30
0.0
 11
-190.6642498628318
 21
116.030201310907
 31
0.0
  0
LINE
  5
6B9
  8
レイヤー_4
  6
DASHDOT
 62
     7
 10
-191.6695287254277
 20
116.1239079081058
 30
0.0
 11
-191.6695287254277
 21
116.030201310907
 31
0.0
  0
POLYLINE
  5
6BA
  8
レイヤー_4
  6
DASHDOT
 62
     7
 66
     1
 10
0.0
 20
0.0
 30
0.0
  0
VERTEX
  5
6BB
  8
レイヤー_4
  6
DASHDOT
 62
     7
 10
-69.5505405731264
 20
116.1204619887949
 30
0.0
 42
0.0186447351520873
  0
VERTEX
  5
6BC
  8
レイヤー_4
  6
DASHDOT
 62
     7
 10
-69.80972575599242
 20
115.8443720490836
 30
0.0
 42
0.0182622102427052
  0
VERTEX
  5
6BD
  8
レイヤー_4
  6
DASHDOT
 62
     7
 10
-70.05283557312637
 20
115.5437529887949
 30
0.0
  0
SEQEND
  5
6BE
  8
レイヤー_4
  6
DASHDOT
 62
     7
  0
POLYLINE
  5
6BF
  8
レイヤー_4
  6
DASHDOT
 62
     7
 66
     1
 10
0.0
 20
0.0
 30
0.0
  0
VERTEX
  5
6C0
  8
レイヤー_4
  6
DASHDOT
 62
     7
 10
-70.05283557312639
 20
115.5437529887949
 30
0.0
 42
0.0352830684887196
  0
VERTEX
  5
6C1
  8
レイヤー_4
  6
DASHDOT
 62
     7
 10
-70.28619865906737
 20
115.8524134473684
 30
0.0
 42
0.0358649492126479
  0
VERTEX
  5
6C2
  8
レイヤー_4
  6
DASHDOT
 62
     7
 10
-70.5565085731264
 20
116.1204619887949
 30
0.0
  0
SEQEND
  5
6C3
  8
レイヤー_4
  6
DASHDOT
 62
     7
  0
LINE
  5
6C4
  8
レイヤー_4
  6
DASHDOT
 62
     7
 10
-69.55054004067964
 20
116.030201310907
 30
0.0
 11
-70.55650792237259
 21
116.030201310907
 31
0.0
  0
LINE
  5
6C5
  8
レイヤー_4
  6
DASHDOT
 62
     7
 10
-69.55054004067964
 20
116.1239079081058
 30
0.0
 11
-69.55054004067964
 21
116.030201310907
 31
0.0
  0
LINE
  5
6C6
  8
レイヤー_4
  6
DASHDOT
 62
     7
 10
-70.55650792237259
 20
116.1239079081058
 30
0.0
 11
-70.55650792237259
 21
116.030201310907
 31
0.0
  0
LINE
  5
6C7
  8
レイヤー_4
  6
DASHDOT
 62
     7
 10
-191.1672338036783
 20
115.7566607293782
 30
0.0
 11
-191.1672338036783
 21
115.7421913283401
 31
0.0
  0
LINE
  5
6C8
  8
レイヤー_4
  6
DASHDOT
 62
     7
 10
-130.6100343830537
 20
115.7421913283401
 30
0.0
 11
-130.6100343830537
 21
115.7566607293782
 31
0.0
  0
LINE
  5
6C9
  8
レイヤー_4
  6
DASHDOT
 62
     7
 10
-70.05283496242906
 20
115.7421913283401
 30
0.0
 11
-70.05283496242906
 21
115.7566607293782
 31
0.0
  0
LINE
  5
6CA
  8
レイヤー_4
  6
DASHDOT
 62
     7
 10
-130.6100343830537
 20
115.0821110333663
 30
0.0
 11
-130.6100343830537
 21
115.5437538283897
 31
0.0
  0
POLYLINE
  5
6CB
  8
レイヤー_4
  6
DASHDOT
 62
     7
 66
     1
 10
0.0
 20
0.0
 30
0.0
  0
VERTEX
  5
6CC
  8
レイヤー_4
  6
DASHDOT
 62
     7
 10
-130.1077394613042
 20
114.8740272660572
 30
0.0
  0
VERTEX
  5
6CD
  8
レイヤー_4
  6
DASHDOT
 62
     7
 10
-130.1359892442833
 20
114.9436181948592
 30
0.0
  0
VERTEX
  5
6CE
  8
レイヤー_4
  6
DASHDOT
 62
     7
 10
-130.2179825168322
 20
115.0049408944966
 30
0.0
  0
VERTEX
  5
6CF
  8
レイヤー_4
  6
DASHDOT
 62
     7
 10
-130.3433839924953
 20
115.050416154902
 30
0.0
  0
VERTEX
  5
6D0
  8
レイヤー_4
  6
DASHDOT
 62
     7
 10
-130.4997913275257
 20
115.0772878996869
 30
0.0
  0
VERTEX
  5
6D1
  8
レイヤー_4
  6
DASHDOT
 62
     7
 10
-130.6100343830537
 20
115.0821110333663
 30
0.0
  0
SEQEND
  5
6D2
  8
レイヤー_4
  6
DASHDOT
 62
     7
  0
POLYLINE
  5
6D3
  8
レイヤー_4
  6
DASHDOT
 62
     7
 66
     1
 10
0.0
 20
0.0
 30
0.0
  0
VERTEX
  5
6D4
  8
レイヤー_4
  6
DASHDOT
 62
     7
 10
-130.6100343830537
 20
115.0821110333663
 30
0.0
  0
VERTEX
  5
6D5
  8
レイヤー_4
  6
DASHDOT
 62
     7
 10
-130.7760879854427
 20
115.0703977087164
 30
0.0
  0
VERTEX
  5
6D6
  8
レイヤー_4
  6
DASHDOT
 62
     7
 10
-130.9242270913084
 20
115.0366357729609
 30
0.0
  0
VERTEX
  5
6D7
  8
レイヤー_4
  6
DASHDOT
 62
     7
 10
-131.0358481850305
 20
114.9842703215852
 30
0.0
  0
VERTEX
  5
6D8
  8
レイヤー_4
  6
DASHDOT
 62
     7
 10
-131.1006159801532
 20
114.9201915455595
 30
0.0
  0
VERTEX
  5
6D9
  8
レイヤー_4
  6
DASHDOT
 62
     7
 10
-131.1130183239001
 20
114.8740272660572
 30
0.0
  0
SEQEND
  5
6DA
  8
レイヤー_4
  6
DASHDOT
 62
     7
  0
LINE
  5
6DB
  8
レイヤー_4
  6
DASHDOT
 62
     7
 10
-191.1672338036783
 20
115.5437538283897
 30
0.0
 11
-191.1672338036783
 21
115.0821110333663
 31
0.0
  0
POLYLINE
  5
6DC
  8
レイヤー_4
  6
DASHDOT
 62
     7
 66
     1
 10
0.0
 20
0.0
 30
0.0
  0
VERTEX
  5
6DD
  8
レイヤー_4
  6
DASHDOT
 62
     7
 10
-191.1672338036783
 20
115.0821110333663
 30
0.0
  0
VERTEX
  5
6DE
  8
レイヤー_4
  6
DASHDOT
 62
     7
 10
-191.3325983869702
 20
115.0703977087164
 30
0.0
  0
VERTEX
  5
6DF
  8
レイヤー_4
  6
DASHDOT
 62
     7
 10
-191.480737492836
 20
115.0366357729609
 30
0.0
  0
VERTEX
  5
6E0
  8
レイヤー_4
  6
DASHDOT
 62
     7
 10
-191.5930476056551
 20
114.9842703215852
 30
0.0
  0
VERTEX
  5
6E1
  8
レイヤー_4
  6
DASHDOT
 62
     7
 10
-191.6571263816808
 20
114.9201915455595
 30
0.0
  0
VERTEX
  5
6E2
  8
レイヤー_4
  6
DASHDOT
 62
     7
 10
-191.6695287254277
 20
114.8740272660572
 30
0.0
  0
SEQEND
  5
6E3
  8
レイヤー_4
  6
DASHDOT
 62
     7
  0
POLYLINE
  5
6E4
  8
レイヤー_4
  6
DASHDOT
 62
     7
 66
     1
 10
0.0
 20
0.0
 30
0.0
  0
VERTEX
  5
6E5
  8
レイヤー_4
  6
DASHDOT
 62
     7
 10
-190.6642498628318
 20
114.8740272660572
 30
0.0
  0
VERTEX
  5
6E6
  8
レイヤー_4
  6
DASHDOT
 62
     7
 10
-190.6924996458108
 20
114.9436181948592
 30
0.0
  0
VERTEX
  5
6E7
  8
レイヤー_4
  6
DASHDOT
 62
     7
 10
-190.7744929183598
 20
115.0049408944966
 30
0.0
  0
VERTEX
  5
6E8
  8
レイヤー_4
  6
DASHDOT
 62
     7
 10
-190.8998943940229
 20
115.050416154902
 30
0.0
  0
VERTEX
  5
6E9
  8
レイヤー_4
  6
DASHDOT
 62
     7
 10
-191.0569907481503
 20
115.0772878996869
 30
0.0
  0
VERTEX
  5
6EA
  8
レイヤー_4
  6
DASHDOT
 62
     7
 10
-191.1672338036783
 20
115.0821110333663
 30
0.0
  0
SEQEND
  5
6EB
  8
レイヤー_4
  6
DASHDOT
 62
     7
  0
LINE
  5
6EC
  8
レイヤー_4
  6
DASHDOT
 62
     7
 10
-70.05283496242906
 20
115.0821110333663
 30
0.0
 11
-70.05283496242906
 21
115.5437538283897
 31
0.0
  0
POLYLINE
  5
6ED
  8
レイヤー_4
  6
DASHDOT
 62
     7
 66
     1
 10
0.0
 20
0.0
 30
0.0
  0
VERTEX
  5
6EE
  8
レイヤー_4
  6
DASHDOT
 62
     7
 10
-70.05283496242906
 20
115.0821110333663
 30
0.0
  0
VERTEX
  5
6EF
  8
レイヤー_4
  6
DASHDOT
 62
     7
 10
-70.21957758391515
 20
115.0703977087164
 30
0.0
  0
VERTEX
  5
6F0
  8
レイヤー_4
  6
DASHDOT
 62
     7
 10
-70.36702767068384
 20
115.0366357729609
 30
0.0
  0
VERTEX
  5
6F1
  8
レイヤー_4
  6
DASHDOT
 62
     7
 10
-70.47933778350298
 20
114.9842703215852
 30
0.0
  0
VERTEX
  5
6F2
  8
レイヤー_4
  6
DASHDOT
 62
     7
 10
-70.54341655952864
 20
114.9201915455595
 30
0.0
  0
VERTEX
  5
6F3
  8
レイヤー_4
  6
DASHDOT
 62
     7
 10
-70.55650792237259
 20
114.8740272660572
 30
0.0
  0
SEQEND
  5
6F4
  8
レイヤー_4
  6
DASHDOT
 62
     7
  0
POLYLINE
  5
6F5
  8
レイヤー_4
  6
DASHDOT
 62
     7
 66
     1
 10
0.0
 20
0.0
 30
0.0
  0
VERTEX
  5
6F6
  8
レイヤー_4
  6
DASHDOT
 62
     7
 10
-69.55054004067964
 20
114.8740272660572
 30
0.0
  0
VERTEX
  5
6F7
  8
レイヤー_4
  6
DASHDOT
 62
     7
 10
-69.57878982365868
 20
114.9436181948592
 30
0.0
  0
VERTEX
  5
6F8
  8
レイヤー_4
  6
DASHDOT
 62
     7
 10
-69.66147211530468
 20
115.0049408944966
 30
0.0
  0
VERTEX
  5
6F9
  8
レイヤー_4
  6
DASHDOT
 62
     7
 10
-69.78687359096777
 20
115.050416154902
 30
0.0
  0
VERTEX
  5
6FA
  8
レイヤー_4
  6
DASHDOT
 62
     7
 10
-69.94328092599811
 20
115.0772878996869
 30
0.0
  0
VERTEX
  5
6FB
  8
レイヤー_4
  6
DASHDOT
 62
     7
 10
-70.05283496242906
 20
115.0821110333663
 30
0.0
  0
SEQEND
  5
6FC
  8
レイヤー_4
  6
DASHDOT
 62
     7
  0
LINE
  5
6FD
  8
レイヤー_4
  6
DASHDOT
 62
     7
 10
-216.2936932157994
 20
109.4059717118686
 30
0.0
 11
-215.79139829405
 21
109.4059717118686
 31
0.0
  0
LINE
  5
6FE
  8
レイヤー_4
  6
DASHDOT
 62
     7
 10
-44.92637555030789
 20
109.4059717118686
 30
0.0
 11
-45.42935949115437
 21
109.4059717118686
 31
0.0
  0
LINE
  5
6FF
  8
レイヤー_4
  6
DASHDOT
 62
     7
 10
-215.79139829405
 20
104.8825613397356
 30
0.0
 11
-216.2936932157994
 21
104.8825613397356
 31
0.0
  0
LINE
  5
700
  8
レイヤー_4
  6
DASHDOT
 62
     7
 10
-216.2936932157994
 20
108.9029877710221
 30
0.0
 11
-215.79139829405
 21
108.9029877710221
 31
0.0
  0
LINE
  5
701
  8
レイヤー_4
  6
DASHDOT
 62
     7
 10
-44.92637555030789
 20
104.8825613397356
 30
0.0
 11
-45.42935949115437
 21
104.8825613397356
 31
0.0
  0
LINE
  5
702
  8
レイヤー_4
  6
DASHDOT
 62
     7
 10
-45.42935949115437
 20
108.9029877710221
 30
0.0
 11
-44.92637555030789
 21
108.9029877710221
 31
0.0
  0
LINE
  5
703
  8
レイヤー_4
  6
DASHDOT
 62
     7
 10
-156.2394777360213
 20
87.39250058021919
 30
0.0
 11
-104.979902010989
 21
87.39250058021919
 31
0.0
  0
LINE
  5
704
  8
レイヤー_4
  6
DASHDOT
 62
     7
 10
-104.979902010989
 20
86.92052249874
 30
0.0
 11
-104.979902010989
 21
87.39250058021919
 31
0.0
  0
LINE
  5
705
  8
レイヤー_4
  6
DASHDOT
 62
     7
 10
-156.2394777360213
 20
87.39250058021919
 30
0.0
 11
-156.2394777360213
 21
86.92052249874
 31
0.0
  0
LINE
  5
706
  8
レイヤー_4
  6
DASHDOT
 62
     7
 10
-156.2394777360213
 20
86.92052249874
 30
0.0
 11
-104.979902010989
 21
86.92052249874
 31
0.0
  0
POLYLINE
  5
707
  8
レイヤー_4
  6
DASHDOT
 62
     7
 66
     1
 10
0.0
 20
0.0
 30
0.0
  0
VERTEX
  5
708
  8
レイヤー_4
  6
DASHDOT
 62
     7
 10
-207.3860543291374
 20
74.3982894289539
 30
0.0
  0
VERTEX
  5
709
  8
レイヤー_4
  6
DASHDOT
 62
     7
 10
-202.4561226897449
 20
76.12359324796701
 30
0.0
  0
VERTEX
  5
70A
  8
レイヤー_4
  6
DASHDOT
 62
     7
 10
-196.4044679603551
 20
78.0245969367278
 30
0.0
  0
VERTEX
  5
70B
  8
レイヤー_4
  6
DASHDOT
 62
     7
 10
-190.1833145330909
 20
79.76437015677898
 30
0.0
  0
VERTEX
  5
70C
  8
レイヤー_4
  6
DASHDOT
 62
     7
 10
-183.8167780763492
 20
81.33671173624698
 30
0.0
  0
VERTEX
  5
70D
  8
レイヤー_4
  6
DASHDOT
 62
     7
 10
-177.3579130606028
 20
82.72853031228799
 30
0.0
  0
VERTEX
  5
70E
  8
レイヤー_4
  6
DASHDOT
 62
     7
 10
-170.8349692688307
 20
83.9343137321254
 30
0.0
  0
VERTEX
  5
70F
  8
レイヤー_4
  6
DASHDOT
 62
     7
 10
-164.2803305985944
 20
84.94923886207998
 30
0.0
  0
VERTEX
  5
710
  8
レイヤー_4
  6
DASHDOT
 62
     7
 10
-157.6995092026702
 20
85.7739947212488
 30
0.0
  0
VERTEX
  5
711
  8
レイヤー_4
  6
DASHDOT
 62
     7
 10
-151.0952611574462
 20
86.41271542421408
 30
0.0
  0
VERTEX
  5
712
  8
レイヤー_4
  6
DASHDOT
 62
     7
 10
-144.4724095966019
 20
86.86884606646119
 30
0.0
  0
VERTEX
  5
713
  8
レイヤー_4
  6
DASHDOT
 62
     7
 10
-137.8350886347196
 20
87.1430756670871
 30
0.0
  0
VERTEX
  5
714
  8
レイヤー_4
  6
DASHDOT
 62
     7
 10
-131.1853653290904
 20
87.2416053979653
 30
0.0
  0
VERTEX
  5
715
  8
レイヤー_4
  6
DASHDOT
 62
     7
 10
-124.5301298706847
 20
87.16512427819269
 30
0.0
  0
VERTEX
  5
716
  8
レイヤー_4
  6
DASHDOT
 62
     7
 10
-117.9038332143552
 20
86.91845544144878
 30
0.0
  0
VERTEX
  5
717
  8
レイヤー_4
  6
DASHDOT
 62
     7
 10
-111.3016522264224
 20
86.4981537922484
 30
0.0
  0
VERTEX
  5
718
  8
レイヤー_4
  6
DASHDOT
 62
     7
 10
-104.7153186777218
 20
85.8987071778149
 30
0.0
  0
VERTEX
  5
719
  8
レイヤー_4
  6
DASHDOT
 62
     7
 10
-98.15034472102968
 20
85.11667050266318
 30
0.0
  0
VERTEX
  5
71A
  8
レイヤー_4
  6
DASHDOT
 62
     7
 10
-91.61362054731664
 20
84.14584259491978
 30
0.0
  0
VERTEX
  5
71B
  8
レイヤー_4
  6
DASHDOT
 62
     7
 10
-85.11134732845609
 20
82.9855344354876
 30
0.0
  0
VERTEX
  5
71C
  8
レイヤー_4
  6
DASHDOT
 62
     7
 10
-78.6511042745156
 20
81.63092289068739
 30
0.0
  0
VERTEX
  5
71D
  8
レイヤー_4
  6
DASHDOT
 62
     7
 10
-72.23840353827156
 20
80.080629922325
 30
0.0
  0
VERTEX
  5
71E
  8
レイヤー_4
  6
DASHDOT
 62
     7
 10
-65.88082432979151
 20
78.3325884731092
 30
0.0
  0
VERTEX
  5
71F
  8
レイヤー_4
  6
DASHDOT
 62
     7
 10
-59.5900799737253
 20
76.3847314857489
 30
0.0
  0
VERTEX
  5
720
  8
レイヤー_4
  6
DASHDOT
 62
     7
 10
-53.83263639877577
 20
74.3913992379834
 30
0.0
  0
SEQEND
  5
721
  8
レイヤー_4
  6
DASHDOT
 62
     7
  0
POLYLINE
  5
722
  8
レイヤー_4
  6
DASHDOT
 62
     7
 66
     1
 10
0.0
 20
0.0
 30
0.0
  0
VERTEX
  5
723
  8
レイヤー_4
  6
DASHDOT
 62
     7
 10
-207.3908774628168
 20
74.9260780572941
 30
0.0
  0
VERTEX
  5
724
  8
レイヤー_4
  6
DASHDOT
 62
     7
 10
-202.8970949118569
 20
76.50668786592679
 30
0.0
  0
VERTEX
  5
725
  8
レイヤー_4
  6
DASHDOT
 62
     7
 10
-196.8461292015641
 20
78.41733782204629
 30
0.0
  0
VERTEX
  5
726
  8
レイヤー_4
  6
DASHDOT
 62
     7
 10
-190.6235977361058
 20
80.1681353476503
 30
0.0
  0
VERTEX
  5
727
  8
レイヤー_4
  6
DASHDOT
 62
     7
 10
-184.25568324117
 20
81.75150123267109
 30
0.0
  0
VERTEX
  5
728
  8
レイヤー_4
  6
DASHDOT
 62
     7
 10
-177.7933731299384
 20
83.1543441142649
 30
0.0
  0
VERTEX
  5
729
  8
レイヤー_4
  6
DASHDOT
 62
     7
 10
-171.2642281662929
 20
84.3711518396551
 30
0.0
  0
VERTEX
  5
72A
  8
レイヤー_4
  6
DASHDOT
 62
     7
 10
-164.702699305086
 20
85.3964122560654
 30
0.0
  0
VERTEX
  5
72B
  8
レイヤー_4
  6
DASHDOT
 62
     7
 10
-158.1149877181913
 20
86.23357045898119
 30
0.0
  0
VERTEX
  5
72C
  8
レイヤー_4
  6
DASHDOT
 62
     7
 10
-151.5031604628998
 20
86.8826264484022
 30
0.0
  0
VERTEX
  5
72D
  8
レイヤー_4
  6
DASHDOT
 62
     7
 10
-144.8720406728909
 20
87.34978139620209
 30
0.0
  0
VERTEX
  5
72E
  8
レイヤー_4
  6
DASHDOT
 62
     7
 10
-138.226451481844
 20
87.63503530238079
 30
0.0
  0
VERTEX
  5
72F
  8
レイヤー_4
  6
DASHDOT
 62
     7
 10
-131.5684599470501
 20
87.7425222815206
 30
0.0
  0
VERTEX
  5
730
  8
レイヤー_4
  6
DASHDOT
 62
     7
 10
-124.9049562594799
 20
87.6770654673008
 30
0.0
  0
VERTEX
  5
731
  8
レイヤー_4
  6
DASHDOT
 62
     7
 10
-118.2690133357917
 20
87.44004289791569
 30
0.0
  0
VERTEX
  5
732
  8
レイヤー_4
  6
DASHDOT
 62
     7
 10
-111.6564970614031
 20
87.0293875160739
 30
0.0
  0
VERTEX
  5
733
  8
レイヤー_4
  6
DASHDOT
 62
     7
 10
-105.0598282262468
 20
86.4402761880962
 30
0.0
  0
VERTEX
  5
734
  8
レイヤー_4
  6
DASHDOT
 62
     7
 10
-98.48451898309892
 20
85.66788578030308
 30
0.0
  0
VERTEX
  5
735
  8
レイヤー_4
  6
DASHDOT
 62
     7
 10
-91.93745952293011
 20
84.70808217811249
 30
0.0
  0
VERTEX
  5
736
  8
レイヤー_4
  6
DASHDOT
 62
     7
 10
-85.42485101761383
 20
83.55810930513609
 30
0.0
  0
VERTEX
  5
737
  8
レイヤー_4
  6
DASHDOT
 62
     7
 10
-78.95220561992643
 20
82.21314402769458
 30
0.0
  0
VERTEX
  5
738
  8
レイヤー_4
  6
DASHDOT
 62
     7
 10
-72.52710253993548
 20
80.6731863457879
 30
0.0
  0
VERTEX
  5
739
  8
レイヤー_4
  6
DASHDOT
 62
     7
 10
-66.1550539304174
 20
78.9354801830279
 30
0.0
  0
VERTEX
  5
73A
  8
レイヤー_4
  6
DASHDOT
 62
     7
 10
-59.84915115421609
 20
76.9979584821234
 30
0.0
  0
VERTEX
  5
73B
  8
レイヤー_4
  6
DASHDOT
 62
     7
 10
-53.83263639877577
 20
74.9302121718765
 30
0.0
  0
SEQEND
  5
73C
  8
レイヤー_4
  6
DASHDOT
 62
     7
  0
LINE
  5
73D
  8
レイヤー_4
  6
DASHDOT
 62
     7
 10
-129.621980997884
 20
116.6262028298552
 30
0.0
 11
-131.5960207109322
 21
116.6262028298552
 31
0.0
  0
LINE
  5
73E
  8
レイヤー_4
  6
DASHDOT
 62
     7
 10
-190.1812474757997
 20
116.6262028298552
 30
0.0
 11
-192.1545981697509
 21
116.6262028298552
 31
0.0
  0
LINE
  5
73F
  8
レイヤー_4
  6
DASHDOT
 62
     7
 10
-69.06547059635645
 20
116.6262028298552
 30
0.0
 11
-71.0395103094046
 21
116.6262028298552
 31
0.0
  0
LINE
  5
740
  8
レイヤー_4
  6
DASHDOT
 62
     7
 10
-130.1077394613042
 20
116.1239079081058
 30
0.0
 11
-131.1130183239001
 21
116.1239079081058
 31
0.0
  0
LINE
  5
741
  8
レイヤー_4
  6
DASHDOT
 62
     7
 10
-190.6642498628318
 20
116.1239079081058
 30
0.0
 11
-191.6695287254277
 21
116.1239079081058
 31
0.0
  0
LINE
  5
742
  8
レイヤー_4
  6
DASHDOT
 62
     7
 10
-69.55054004067964
 20
116.1239079081058
 30
0.0
 11
-70.55650792237259
 21
116.1239079081058
 31
0.0
  0
LINE
  5
743
  8
レイヤー_4
  6
DASHDOT
 62
     7
 10
130.887182348447
 20
119.0033187146776
 30
0.0
 11
130.887182348447
 21
119.505613636427
 31
0.0
  0
POLYLINE
  5
744
  8
レイヤー_4
  6
DASHDOT
 62
     7
 66
     1
 10
0.0
 20
0.0
 30
0.0
  0
VERTEX
  5
745
  8
レイヤー_4
  6
DASHDOT
 62
     7
 10
125.2262014268736
 20
119.3450719887949
 30
0.0
 42
0.0020704022158216
  0
VERTEX
  5
746
  8
レイヤー_4
  6
DASHDOT
 62
     7
 10
124.8716234120367
 20
119.242174001592
 30
0.0
 42
0.0035086668724513
  0
VERTEX
  5
747
  8
レイヤー_4
  6
DASHDOT
 62
     7
 10
124.6630144268736
 20
119.1791039887949
 30
0.0
 42
0.0015323538165331
  0
VERTEX
  5
748
  8
レイヤー_4
  6
DASHDOT
 62
     7
 10
124.3767478467488
 20
119.0893970323266
 30
0.0
 42
-0.0013493018064634
  0
VERTEX
  5
749
  8
レイヤー_4
  6
DASHDOT
 62
     7
 10
124.1024104268736
 20
119.0033179887949
 30
0.0
  0
SEQEND
  5
74A
  8
レイヤー_4
  6
DASHDOT
 62
     7
  0
LINE
  5
74B
  8
レイヤー_4
  6
DASHDOT
 62
     7
 10
129.3796085641017
 20
109.7063840381824
 30
0.0
 11
125.8607880354675
 21
109.7063840381824
 31
0.0
  0
POLYLINE
  5
74C
  8
レイヤー_4
  6
DASHDOT
 62
     7
 66
     1
 10
0.0
 20
0.0
 30
0.0
  0
VERTEX
  5
74D
  8
レイヤー_4
  6
DASHDOT
 62
     7
 10
129.3796084268736
 20
104.6806779887949
 30
0.0
 42
0.1989609163761218
  0
VERTEX
  5
74E
  8
レイヤー_4
  6
DASHDOT
 62
     7
 10
129.734019256452
 20
104.8275185445754
 30
0.0
 42
0.1988638028550522
  0
VERTEX
  5
74F
  8
レイヤー_4
  6
DASHDOT
 62
     7
 10
129.8812144268736
 20
105.1829729896854
 30
0.0
  0
SEQEND
  5
750
  8
レイヤー_4
  6
DASHDOT
 62
     7
  0
POLYLINE
  5
751
  8
レイヤー_4
  6
DASHDOT
 62
     7
 66
     1
 10
0.0
 20
0.0
 30
0.0
  0
VERTEX
  5
752
  8
レイヤー_4
  6
DASHDOT
 62
     7
 10
129.8812144268736
 20
109.2033999887949
 30
0.0
 42
0.1986298716099734
  0
VERTEX
  5
753
  8
レイヤー_4
  6
DASHDOT
 62
     7
 10
129.7339948261234
 20
109.5593666495685
 30
0.0
 42
0.1991949276444243
  0
VERTEX
  5
754
  8
レイヤー_4
  6
DASHDOT
 62
     7
 10
129.3796084268736
 20
109.7063839887949
 30
0.0
  0
SEQEND
  5
755
  8
レイヤー_4
  6
DASHDOT
 62
     7
  0
LINE
  5
756
  8
レイヤー_4
  6
DASHDOT
 62
     7
 10
129.8812144667541
 20
105.1829736660494
 30
0.0
 11
129.8812144667541
 21
109.2034000973359
 31
0.0
  0
LINE
  5
757
  8
レイヤー_4
  6
DASHDOT
 62
     7
 10
98.1298364364975
 20
104.6806787442999
 30
0.0
 11
129.3796085641017
 21
104.6806787442999
 31
0.0
  0
ARC
  5
758
  8
レイヤー_4
  6
DASHDOT
 62
     7
 10
145.9615601691411
 20
48.65352894712622
 30
0.0
 40
73.66760013486848
 50
107.261110845228
 51
130.4881819088983
  0
ARC
  5
759
  8
レイヤー_4
  6
DASHDOT
 62
     7
 10
138.6170878509747
 20
57.31464598954456
 30
0.0
 40
61.80961225246131
 50
129.9753007135621
 51
130.9389567209701
  0
LINE
  5
75A
  8
レイヤー_4
  6
DASHDOT
 62
     7
 10
98.11605605455651
 20
104.668276400553
 30
0.0
 11
98.11605605455651
 21
104.006129048288
 31
0.0
  0
POLYLINE
  5
75B
  8
レイヤー_4
  6
DASHDOT
 62
     7
 66
     1
 10
0.0
 20
0.0
 30
0.0
  0
VERTEX
  5
75C
  8
レイヤー_4
  6
DASHDOT
 62
     7
 10
98.1298364364975
 20
104.6806787442999
 30
0.0
  0
VERTEX
  5
75D
  8
レイヤー_4
  6
DASHDOT
 62
     7
 10
98.12845839830342
 20
104.6793007061058
 30
0.0
  0
VERTEX
  5
75E
  8
レイヤー_4
  6
DASHDOT
 62
     7
 10
98.12639134101232
 20
104.6779226679118
 30
0.0
  0
VERTEX
  5
75F
  8
レイヤー_4
  6
DASHDOT
 62
     7
 10
98.12501330281822
 20
104.6765446297176
 30
0.0
  0
VERTEX
  5
760
  8
レイヤー_4
  6
DASHDOT
 62
     7
 10
98.122946245527
 20
104.6744775724265
 30
0.0
  0
VERTEX
  5
761
  8
レイヤー_4
  6
DASHDOT
 62
     7
 10
98.1215682073329
 20
104.6730995342324
 30
0.0
  0
VERTEX
  5
762
  8
レイヤー_4
  6
DASHDOT
 62
     7
 10
98.11950115004171
 20
104.6717214960383
 30
0.0
  0
VERTEX
  5
763
  8
レイヤー_4
  6
DASHDOT
 62
     7
 10
98.11812311184772
 20
104.6703434578442
 30
0.0
  0
VERTEX
  5
764
  8
レイヤー_4
  6
DASHDOT
 62
     7
 10
98.11605605455651
 20
104.668276400553
 30
0.0
  0
SEQEND
  5
765
  8
レイヤー_4
  6
DASHDOT
 62
     7
  0
POLYLINE
  5
766
  8
レイヤー_4
  6
DASHDOT
 62
     7
 66
     1
 10
0.0
 20
0.0
 30
0.0
  0
VERTEX
  5
767
  8
レイヤー_4
  6
DASHDOT
 62
     7
 10
125.3894984268736
 20
118.8668919887949
 30
0.0
 42
0.0132758593264965
  0
VERTEX
  5
768
  8
レイヤー_4
  6
DASHDOT
 62
     7
 10
121.7255469225997
 20
117.7139255716886
 30
0.0
 42
0.0134935521382651
  0
VERTEX
  5
769
  8
レイヤー_4
  6
DASHDOT
 62
     7
 10
118.1865894268736
 20
116.3882969887949
 30
0.0
 42
0.0101407669081026
  0
VERTEX
  5
76A
  8
レイヤー_4
  6
DASHDOT
 62
     7
 10
115.5953445805804
 20
115.2753743883168
 30
0.0
 42
0.0101545041117975
  0
VERTEX
  5
76B
  8
レイヤー_4
  6
DASHDOT
 62
     7
 10
113.0551544268736
 20
114.0600199887949
 30
0.0
 42
0.0150464504856677
  0
VERTEX
  5
76C
  8
レイヤー_4
  6
DASHDOT
 62
     7
 10
109.3721569961137
 20
112.063940798696
 30
0.0
 42
0.0148187949470549
  0
VERTEX
  5
76D
  8
レイヤー_4
  6
DASHDOT
 62
     7
 10
105.7602904268737
 20
109.8176339887949
 30
0.0
 42
0.0143018373208099
  0
VERTEX
  5
76E
  8
レイヤー_4
  6
DASHDOT
 62
     7
 10
102.3206357025374
 20
107.3898561115932
 30
0.0
 42
0.0138164495710348
  0
VERTEX
  5
76F
  8
レイヤー_4
  6
DASHDOT
 62
     7
 10
98.90704942687361
 20
104.6806779887949
 30
0.0
  0
SEQEND
  5
770
  8
レイヤー_4
  6
DASHDOT
 62
     7
  0
LINE
  5
771
  8
レイヤー_4
  6
DASHDOT
 62
     7
 10
78.91860597255032
 20
77.9536279697317
 30
0.0
 11
78.91860597255032
 21
79.18697215345121
 31
0.0
  0
ARC
  5
772
  8
レイヤー_4
  6
DASHDOT
 62
     7
 10
145.94061071345
 20
48.66606985548283
 30
0.0
 40
73.14171299460166
 50
130.8333837746751
 51
156.395431534131
  0
ARC
  5
773
  8
レイヤー_4
  6
DASHDOT
 62
     7
 10
145.9354518408202
 20
48.66918280576409
 30
0.0
 40
73.63825837702338
 50
130.495060638312
 51
155.5166715263227
  0
POLYLINE
  5
774
  8
レイヤー_4
  6
DASHDOT
 62
     7
 66
     1
 10
0.0
 20
0.0
 30
0.0
  0
VERTEX
  5
775
  8
レイヤー_4
  6
DASHDOT
 62
     7
 10
74.49165827400432
 20
75.4469764946639
 30
0.0
  0
VERTEX
  5
776
  8
レイヤー_4
  6
DASHDOT
 62
     7
 10
76.03575007049321
 20
78.96441898510399
 30
0.0
  0
VERTEX
  5
777
  8
レイヤー_4
  6
DASHDOT
 62
     7
 10
77.494403498948
 20
81.88999407117821
 30
0.0
  0
VERTEX
  5
778
  8
レイヤー_4
  6
DASHDOT
 62
     7
 10
78.78838136320792
 20
84.24092723031261
 30
0.0
  0
VERTEX
  5
779
  8
レイヤー_4
  6
DASHDOT
 62
     7
 10
79.87703153654681
 20
86.0833642958243
 30
0.0
  0
VERTEX
  5
77A
  8
レイヤー_4
  6
DASHDOT
 62
     7
 10
80.6783607464159
 20
87.362183739949
 30
0.0
  0
VERTEX
  5
77B
  8
レイヤー_4
  6
DASHDOT
 62
     7
 10
81.1517168660892
 20
88.08840986823971
 30
0.0
  0
VERTEX
  5
77C
  8
レイヤー_4
  6
DASHDOT
 62
     7
 10
81.2764293226553
 20
88.27651208173428
 30
0.0
  0
VERTEX
  5
77D
  8
レイヤー_4
  6
DASHDOT
 62
     7
 10
81.12208904491612
 20
88.0443126460285
 30
0.0
  0
VERTEX
  5
77E
  8
レイヤー_4
  6
DASHDOT
 62
     7
 10
80.71212268217141
 20
87.41386017222779
 30
0.0
  0
VERTEX
  5
77F
  8
レイヤー_4
  6
DASHDOT
 62
     7
 10
80.06306669275031
 20
86.3803315266528
 30
0.0
  0
VERTEX
  5
780
  8
レイヤー_4
  6
DASHDOT
 62
     7
 10
79.17078696207062
 20
84.90238556348059
 30
0.0
  0
VERTEX
  5
781
  8
レイヤー_4
  6
DASHDOT
 62
     7
 10
78.08351482692572
 20
82.9848454163906
 30
0.0
  0
VERTEX
  5
782
  8
レイヤー_4
  6
DASHDOT
 62
     7
 10
76.84259143313872
 20
80.6166867798298
 30
0.0
  0
VERTEX
  5
783
  8
レイヤー_4
  6
DASHDOT
 62
     7
 10
75.68917346467711
 20
78.21201013112538
 30
0.0
  0
VERTEX
  5
784
  8
レイヤー_4
  6
DASHDOT
 62
     7
 10
74.49165827400432
 20
75.4469764946639
 30
0.0
  0
SEQEND
  5
785
  8
レイヤー_4
  6
DASHDOT
 62
     7
  0
POLYLINE
  5
786
  8
レイヤー_4
  6
DASHDOT
 62
     7
 66
     1
 10
0.0
 20
0.0
 30
0.0
  0
VERTEX
  5
787
  8
レイヤー_4
  6
DASHDOT
 62
     7
 10
74.49165742687362
 20
75.4469759887949
 30
0.0
 42
0.0499273165417457
  0
VERTEX
  5
788
  8
レイヤー_4
  6
DASHDOT
 62
     7
 10
74.98469475133899
 20
75.29103738246734
 30
0.0
 42
0.0503173086210984
  0
VERTEX
  5
789
  8
レイヤー_4
  6
DASHDOT
 62
     7
 10
75.4947944268736
 20
75.2367609887949
 30
0.0
 42
0.0723267729377635
  0
VERTEX
  5
78A
  8
レイヤー_4
  6
DASHDOT
 62
     7
 10
76.2299529378028
 20
75.33957020872369
 30
0.0
 42
0.0720438621300702
  0
VERTEX
  5
78B
  8
レイヤー_4
  6
DASHDOT
 62
     7
 10
76.9082374268736
 20
75.64833898879489
 30
0.0
 42
0.0745532802563375
  0
VERTEX
  5
78C
  8
レイヤー_4
  6
DASHDOT
 62
     7
 10
77.48125310641569
 20
76.15076889476812
 30
0.0
 42
0.0742818350616382
  0
VERTEX
  5
78D
  8
レイヤー_4
  6
DASHDOT
 62
     7
 10
77.8836992887812
 20
76.80158803946411
 30
0.0
  0
VERTEX
  5
78E
  8
レイヤー_4
  6
DASHDOT
 62
     7
 10
77.93675375925412
 20
76.93250166790371
 30
0.0
  0
SEQEND
  5
78F
  8
レイヤー_4
  6
DASHDOT
 62
     7
  0
POLYLINE
  5
790
  8
レイヤー_4
  6
DASHDOT
 62
     7
 66
     1
 10
0.0
 20
0.0
 30
0.0
  0
VERTEX
  5
791
  8
レイヤー_4
  6
DASHDOT
 62
     7
 10
84.2653934268736
 20
88.92694598879488
 30
0.0
 42
0.0085957624093206
  0
VERTEX
  5
792
  8
レイヤー_4
  6
DASHDOT
 62
     7
 10
83.74151973846071
 20
88.14453214894529
 30
0.0
 42
0.0091672268136858
  0
VERTEX
  5
793
  8
レイヤー_4
  6
DASHDOT
 62
     7
 10
83.2766514268736
 20
87.3938779887949
 30
0.0
  0
SEQEND
  5
794
  8
レイヤー_4
  6
DASHDOT
 62
     7
  0
ARC
  5
795
  8
レイヤー_4
  6
DASHDOT
 62
     7
 10
141.3495373383442
 20
51.10435124148988
 30
0.0
 40
68.47097542534343
 50
146.2764577391463
 51
157.838836483837
  0
POLYLINE
  5
796
  8
レイヤー_4
  6
DASHDOT
 62
     7
 66
     1
 10
0.0
 20
0.0
 30
0.0
  0
VERTEX
  5
797
  8
レイヤー_4
  6
DASHDOT
 62
     7
 10
74.26497099107482
 20
74.9563948975643
 30
0.0
  0
VERTEX
  5
798
  8
レイヤー_4
  6
DASHDOT
 62
     7
 10
75.49280302201791
 20
77.79101946282789
 30
0.0
  0
VERTEX
  5
799
  8
レイヤー_4
  6
DASHDOT
 62
     7
 10
76.67791586894381
 20
80.25564077297558
 30
0.0
  0
VERTEX
  5
79A
  8
レイヤー_4
  6
DASHDOT
 62
     7
 10
77.88921144155762
 20
82.5645437671901
 30
0.0
  0
VERTEX
  5
79B
  8
レイヤー_4
  6
DASHDOT
 62
     7
 10
78.9530569274028
 20
84.4407427684571
 30
0.0
  0
VERTEX
  5
79C
  8
レイヤー_4
  6
DASHDOT
 62
     7
 10
79.8315562761415
 20
85.89526208232958
 30
0.0
  0
VERTEX
  5
79D
  8
レイヤー_4
  6
DASHDOT
 62
     7
 10
80.49783774298882
 20
86.9563514917866
 30
0.0
  0
VERTEX
  5
79E
  8
レイヤー_4
  6
DASHDOT
 62
     7
 10
80.91331625851001
 20
87.5971392520431
 30
0.0
  0
VERTEX
  5
79F
  8
レイヤー_4
  6
DASHDOT
 62
     7
 10
81.0642114407639
 20
87.82244849677839
 30
0.0
  0
VERTEX
  5
7A0
  8
レイヤー_4
  6
DASHDOT
 62
     7
 10
80.9312307550332
 20
87.61918786314858
 30
0.0
  0
VERTEX
  5
7A1
  8
レイヤー_4
  6
DASHDOT
 62
     7
 10
80.4661428645245
 20
86.907431135896
 30
0.0
  0
VERTEX
  5
7A2
  8
レイヤー_4
  6
DASHDOT
 62
     7
 10
79.69306343763452
 20
85.6747759712736
 30
0.0
  0
VERTEX
  5
7A3
  8
レイヤー_4
  6
DASHDOT
 62
     7
 10
78.64851048650672
 20
83.9129541401169
 30
0.0
  0
VERTEX
  5
7A4
  8
レイヤー_4
  6
DASHDOT
 62
     7
 10
77.3331730302383
 20
81.5344602171004
 30
0.0
  0
VERTEX
  5
7A5
  8
レイヤー_4
  6
DASHDOT
 62
     7
 10
75.8469588379015
 20
78.55583066055338
 30
0.0
  0
VERTEX
  5
7A6
  8
レイヤー_4
  6
DASHDOT
 62
     7
 10
74.26497099107482
 20
74.9563948975643
 30
0.0
  0
SEQEND
  5
7A7
  8
レイヤー_4
  6
DASHDOT
 62
     7
  0
POLYLINE
  5
7A8
  8
レイヤー_4
  6
DASHDOT
 62
     7
 66
     1
 10
0.0
 20
0.0
 30
0.0
  0
VERTEX
  5
7A9
  8
レイヤー_4
  6
DASHDOT
 62
     7
 10
74.26497042687362
 20
74.95639398879489
 30
0.0
 42
0.0498889102229356
  0
VERTEX
  5
7AA
  8
レイヤー_4
  6
DASHDOT
 62
     7
 10
74.8644337441576
 20
74.7731494302419
 30
0.0
 42
0.0502974371146737
  0
VERTEX
  5
7AB
  8
レイヤー_4
  6
DASHDOT
 62
     7
 10
75.48332842687361
 20
74.7132679887949
 30
0.0
 42
0.0723011261754765
  0
VERTEX
  5
7AC
  8
レイヤー_4
  6
DASHDOT
 62
     7
 10
76.37299226897494
 20
74.84627497411823
 30
0.0
 42
0.0720387072297982
  0
VERTEX
  5
7AD
  8
レイヤー_4
  6
DASHDOT
 62
     7
 10
77.19112142687362
 20
75.2280249887949
 30
0.0
 42
0.0365281807998487
  0
VERTEX
  5
7AE
  8
レイヤー_4
  6
DASHDOT
 62
     7
 10
77.55362566086055
 20
75.50557397046911
 30
0.0
 42
0.0366576274099551
  0
VERTEX
  5
7AF
  8
レイヤー_4
  6
DASHDOT
 62
     7
 10
77.8704464268736
 20
75.83161798879489
 30
0.0
 42
0.0379133354556523
  0
VERTEX
  5
7B0
  8
レイヤー_4
  6
DASHDOT
 62
     7
 10
78.14402807420885
 20
76.21323304583855
 30
0.0
 42
0.0375678112297293
  0
VERTEX
  5
7B1
  8
レイヤー_4
  6
DASHDOT
 62
     7
 10
78.35912246574571
 20
76.6355344370751
 30
0.0
  0
VERTEX
  5
7B2
  8
レイヤー_4
  6
DASHDOT
 62
     7
 10
78.3990855733746
 20
76.73957632072968
 30
0.0
  0
SEQEND
  5
7B3
  8
レイヤー_4
  6
DASHDOT
 62
     7
  0
POLYLINE
  5
7B4
  8
レイヤー_4
  6
DASHDOT
 62
     7
 66
     1
 10
0.0
 20
0.0
 30
0.0
  0
VERTEX
  5
7B5
  8
レイヤー_4
  6
DASHDOT
 62
     7
 10
84.81936551968622
 20
88.84150774131528
 30
0.0
  0
VERTEX
  5
7B6
  8
レイヤー_4
  6
DASHDOT
 62
     7
 10
84.8565725509269
 20
88.8966292690793
 30
0.0
  0
VERTEX
  5
7B7
  8
レイヤー_4
  6
DASHDOT
 62
     7
 10
84.80903023323052
 20
88.8284163784714
 30
0.0
  0
SEQEND
  5
7B8
  8
レイヤー_4
  6
DASHDOT
 62
     7
  0
ARC
  5
7B9
  8
レイヤー_4
  6
DASHDOT
 62
     7
 10
142.5556083018089
 20
50.50098809958205
 30
0.0
 40
69.31466598378059
 50
146.6216668822727
 51
157.7565322036232
  0
LINE
  5
7BA
  8
レイヤー_4
  6
DASHDOT
 62
     7
 10
74.26497099107482
 20
74.9563948975643
 30
0.0
 11
73.99143040954601
 21
75.0838634305186
 31
0.0
  0
LINE
  5
7BB
  8
レイヤー_4
  6
DASHDOT
 62
     7
 10
73.99143040954601
 20
75.6791759303698
 30
0.0
 11
73.99143040954601
 21
75.0838634305186
 31
0.0
  0
LINE
  5
7BC
  8
レイヤー_4
  6
DASHDOT
 62
     7
 10
74.49165827400432
 20
75.4469764946639
 30
0.0
 11
73.99143040954601
 21
75.6791759303698
 31
0.0
  0
POLYLINE
  5
7BD
  8
レイヤー_4
  6
DASHDOT
 62
     7
 66
     1
 10
0.0
 20
0.0
 30
0.0
  0
VERTEX
  5
7BE
  8
レイヤー_4
  6
DASHDOT
 62
     7
 10
78.91860542687358
 20
77.95362698879485
 30
0.0
 42
0.0023975566368605
  0
VERTEX
  5
7BF
  8
レイヤー_4
  6
DASHDOT
 62
     7
 10
78.68183102829153
 20
77.40757022788881
 30
0.0
 42
0.0019672948514014
  0
VERTEX
  5
7C0
  8
レイヤー_4
  6
DASHDOT
 62
     7
 10
78.3990854268736
 20
76.7395759887949
 30
0.0
  0
SEQEND
  5
7C1
  8
レイヤー_4
  6
DASHDOT
 62
     7
  0
POLYLINE
  5
7C2
  8
レイヤー_4
  6
DASHDOT
 62
     7
 66
     1
 10
0.0
 20
0.0
 30
0.0
  0
VERTEX
  5
7C3
  8
レイヤー_4
  6
DASHDOT
 62
     7
 10
78.91860542687358
 20
79.18697198879487
 30
0.0
 42
0.0043017045872028
  0
VERTEX
  5
7C4
  8
レイヤー_4
  6
DASHDOT
 62
     7
 10
78.4037390869557
 20
78.03201236054025
 30
0.0
 42
0.0045537284580986
  0
VERTEX
  5
7C5
  8
レイヤー_4
  6
DASHDOT
 62
     7
 10
77.93675342687362
 20
76.93250098879494
 30
0.0
  0
SEQEND
  5
7C6
  8
レイヤー_4
  6
DASHDOT
 62
     7
  0
ARC
  5
7C7
  8
レイヤー_4
  6
DASHDOT
 62
     7
 10
-159.8299705457706
 20
-179.9767293672397
 30
0.0
 40
346.4569085156879
 50
47.55414527614465
 51
50.19361586853456
  0
POLYLINE
  5
7C8
  8
レイヤー_4
  6
DASHDOT
 62
     7
 66
     1
 10
0.0
 20
0.0
 30
0.0
  0
VERTEX
  5
7C9
  8
レイヤー_4
  6
DASHDOT
 62
     7
 10
53.62126982436072
 20
101.1404986236572
 30
0.0
  0
VERTEX
  5
7CA
  8
レイヤー_4
  6
DASHDOT
 62
     7
 10
53.60680042332271
 20
101.1680593875392
 30
0.0
  0
VERTEX
  5
7CB
  8
レイヤー_4
  6
DASHDOT
 62
     7
 10
53.79421361772032
 20
100.8311290490818
 30
0.0
  0
VERTEX
  5
7CC
  8
レイヤー_4
  6
DASHDOT
 62
     7
 10
54.42397707242401
 20
99.70871693998738
 30
0.0
  0
VERTEX
  5
7CD
  8
レイヤー_4
  6
DASHDOT
 62
     7
 10
55.46853002355172
 20
97.84423126337019
 30
0.0
  0
VERTEX
  5
7CE
  8
レイヤー_4
  6
DASHDOT
 62
     7
 10
56.95198813950032
 20
95.1921967588248
 30
0.0
  0
VERTEX
  5
7CF
  8
レイヤー_4
  6
DASHDOT
 62
     7
 10
58.81785185431161
 20
91.84563100445318
 30
0.0
  0
VERTEX
  5
7D0
  8
レイヤー_4
  6
DASHDOT
 62
     7
 10
60.31509035220122
 20
89.1570784877642
 30
0.0
  0
VERTEX
  5
7D1
  8
レイヤー_4
  6
DASHDOT
 62
     7
 10
61.97011422331522
 20
86.175692854829
 30
0.0
  0
SEQEND
  5
7D2
  8
レイヤー_4
  6
DASHDOT
 62
     7
  0
ARC
  5
7D3
  8
レイヤー_4
  6
DASHDOT
 62
     7
 10
-159.313369653759
 20
-179.6669808269882
 30
0.0
 40
345.440475889106
 50
47.51606119165351
 51
50.16465340858677
  0
POLYLINE
  5
7D4
  8
レイヤー_4
  6
DASHDOT
 62
     7
 66
     1
 10
0.0
 20
0.0
 30
0.0
  0
VERTEX
  5
7D5
  8
レイヤー_4
  6
DASHDOT
 62
     7
 10
53.62126982436072
 20
100.5879053078231
 30
0.0
  0
VERTEX
  5
7D6
  8
レイヤー_4
  6
DASHDOT
 62
     7
 10
53.60542238512861
 20
100.6147770526081
 30
0.0
  0
VERTEX
  5
7D7
  8
レイヤー_4
  6
DASHDOT
 62
     7
 10
53.790768522235
 20
100.283358866927
 30
0.0
  0
VERTEX
  5
7D8
  8
レイヤー_4
  6
DASHDOT
 62
     7
 10
54.4143308050653
 20
99.1692149869972
 30
0.0
  0
VERTEX
  5
7D9
  8
レイヤー_4
  6
DASHDOT
 62
     7
 10
55.45199356522252
 20
97.31230852044759
 30
0.0
  0
VERTEX
  5
7DA
  8
レイヤー_4
  6
DASHDOT
 62
     7
 10
56.92718345200652
 20
94.66785322596981
 30
0.0
  0
VERTEX
  5
7DB
  8
レイヤー_4
  6
DASHDOT
 62
     7
 10
58.7868459949444
 20
91.3302447198598
 30
0.0
  0
VERTEX
  5
7DC
  8
レイヤー_4
  6
DASHDOT
 62
     7
 10
60.29717585567792
 20
88.6113753629006
 30
0.0
  0
VERTEX
  5
7DD
  8
レイヤー_4
  6
DASHDOT
 62
     7
 10
61.97011422331522
 20
85.59278269872469
 30
0.0
  0
SEQEND
  5
7DE
  8
レイヤー_4
  6
DASHDOT
 62
     7
  0
LINE
  5
7DF
  8
レイヤー_4
  6
DASHDOT
 62
     7
 10
61.97011422331522
 20
85.59278269872469
 30
0.0
 11
61.97011422331522
 21
86.175692854829
 31
0.0
  0
LINE
  5
7E0
  8
レイヤー_4
  6
DASHDOT
 62
     7
 10
116.2021183330211
 20
116.0426036546539
 30
0.0
 11
116.1952281420506
 21
116.057073055692
 31
0.0
  0
LINE
  5
7E1
  8
レイヤー_4
  6
DASHDOT
 62
     7
 10
115.2857229339446
 20
115.630570234618
 30
0.0
 11
114.68420926222
 21
116.9204139842956
 31
0.0
  0
ARC
  5
7E2
  8
レイヤー_4
  6
DASHDOT
 62
     7
 10
114.829375046584
 20
115.4205203463113
 30
0.0
 40
1.506902130271111
 50
24.98776506875415
 51
95.52809977727627
  0
POLYLINE
  5
7E3
  8
レイヤー_4
  6
DASHDOT
 62
     7
 66
     1
 10
0.0
 20
0.0
 30
0.0
  0
VERTEX
  5
7E4
  8
レイヤー_4
  6
DASHDOT
 62
     7
 10
116.2021174268736
 20
116.0426029887949
 30
0.0
 42
0.0019144768371894
  0
VERTEX
  5
7E5
  8
レイヤー_4
  6
DASHDOT
 62
     7
 10
115.7939977374434
 20
115.8609779112217
 30
0.0
 42
0.0015322637348359
  0
VERTEX
  5
7E6
  8
レイヤー_4
  6
DASHDOT
 62
     7
 10
115.2857224268736
 20
115.6305699887949
 30
0.0
  0
SEQEND
  5
7E7
  8
レイヤー_4
  6
DASHDOT
 62
     7
  0
LINE
  5
7E8
  8
レイヤー_4
  6
DASHDOT
 62
     7
 10
84.1641083583917
 20
91.3123302233365
 30
0.0
 11
85.3299286706002
 21
90.49584259333228
 31
0.0
  0
LINE
  5
7E9
  8
レイヤー_4
  6
DASHDOT
 62
     7
 10
84.7635549728252
 20
89.66488556229
 30
0.0
 11
84.75115262907832
 21
89.6731537914546
 31
0.0
  0
POLYLINE
  5
7EA
  8
レイヤー_4
  6
DASHDOT
 62
     7
 66
     1
 10
0.0
 20
0.0
 30
0.0
  0
VERTEX
  5
7EB
  8
レイヤー_4
  6
DASHDOT
 62
     7
 10
84.16410742687361
 20
91.3123299887949
 30
0.0
 42
0.1552655683041202
  0
VERTEX
  5
7EC
  8
レイヤー_4
  6
DASHDOT
 62
     7
 10
84.19639735713042
 20
90.40042442051073
 30
0.0
 42
0.1553164175327327
  0
VERTEX
  5
7ED
  8
レイヤー_4
  6
DASHDOT
 62
     7
 10
84.7511524268736
 20
89.67315298879488
 30
0.0
  0
SEQEND
  5
7EE
  8
レイヤー_4
  6
DASHDOT
 62
     7
  0
POLYLINE
  5
7EF
  8
レイヤー_4
  6
DASHDOT
 62
     7
 66
     1
 10
0.0
 20
0.0
 30
0.0
  0
VERTEX
  5
7F0
  8
レイヤー_4
  6
DASHDOT
 62
     7
 10
85.32992842687361
 20
90.49584198879492
 30
0.0
 42
0.0018525375049199
  0
VERTEX
  5
7F1
  8
レイヤー_4
  6
DASHDOT
 62
     7
 10
85.08219320696303
 20
90.1352544600767
 30
0.0
 42
0.001426298288585
  0
VERTEX
  5
7F2
  8
レイヤー_4
  6
DASHDOT
 62
     7
 10
84.76355442687363
 20
89.66488498879488
 30
0.0
  0
SEQEND
  5
7F3
  8
レイヤー_4
  6
DASHDOT
 62
     7
  0
ARC
  5
7F4
  8
レイヤー_4
  6
DASHDOT
 62
     7
 10
145.9686109923105
 20
48.64165082578562
 30
0.0
 40
75.18878379654045
 50
114.9995957730444
 51
144.9952383087016
  0
ARC
  5
7F5
  8
レイヤー_4
  6
DASHDOT
 62
     7
 10
85.61386025046926
 20
90.91128560748466
 30
0.0
 40
1.504199897781646
 50
145.0360400023647
 51
164.536968254656
  0
POLYLINE
  5
7F6
  8
レイヤー_4
  6
DASHDOT
 62
     7
 66
     1
 10
0.0
 20
0.0
 30
0.0
  0
VERTEX
  5
7F7
  8
レイヤー_4
  6
DASHDOT
 62
     7
 10
114.6842084268736
 20
116.9204129887949
 30
0.0
 42
0.0425450424295645
  0
VERTEX
  5
7F8
  8
レイヤー_4
  6
DASHDOT
 62
     7
 10
114.4319414853916
 20
116.8740125504415
 30
0.0
 42
0.0428744507312466
  0
VERTEX
  5
7F9
  8
レイヤー_4
  6
DASHDOT
 62
     7
 10
114.1929384268736
 20
116.7860549887949
 30
0.0
  0
SEQEND
  5
7FA
  8
レイヤー_4
  6
DASHDOT
 62
     7
  0
LINE
  5
7FB
  8
レイヤー_4
  6
DASHDOT
 62
     7
 10
114.9170977170229
 20
116.4208751389343
 30
0.0
 11
115.497940815836
 21
115.174439592371
 31
0.0
  0
LINE
  5
7FC
  8
レイヤー_4
  6
DASHDOT
 62
     7
 10
115.9568275344713
 20
115.38252335968
 30
0.0
 11
115.7411645570947
 21
115.8441661547035
 31
0.0
  0
POLYLINE
  5
7FD
  8
レイヤー_4
  6
DASHDOT
 62
     7
 66
     1
 10
0.0
 20
0.0
 30
0.0
  0
VERTEX
  5
7FE
  8
レイヤー_4
  6
DASHDOT
 62
     7
 10
115.7411644268736
 20
115.8441659887949
 30
0.0
 42
0.1313373544230233
  0
VERTEX
  5
7FF
  8
レイヤー_4
  6
DASHDOT
 62
     7
 10
115.4055079654295
 20
116.2434146229179
 30
0.0
 42
0.1317662102925539
  0
VERTEX
  5
800
  8
レイヤー_4
  6
DASHDOT
 62
     7
 10
114.9170974268736
 20
116.4208749887949
 30
0.0
  0
SEQEND
  5
801
  8
レイヤー_4
  6
DASHDOT
 62
     7
  0
POLYLINE
  5
802
  8
レイヤー_4
  6
DASHDOT
 62
     7
 66
     1
 10
0.0
 20
0.0
 30
0.0
  0
VERTEX
  5
803
  8
レイヤー_4
  6
DASHDOT
 62
     7
 10
115.9568274268736
 20
115.3825229887949
 30
0.0
 42
0.0023926852434985
  0
VERTEX
  5
804
  8
レイヤー_4
  6
DASHDOT
 62
     7
 10
115.7676951213998
 20
115.297849107233
 30
0.0
 42
0.0016715861056887
  0
VERTEX
  5
805
  8
レイヤー_4
  6
DASHDOT
 62
     7
 10
115.4979404268736
 20
115.1744389887949
 30
0.0
  0
SEQEND
  5
806
  8
レイヤー_4
  6
DASHDOT
 62
     7
  0
LINE
  5
807
  8
レイヤー_4
  6
DASHDOT
 62
     7
 10
85.73989503334502
 20
90.20783261076541
 30
0.0
 11
84.61472684786241
 21
90.99607045779048
 31
0.0
  0
POLYLINE
  5
808
  8
レイヤー_4
  6
DASHDOT
 62
     7
 66
     1
 10
0.0
 20
0.0
 30
0.0
  0
VERTEX
  5
809
  8
レイヤー_4
  6
DASHDOT
 62
     7
 10
84.6147264268736
 20
90.9960699887949
 30
0.0
 42
0.1316887622258406
  0
VERTEX
  5
80A
  8
レイヤー_4
  6
DASHDOT
 62
     7
 10
84.70423402369858
 20
90.48527198527721
 30
0.0
 42
0.1310570477190164
  0
VERTEX
  5
80B
  8
レイヤー_4
  6
DASHDOT
 62
     7
 10
85.03847342687362
 20
90.08518698879489
 30
0.0
  0
SEQEND
  5
80C
  8
レイヤー_4
  6
DASHDOT
 62
     7
  0
LINE
  5
80D
  8
レイヤー_4
  6
DASHDOT
 62
     7
 10
85.03847359254812
 20
90.08518721149049
 30
0.0
 11
85.4560191653604
 21
89.7930431143413
 31
0.0
  0
LINE
  5
80E
  8
レイヤー_4
  6
DASHDOT
 62
     7
 10
85.73989503334502
 20
90.20783261076541
 30
0.0
 11
85.4560191653604
 21
89.7930431143413
 31
0.0
  0
POLYLINE
  5
80F
  8
レイヤー_4
  6
DASHDOT
 62
     7
 66
     1
 10
0.0
 20
0.0
 30
0.0
  0
VERTEX
  5
810
  8
レイヤー_4
  6
DASHDOT
 62
     7
 10
84.79318242687361
 20
91.4852739887949
 30
0.0
 42
0.0652887443604036
  0
VERTEX
  5
811
  8
レイヤー_4
  6
DASHDOT
 62
     7
 10
84.67208923445125
 20
91.25286498136747
 30
0.0
 42
0.0651767313672458
  0
VERTEX
  5
812
  8
レイヤー_4
  6
DASHDOT
 62
     7
 10
84.61472642687357
 20
90.9960699887949
 30
0.0
  0
SEQEND
  5
813
  8
レイヤー_4
  6
DASHDOT
 62
     7
  0
POLYLINE
  5
814
  8
レイヤー_4
  6
DASHDOT
 62
     7
 66
     1
 10
0.0
 20
0.0
 30
0.0
  0
VERTEX
  5
815
  8
レイヤー_4
  6
DASHDOT
 62
     7
 10
114.9170974268736
 20
116.4208749887949
 30
0.0
 42
0.0653249781115915
  0
VERTEX
  5
816
  8
レイヤー_4
  6
DASHDOT
 62
     7
 10
114.6532865729921
 20
116.4092423627389
 30
0.0
 42
0.0662700179358165
  0
VERTEX
  5
817
  8
レイヤー_4
  6
DASHDOT
 62
     7
 10
114.4051564268736
 20
116.3306129887949
 30
0.0
  0
SEQEND
  5
818
  8
レイヤー_4
  6
DASHDOT
 62
     7
  0
ARC
  5
819
  8
レイヤー_4
  6
DASHDOT
 62
     7
 10
145.9603375767455
 20
48.65228189743046
 30
0.0
 40
74.67319491025951
 50
114.9973968929642
 51
144.9979326250857
  0
LINE
  5
81A
  8
レイヤー_4
  6
DASHDOT
 62
     7
 10
88.11907797545851
 20
96.53785105536339
 30
0.0
 11
89.20772814879751
 21
95.62352271357808
 31
0.0
  0
LINE
  5
81B
  8
レイヤー_4
  6
DASHDOT
 62
     7
 10
88.5731415604144
 20
94.8442421148146
 30
0.0
 11
88.5607392166676
 21
94.85388838217328
 31
0.0
  0
ARC
  5
81C
  8
レイヤー_4
  6
DASHDOT
 62
     7
 10
89.53280353854791
 20
96.0087361909995
 30
0.0
 40
1.5094974353815
 50
159.4806400626129
 51
229.9118410050335
  0
ARC
  5
81D
  8
レイヤー_4
  6
DASHDOT
 62
     7
 10
181.8287883041898
 20
19.55198716699859
 30
0.0
 40
119.8563277625575
 50
140.6030515700702
 51
141.083469246029
  0
POLYLINE
  5
81E
  8
レイヤー_4
  6
DASHDOT
 62
     7
 66
     1
 10
0.0
 20
0.0
 30
0.0
  0
VERTEX
  5
81F
  8
レイヤー_4
  6
DASHDOT
 62
     7
 10
88.37539242687362
 20
96.9788229887949
 30
0.0
 42
0.0434919749622439
  0
VERTEX
  5
820
  8
レイヤー_4
  6
DASHDOT
 62
     7
 10
88.23004778007072
 20
96.77238580468567
 30
0.0
 42
0.0423149608983205
  0
VERTEX
  5
821
  8
レイヤー_4
  6
DASHDOT
 62
     7
 10
88.11907742687362
 20
96.53785098879489
 30
0.0
  0
SEQEND
  5
822
  8
レイヤー_4
  6
DASHDOT
 62
     7
  0
LINE
  5
823
  8
レイヤー_4
  6
DASHDOT
 62
     7
 10
89.59357884314542
 20
95.30037275706168
 30
0.0
 11
88.540068643756
 21
96.1836952394798
 31
0.0
  0
ARC
  5
824
  8
レイヤー_4
  6
DASHDOT
 62
     7
 10
89.5367706047017
 20
96.01157035554134
 30
0.0
 40
1.011455275641824
 50
170.2019781899481
 51
229.797786284349
  0
LINE
  5
825
  8
レイヤー_4
  6
DASHDOT
 62
     7
 10
88.883889173184
 20
95.2390500574242
 30
0.0
 11
89.2745630012113
 21
94.9117659863255
 31
0.0
  0
ARC
  5
826
  8
レイヤー_4
  6
DASHDOT
 62
     7
 10
132.7859272236521
 20
59.51757740702261
 30
0.0
 40
56.08910234337308
 50
140.3598763230853
 51
140.8734732174649
  0
POLYLINE
  5
827
  8
レイヤー_4
  6
DASHDOT
 62
     7
 66
     1
 10
0.0
 20
0.0
 30
0.0
  0
VERTEX
  5
828
  8
レイヤー_4
  6
DASHDOT
 62
     7
 10
88.76124342687362
 20
96.6556729887949
 30
0.0
 42
0.0662179775798549
  0
VERTEX
  5
829
  8
レイヤー_4
  6
DASHDOT
 62
     7
 10
88.62114096019093
 20
96.43732024537174
 30
0.0
 42
0.0645085545779635
  0
VERTEX
  5
82A
  8
レイヤー_4
  6
DASHDOT
 62
     7
 10
88.5400684268736
 20
96.1836949887949
 30
0.0
  0
SEQEND
  5
82B
  8
レイヤー_4
  6
DASHDOT
 62
     7
  0
LINE
  5
82C
  8
レイヤー_4
  6
DASHDOT
 62
     7
 10
125.8607880354675
 20
104.6806787442999
 30
0.0
 11
126.3644609954111
 21
104.6806787442999
 31
0.0
  0
LINE
  5
82D
  8
レイヤー_4
  6
DASHDOT
 62
     7
 10
125.8607880354675
 20
109.7063840381824
 30
0.0
 11
126.3644609954111
 21
109.7063840381824
 31
0.0
  0
ARC
  5
82E
  8
レイヤー_4
  6
DASHDOT
 62
     7
 10
82.36691181630252
 20
90.49780302187638
 30
0.0
 40
2.448933651852455
 50
243.792002323022
 51
320.393878674932
  0
POLYLINE
  5
82F
  8
レイヤー_4
  6
DASHDOT
 62
     7
 66
     1
 10
0.0
 20
0.0
 30
0.0
  0
VERTEX
  5
830
  8
レイヤー_4
  6
DASHDOT
 62
     7
 10
81.06421142687361
 20
87.83140498879489
 30
0.0
 42
0.1674000710151942
  0
VERTEX
  5
831
  8
レイヤー_4
  6
DASHDOT
 62
     7
 10
83.00549237101393
 20
87.6174519134316
 30
0.0
 42
0.1676850034444865
  0
VERTEX
  5
832
  8
レイヤー_4
  6
DASHDOT
 62
     7
 10
84.66364642687361
 20
88.64375898879489
 30
0.0
  0
SEQEND
  5
833
  8
レイヤー_4
  6
DASHDOT
 62
     7
  0
LINE
  5
834
  8
レイヤー_4
  6
DASHDOT
 62
     7
 10
81.27436226536412
 20
88.27926815812249
 30
0.0
 11
53.5964651368669
 21
101.1859738840625
 31
0.0
  0
LINE
  5
835
  8
レイヤー_4
  6
DASHDOT
 62
     7
 10
81.0621443834728
 20
87.8238265349725
 30
0.0
 11
53.5964651368669
 21
100.6320025300343
 31
0.0
  0
LINE
  5
836
  8
レイヤー_4
  6
DASHDOT
 62
     7
 10
53.5964651368669
 20
101.1404986236572
 30
0.0
 11
53.5964651368669
 21
100.5879053078231
 31
0.0
  0
ARC
  5
837
  8
レイヤー_4
  6
CONTINUOUS
 62
     7
 10
173.4160166563522
 20
-31.43800379550883
 30
0.0
 40
3.212057549633435
 50
86.34401385596627
 51
145.3233445016639
  0
POLYLINE
  5
838
  8
レイヤー_4
  6
CONTINUOUS
 62
     7
 66
     1
 10
0.0
 20
0.0
 30
0.0
  0
VERTEX
  5
839
  8
レイヤー_4
  6
CONTINUOUS
 62
     7
 10
170.7744978766697
 20
-29.61052130893283
 30
0.0
  0
VERTEX
  5
83A
  8
レイヤー_4
  6
CONTINUOUS
 62
     7
 10
170.1536916702276
 20
-30.48557556218628
 30
0.0
  0
VERTEX
  5
83B
  8
レイヤー_4
  6
CONTINUOUS
 62
     7
 10
169.3096432763414
 20
-31.2621000845616
 30
0.0
  0
VERTEX
  5
83C
  8
レイヤー_4
  6
CONTINUOUS
 62
     7
 10
168.2740475734753
 20
-31.91253411217677
 30
0.0
  0
VERTEX
  5
83D
  8
レイヤー_4
  6
CONTINUOUS
 62
     7
 10
167.0848006119671
 20
-32.412072957538
 30
0.0
  0
VERTEX
  5
83E
  8
レイヤー_4
  6
CONTINUOUS
 62
     7
 10
165.7832435376397
 20
-32.74693623870428
 30
0.0
  0
VERTEX
  5
83F
  8
レイヤー_4
  6
CONTINUOUS
 62
     7
 10
164.4141625918014
 20
-32.89920945915232
 30
0.0
  0
VERTEX
  5
840
  8
レイヤー_4
  6
CONTINUOUS
 62
     7
 10
163.0306122449251
 20
-32.86958163797918
 30
0.0
  0
VERTEX
  5
841
  8
レイヤー_4
  6
CONTINUOUS
 62
     7
 10
161.6794457956101
 20
-32.65391866060253
 30
0.0
  0
VERTEX
  5
842
  8
レイヤー_4
  6
CONTINUOUS
 62
     7
 10
160.409583599747
 20
-32.2632448325752
 30
0.0
  0
VERTEX
  5
843
  8
レイヤー_4
  6
CONTINUOUS
 62
     7
 10
159.2671899368382
 20
-31.71065151674112
 30
0.0
  0
VERTEX
  5
844
  8
レイヤー_4
  6
CONTINUOUS
 62
     7
 10
158.2922279145125
 20
-31.01474222872066
 30
0.0
  0
SEQEND
  5
845
  8
レイヤー_4
  6
CONTINUOUS
 62
     7
  0
POLYLINE
  5
846
  8
レイヤー_4
  6
CONTINUOUS
 62
     7
 66
     1
 10
0.0
 20
0.0
 30
0.0
  0
VERTEX
  5
847
  8
レイヤー_4
  6
CONTINUOUS
 62
     7
 10
158.2922274268736
 20
-31.01474301120511
 30
0.0
 42
0.0872811442228815
  0
VERTEX
  5
848
  8
レイヤー_4
  6
CONTINUOUS
 62
     7
 10
157.9224031733627
 20
-30.81440091831986
 30
0.0
 42
0.0868256235232314
  0
VERTEX
  5
849
  8
レイヤー_4
  6
CONTINUOUS
 62
     7
 10
157.5039894268736
 20
-30.75153701120511
 30
0.0
  0
SEQEND
  5
84A
  8
レイヤー_4
  6
CONTINUOUS
 62
     7
  0
LINE
  5
84B
  8
レイヤー_4
  6
CONTINUOUS
 62
     7
 10
157.5039900674873
 20
-30.75153693364757
 30
0.0
 11
156.9879147637969
 21
-30.75153693364757
 31
0.0
  0
LINE
  5
84C
  8
レイヤー_4
  6
CONTINUOUS
 62
     7
 10
156.9879147637969
 20
-30.39255798408455
 30
0.0
 11
156.9879147637969
 21
-30.75153693364757
 31
0.0
  0
LINE
  5
84D
  8
レイヤー_4
  6
CONTINUOUS
 62
     7
 10
156.9879147637969
 20
-30.39255798408455
 30
0.0
 11
157.5039900674873
 21
-30.39255798408455
 31
0.0
  0
POLYLINE
  5
84E
  8
レイヤー_4
  6
CONTINUOUS
 62
     7
 66
     1
 10
0.0
 20
0.0
 30
0.0
  0
VERTEX
  5
84F
  8
レイヤー_4
  6
CONTINUOUS
 62
     7
 10
158.6856574268736
 20
-30.7866770112051
 30
0.0
 42
0.0876278719498513
  0
VERTEX
  5
850
  8
レイヤー_4
  6
CONTINUOUS
 62
     7
 10
158.1284096609623
 20
-30.48465778760067
 30
0.0
 42
0.0879346208851103
  0
VERTEX
  5
851
  8
レイヤー_4
  6
CONTINUOUS
 62
     7
 10
157.5039894268736
 20
-30.39255801120511
 30
0.0
  0
SEQEND
  5
852
  8
レイヤー_4
  6
CONTINUOUS
 62
     7
  0
POLYLINE
  5
853
  8
レイヤー_4
  6
CONTINUOUS
 62
     7
 66
     1
 10
0.0
 20
0.0
 30
0.0
  0
VERTEX
  5
854
  8
レイヤー_4
  6
CONTINUOUS
 62
     7
 10
158.685657818928
 20
-30.78667690759713
 30
0.0
  0
VERTEX
  5
855
  8
レイヤー_4
  6
CONTINUOUS
 62
     7
 10
159.692314719718
 20
-31.49154344387924
 30
0.0
  0
VERTEX
  5
856
  8
レイヤー_4
  6
CONTINUOUS
 62
     7
 10
160.8843177576144
 20
-32.03311245416052
 30
0.0
  0
VERTEX
  5
857
  8
レイヤー_4
  6
CONTINUOUS
 62
     7
 10
162.2086124621445
 20
-32.38933532733535
 30
0.0
  0
VERTEX
  5
858
  8
レイヤー_4
  6
CONTINUOUS
 62
     7
 10
163.60869926735
 20
-32.54505364326864
 30
0.0
  0
VERTEX
  5
859
  8
レイヤー_4
  6
CONTINUOUS
 62
     7
 10
165.0239444926906
 20
-32.49131015369875
 30
0.0
  0
VERTEX
  5
85A
  8
レイヤー_4
  6
CONTINUOUS
 62
     7
 10
166.3923364194319
 20
-32.2315499541109
 30
0.0
  0
VERTEX
  5
85B
  8
レイヤー_4
  6
CONTINUOUS
 62
     7
 10
167.6553084243245
 20
-31.77748636915497
 30
0.0
  0
VERTEX
  5
85C
  8
レイヤー_4
  6
CONTINUOUS
 62
     7
 10
168.7584279987015
 20
-31.14772291445131
 30
0.0
  0
VERTEX
  5
85D
  8
レイヤー_4
  6
CONTINUOUS
 62
     7
 10
169.6520857675753
 20
-30.371198392076
 30
0.0
  0
VERTEX
  5
85E
  8
レイヤー_4
  6
CONTINUOUS
 62
     7
 10
170.2997637188022
 20
-29.47891866139628
 30
0.0
  0
SEQEND
  5
85F
  8
レイヤー_4
  6
CONTINUOUS
 62
     7
  0
ARC
  5
860
  8
レイヤー_4
  6
CONTINUOUS
 62
     7
 10
173.3821371398235
 20
-31.61591677687352
 30
0.0
 40
3.750704847381578
 50
86.3511730985749
 51
145.266573136676
  0
LINE
  5
861
  8
レイヤー_4
  6
CONTINUOUS
 62
     7
 10
178.8718503052009
 20
-27.87281514617281
 30
0.0
 11
173.6208357665831
 21
-27.87281514617281
 31
0.0
  0
LINE
  5
862
  8
レイヤー_4
  6
CONTINUOUS
 62
     7
 10
178.8718503052009
 20
-28.23248311483289
 30
0.0
 11
178.8718503052009
 21
-27.87281514617281
 31
0.0
  0
LINE
  5
863
  8
レイヤー_4
  6
CONTINUOUS
 62
     7
 10
178.8718503052009
 20
-28.23248311483289
 30
0.0
 11
173.6208357665831
 21
-28.23248311483289
 31
0.0
  0
LINE
  5
864
  8
レイヤー_4
  6
CONTINUOUS
 62
     7
 10
170.7744978766697
 20
-36.80732577761974
 30
0.0
 11
170.7744978766697
 21
-29.61052130893283
 31
0.0
  0
POLYLINE
  5
865
  8
レイヤー_4
  6
CONTINUOUS
 62
     7
 66
     1
 10
0.0
 20
0.0
 30
0.0
  0
VERTEX
  5
866
  8
レイヤー_4
  6
CONTINUOUS
 62
     7
 10
170.7744978766697
 20
-36.80732577761974
 30
0.0
  0
VERTEX
  5
867
  8
レイヤー_4
  6
CONTINUOUS
 62
     7
 10
170.1536916702276
 20
-37.68238003087319
 30
0.0
  0
VERTEX
  5
868
  8
レイヤー_4
  6
CONTINUOUS
 62
     7
 10
169.3096432763414
 20
-38.45890455324852
 30
0.0
  0
VERTEX
  5
869
  8
レイヤー_4
  6
CONTINUOUS
 62
     7
 10
168.2740475734753
 20
-39.10933858086368
 30
0.0
  0
VERTEX
  5
86A
  8
レイヤー_4
  6
CONTINUOUS
 62
     7
 10
167.0848006119671
 20
-39.60887742622491
 30
0.0
  0
VERTEX
  5
86B
  8
レイヤー_4
  6
CONTINUOUS
 62
     7
 10
165.7832435376397
 20
-39.94374070739119
 30
0.0
  0
VERTEX
  5
86C
  8
レイヤー_4
  6
CONTINUOUS
 62
     7
 10
164.4141625918014
 20
-40.09670294693628
 30
0.0
  0
VERTEX
  5
86D
  8
レイヤー_4
  6
CONTINUOUS
 62
     7
 10
163.0306122449251
 20
-40.06638610666609
 30
0.0
  0
VERTEX
  5
86E
  8
レイヤー_4
  6
CONTINUOUS
 62
     7
 10
161.6794457956101
 20
-39.85072312928945
 30
0.0
  0
VERTEX
  5
86F
  8
レイヤー_4
  6
CONTINUOUS
 62
     7
 10
160.409583599747
 20
-39.46004930126212
 30
0.0
  0
VERTEX
  5
870
  8
レイヤー_4
  6
CONTINUOUS
 62
     7
 10
159.2671899368382
 20
-38.90745598542804
 30
0.0
  0
VERTEX
  5
871
  8
レイヤー_4
  6
CONTINUOUS
 62
     7
 10
158.2922279145125
 20
-38.21154669740757
 30
0.0
  0
SEQEND
  5
872
  8
レイヤー_4
  6
CONTINUOUS
 62
     7
  0
LINE
  5
873
  8
レイヤー_4
  6
CONTINUOUS
 62
     7
 10
158.2922279145125
 20
-31.01474222872066
 30
0.0
 11
158.2922279145125
 21
-38.21154669740757
 31
0.0
  0
POLYLINE
  5
874
  8
レイヤー_4
  6
CONTINUOUS
 62
     7
 66
     1
 10
0.0
 20
0.0
 30
0.0
  0
VERTEX
  5
875
  8
レイヤー_4
  6
CONTINUOUS
 62
     7
 10
162.0776984268736
 20
-36.33603701120511
 30
0.0
 42
0.0213313904855684
  0
VERTEX
  5
876
  8
レイヤー_4
  6
CONTINUOUS
 62
     7
 10
163.1023545641673
 20
-35.93032165411684
 30
0.0
 42
0.0208270227499529
  0
VERTEX
  5
877
  8
レイヤー_4
  6
CONTINUOUS
 62
     7
 10
164.1130604268736
 20
-35.4279100112051
 30
0.0
  0
SEQEND
  5
878
  8
レイヤー_4
  6
CONTINUOUS
 62
     7
  0
LINE
  5
879
  8
レイヤー_4
  6
CONTINUOUS
 62
     7
 10
162.491110291935
 20
-36.62542473599855
 30
0.0
 11
162.077698833705
 21
-36.33603671523755
 31
0.0
  0
POLYLINE
  5
87A
  8
レイヤー_4
  6
CONTINUOUS
 62
     7
 66
     1
 10
0.0
 20
0.0
 30
0.0
  0
VERTEX
  5
87B
  8
レイヤー_4
  6
CONTINUOUS
 62
     7
 10
158.2922274268736
 20
-38.21154701120511
 30
0.0
 42
0.0874922365251338
  0
VERTEX
  5
87C
  8
レイヤー_4
  6
CONTINUOUS
 62
     7
 10
157.9218795810006
 20
-38.01112193801703
 30
0.0
 42
0.0872222161131049
  0
VERTEX
  5
87D
  8
レイヤー_4
  6
CONTINUOUS
 62
     7
 10
157.5039894268736
 20
-37.94903101120511
 30
0.0
  0
SEQEND
  5
87E
  8
レイヤー_4
  6
CONTINUOUS
 62
     7
  0
LINE
  5
87F
  8
レイヤー_4
  6
CONTINUOUS
 62
     7
 10
157.5039900674873
 20
-37.94903042143153
 30
0.0
 11
156.9879147637969
 21
-37.94903042143153
 31
0.0
  0
POLYLINE
  5
880
  8
レイヤー_4
  6
CONTINUOUS
 62
     7
 66
     1
 10
0.0
 20
0.0
 30
0.0
  0
VERTEX
  5
881
  8
レイヤー_4
  6
CONTINUOUS
 62
     7
 10
156.4794184268736
 20
-37.58936301120511
 30
0.0
 42
0.1910119381695982
  0
VERTEX
  5
882
  8
レイヤー_4
  6
CONTINUOUS
 62
     7
 10
156.661870282786
 20
-37.86959674339576
 30
0.0
 42
0.1908774419541762
  0
VERTEX
  5
883
  8
レイヤー_4
  6
CONTINUOUS
 62
     7
 10
156.9879144268736
 20
-37.94903101120511
 30
0.0
  0
SEQEND
  5
884
  8
レイヤー_4
  6
CONTINUOUS
 62
     7
  0
LINE
  5
885
  8
レイヤー_4
  6
CONTINUOUS
 62
     7
 10
156.479418670174
 20
-37.58936245277145
 30
0.0
 11
156.479418670174
 21
-31.11120490230766
 31
0.0
  0
POLYLINE
  5
886
  8
レイヤー_4
  6
CONTINUOUS
 62
     7
 66
     1
 10
0.0
 20
0.0
 30
0.0
  0
VERTEX
  5
887
  8
レイヤー_4
  6
CONTINUOUS
 62
     7
 10
156.9879144268736
 20
-30.7515370112051
 30
0.0
 42
0.1908069420439732
  0
VERTEX
  5
888
  8
レイヤー_4
  6
CONTINUOUS
 62
     7
 10
156.6619712950273
 20
-30.83089953752115
 30
0.0
 42
0.191082681594457
  0
VERTEX
  5
889
  8
レイヤー_4
  6
CONTINUOUS
 62
     7
 10
156.4794184268736
 20
-31.1112050112051
 30
0.0
  0
SEQEND
  5
88A
  8
レイヤー_4
  6
CONTINUOUS
 62
     7
  0
LINE
  5
88B
  8
レイヤー_4
  6
CONTINUOUS
 62
     7
 10
156.479418670174
 20
-31.11120490230766
 30
0.0
 11
156.479418670174
 21
-30.75153693364757
 31
0.0
  0
POLYLINE
  5
88C
  8
レイヤー_4
  6
CONTINUOUS
 62
     7
 66
     1
 10
0.0
 20
0.0
 30
0.0
  0
VERTEX
  5
88D
  8
レイヤー_4
  6
CONTINUOUS
 62
     7
 10
156.9879144268736
 20
-30.39255801120511
 30
0.0
 42
0.192700520808451
  0
VERTEX
  5
88E
  8
レイヤー_4
  6
CONTINUOUS
 62
     7
 10
156.6627533297136
 20
-30.47005558706068
 30
0.0
 42
0.1916912655644856
  0
VERTEX
  5
88F
  8
レイヤー_4
  6
CONTINUOUS
 62
     7
 10
156.4794184268736
 20
-30.7515370112051
 30
0.0
  0
SEQEND
  5
890
  8
レイヤー_4
  6
CONTINUOUS
 62
     7
  0
LINE
  5
891
  8
レイヤー_4
  6
CONTINUOUS
 62
     7
 10
173.6208357665831
 20
-28.23248311483289
 30
0.0
 11
173.6208357665831
 21
-35.42928758351981
 31
0.0
  0
ARC
  5
892
  8
レイヤー_4
  6
CONTINUOUS
 62
     7
 10
173.4160166563521
 20
-38.63480826419561
 30
0.0
 40
3.21205754963328
 50
86.34401385596405
 51
145.3233445016644
  0
POLYLINE
  5
893
  8
レイヤー_4
  6
CONTINUOUS
 62
     7
 66
     1
 10
0.0
 20
0.0
 30
0.0
  0
VERTEX
  5
894
  8
レイヤー_4
  6
CONTINUOUS
 62
     7
 10
162.4242754395211
 20
-36.21132425867151
 30
0.0
  0
VERTEX
  5
895
  8
レイヤー_4
  6
CONTINUOUS
 62
     7
 10
162.7460473578434
 20
-36.42698723604816
 30
0.0
  0
VERTEX
  5
896
  8
レイヤー_4
  6
CONTINUOUS
 62
     7
 10
162.7522485297169
 20
-36.43249938882455
 30
0.0
  0
SEQEND
  5
897
  8
レイヤー_4
  6
CONTINUOUS
 62
     7
  0
POLYLINE
  5
898
  8
レイヤー_4
  6
CONTINUOUS
 62
     7
 66
     1
 10
0.0
 20
0.0
 30
0.0
  0
VERTEX
  5
899
  8
レイヤー_4
  6
CONTINUOUS
 62
     7
 10
179.3803454268736
 20
-28.59146301120511
 30
0.0
 42
0.0951695410858621
  0
VERTEX
  5
89A
  8
レイヤー_4
  6
CONTINUOUS
 62
     7
 10
179.3158877485334
 20
-28.43464796594162
 30
0.0
 42
0.094425955695424
  0
VERTEX
  5
89B
  8
レイヤー_4
  6
CONTINUOUS
 62
     7
 10
179.1971534268736
 20
-28.31172101120511
 30
0.0
 42
0.0942150557696768
  0
VERTEX
  5
89C
  8
レイヤー_4
  6
CONTINUOUS
 62
     7
 10
179.0414912975515
 20
-28.24097708822347
 30
0.0
 42
0.0946144560591434
  0
VERTEX
  5
89D
  8
レイヤー_4
  6
CONTINUOUS
 62
     7
 10
178.8718494268736
 20
-28.23248401120511
 30
0.0
  0
SEQEND
  5
89E
  8
レイヤー_4
  6
CONTINUOUS
 62
     7
  0
LINE
  5
89F
  8
レイヤー_4
  6
CONTINUOUS
 62
     7
 10
179.3803463988238
 20
-35.07030863395677
 30
0.0
 11
179.3803463988238
 21
-28.59146206439593
 31
0.0
  0
POLYLINE
  5
8A0
  8
レイヤー_4
  6
CONTINUOUS
 62
     7
 66
     1
 10
0.0
 20
0.0
 30
0.0
  0
VERTEX
  5
8A1
  8
レイヤー_4
  6
CONTINUOUS
 62
     7
 10
178.8718494268736
 20
-35.4292880112051
 30
0.0
 42
0.094597610537725
  0
VERTEX
  5
8A2
  8
レイヤー_4
  6
CONTINUOUS
 62
     7
 10
179.041463675965
 20
-35.42080121777359
 30
0.0
 42
0.0942296020144846
  0
VERTEX
  5
8A3
  8
レイヤー_4
  6
CONTINUOUS
 62
     7
 10
179.1971534268736
 20
-35.35005101120511
 30
0.0
 42
0.0944289637759731
  0
VERTEX
  5
8A4
  8
レイヤー_4
  6
CONTINUOUS
 62
     7
 10
179.3158888199058
 20
-35.22712411997493
 30
0.0
 42
0.0951719583211568
  0
VERTEX
  5
8A5
  8
レイヤー_4
  6
CONTINUOUS
 62
     7
 10
179.3803454268736
 20
-35.07030901120511
 30
0.0
  0
SEQEND
  5
8A6
  8
レイヤー_4
  6
CONTINUOUS
 62
     7
  0
LINE
  5
8A7
  8
レイヤー_4
  6
CONTINUOUS
 62
     7
 10
178.8718503052009
 20
-35.42928758351981
 30
0.0
 11
173.6208357665831
 21
-35.42928758351981
 31
0.0
  0
POLYLINE
  5
8A8
  8
レイヤー_4
  6
CONTINUOUS
 62
     7
 66
     1
 10
0.0
 20
0.0
 30
0.0
  0
VERTEX
  5
8A9
  8
レイヤー_4
  6
CONTINUOUS
 62
     7
 10
179.3803454268736
 20
-28.2324840112051
 30
0.0
 42
0.1910640006280216
  0
VERTEX
  5
8AA
  8
レイヤー_4
  6
CONTINUOUS
 62
     7
 10
179.1977660782755
 20
-27.95211604994896
 30
0.0
 42
0.1909281929246609
  0
VERTEX
  5
8AB
  8
レイヤー_4
  6
CONTINUOUS
 62
     7
 10
178.8718494268736
 20
-27.8728160112051
 30
0.0
  0
SEQEND
  5
8AC
  8
レイヤー_4
  6
CONTINUOUS
 62
     7
  0
LINE
  5
8AD
  8
レイヤー_4
  6
CONTINUOUS
 62
     7
 10
179.3803463988238
 20
-28.23248311483289
 30
0.0
 11
179.3803463988238
 21
-28.59146206439593
 31
0.0
  0
LINE
  5
8AE
  8
レイヤー_4
  6
CONTINUOUS
 62
     7
 10
170.7744978766697
 20
73.0292084831156
 30
0.0
 11
170.7744978766697
 21
80.2260129518025
 31
0.0
  0
POLYLINE
  5
8AF
  8
レイヤー_4
  6
CONTINUOUS
 62
     7
 66
     1
 10
0.0
 20
0.0
 30
0.0
  0
VERTEX
  5
8B0
  8
レイヤー_4
  6
CONTINUOUS
 62
     7
 10
170.7744978766697
 20
73.0292084831156
 30
0.0
  0
VERTEX
  5
8B1
  8
レイヤー_4
  6
CONTINUOUS
 62
     7
 10
170.1536916702276
 20
73.90357371727198
 30
0.0
  0
VERTEX
  5
8B2
  8
レイヤー_4
  6
CONTINUOUS
 62
     7
 10
169.3096432763414
 20
74.68009823964731
 30
0.0
  0
VERTEX
  5
8B3
  8
レイヤー_4
  6
CONTINUOUS
 62
     7
 10
168.2740475734753
 20
75.33053226726248
 30
0.0
  0
VERTEX
  5
8B4
  8
レイヤー_4
  6
CONTINUOUS
 62
     7
 10
167.0848006119671
 20
75.83213816991478
 30
0.0
  0
VERTEX
  5
8B5
  8
レイヤー_4
  6
CONTINUOUS
 62
     7
 10
165.7832435376397
 20
76.165623412887
 30
0.0
  0
VERTEX
  5
8B6
  8
レイヤー_4
  6
CONTINUOUS
 62
     7
 10
164.4141625918014
 20
76.31996369062618
 30
0.0
  0
VERTEX
  5
8B7
  8
レイヤー_4
  6
CONTINUOUS
 62
     7
 10
163.0306122449251
 20
76.28826881216189
 30
0.0
  0
VERTEX
  5
8B8
  8
レイヤー_4
  6
CONTINUOUS
 62
     7
 10
161.6794457956101
 20
76.0732948538823
 30
0.0
  0
VERTEX
  5
8B9
  8
レイヤー_4
  6
CONTINUOUS
 62
     7
 10
160.409583599747
 20
75.682621025855
 30
0.0
  0
VERTEX
  5
8BA
  8
レイヤー_4
  6
CONTINUOUS
 62
     7
 10
159.2671899368382
 20
75.12933869092389
 30
0.0
  0
VERTEX
  5
8BB
  8
レイヤー_4
  6
CONTINUOUS
 62
     7
 10
158.2922279145125
 20
74.43411842200048
 30
0.0
  0
SEQEND
  5
8BC
  8
レイヤー_4
  6
CONTINUOUS
 62
     7
  0
LINE
  5
8BD
  8
レイヤー_4
  6
CONTINUOUS
 62
     7
 10
158.2922279145125
 20
81.63092289068739
 30
0.0
 11
158.2922279145125
 21
74.43411842200048
 31
0.0
  0
POLYLINE
  5
8BE
  8
レイヤー_4
  6
CONTINUOUS
 62
     7
 66
     1
 10
0.0
 20
0.0
 30
0.0
  0
VERTEX
  5
8BF
  8
レイヤー_4
  6
CONTINUOUS
 62
     7
 10
170.7744978766697
 20
80.2260129518025
 30
0.0
  0
VERTEX
  5
8C0
  8
レイヤー_4
  6
CONTINUOUS
 62
     7
 10
170.1536916702276
 20
81.10106720505588
 30
0.0
  0
VERTEX
  5
8C1
  8
レイヤー_4
  6
CONTINUOUS
 62
     7
 10
169.3096432763414
 20
81.8775917274313
 30
0.0
  0
VERTEX
  5
8C2
  8
レイヤー_4
  6
CONTINUOUS
 62
     7
 10
168.2740475734753
 20
82.52802575504639
 30
0.0
  0
VERTEX
  5
8C3
  8
レイヤー_4
  6
CONTINUOUS
 62
     7
 10
167.0848006119671
 20
83.0296316576988
 30
0.0
  0
VERTEX
  5
8C4
  8
レイヤー_4
  6
CONTINUOUS
 62
     7
 10
165.7832435376397
 20
83.36242788157391
 30
0.0
  0
VERTEX
  5
8C5
  8
レイヤー_4
  6
CONTINUOUS
 62
     7
 10
164.4141625918014
 20
83.51607914021609
 30
0.0
  0
VERTEX
  5
8C6
  8
レイヤー_4
  6
CONTINUOUS
 62
     7
 10
163.0306122449251
 20
83.4850732808488
 30
0.0
  0
VERTEX
  5
8C7
  8
レイヤー_4
  6
CONTINUOUS
 62
     7
 10
161.6794457956101
 20
83.27009932256918
 30
0.0
  0
VERTEX
  5
8C8
  8
レイヤー_4
  6
CONTINUOUS
 62
     7
 10
160.409583599747
 20
82.8794254945419
 30
0.0
  0
VERTEX
  5
8C9
  8
レイヤー_4
  6
CONTINUOUS
 62
     7
 10
159.2671899368382
 20
82.3261431596108
 30
0.0
  0
VERTEX
  5
8CA
  8
レイヤー_4
  6
CONTINUOUS
 62
     7
 10
158.2922279145125
 20
81.63092289068739
 30
0.0
  0
SEQEND
  5
8CB
  8
レイヤー_4
  6
CONTINUOUS
 62
     7
  0
LINE
  5
8CC
  8
レイヤー_4
  6
CONTINUOUS
 62
     7
 10
162.077698833705
 20
79.75541290851739
 30
0.0
 11
162.491110291935
 21
80.0434228910842
 31
0.0
  0
POLYLINE
  5
8CD
  8
レイヤー_4
  6
CONTINUOUS
 62
     7
 66
     1
 10
0.0
 20
0.0
 30
0.0
  0
VERTEX
  5
8CE
  8
レイヤー_4
  6
CONTINUOUS
 62
     7
 10
164.1130604268736
 20
78.8472849887949
 30
0.0
 42
0.0208269437367446
  0
VERTEX
  5
8CF
  8
レイヤー_4
  6
CONTINUOUS
 62
     7
 10
163.1075150055562
 20
79.34713161972381
 30
0.0
 42
0.0211125081293672
  0
VERTEX
  5
8D0
  8
レイヤー_4
  6
CONTINUOUS
 62
     7
 10
162.0776984268736
 20
79.7554119887949
 30
0.0
  0
SEQEND
  5
8D1
  8
レイヤー_4
  6
CONTINUOUS
 62
     7
  0
ARC
  5
8D2
  8
レイヤー_4
  6
CONTINUOUS
 62
     7
 10
173.3820965540223
 20
75.03360383220242
 30
0.0
 40
3.749709340279633
 50
214.712569134248
 51
273.6504183516036
  0
POLYLINE
  5
8D3
  8
レイヤー_4
  6
CONTINUOUS
 62
     7
 66
     1
 10
0.0
 20
0.0
 30
0.0
  0
VERTEX
  5
8D4
  8
レイヤー_4
  6
CONTINUOUS
 62
     7
 10
158.685657818928
 20
74.2060531008769
 30
0.0
  0
VERTEX
  5
8D5
  8
レイヤー_4
  6
CONTINUOUS
 62
     7
 10
159.692314719718
 20
74.91091963715898
 30
0.0
  0
VERTEX
  5
8D6
  8
レイヤー_4
  6
CONTINUOUS
 62
     7
 10
160.8843177576144
 20
75.45248864744029
 30
0.0
  0
VERTEX
  5
8D7
  8
レイヤー_4
  6
CONTINUOUS
 62
     7
 10
162.2086124621445
 20
75.8094005397122
 30
0.0
  0
VERTEX
  5
8D8
  8
レイヤー_4
  6
CONTINUOUS
 62
     7
 10
163.60869926735
 20
75.96374081745138
 30
0.0
  0
VERTEX
  5
8D9
  8
レイヤー_4
  6
CONTINUOUS
 62
     7
 10
165.0239444926906
 20
75.9093083087845
 30
0.0
  0
VERTEX
  5
8DA
  8
レイヤー_4
  6
CONTINUOUS
 62
     7
 10
166.3923364194319
 20
75.65023712829368
 30
0.0
  0
VERTEX
  5
8DB
  8
レイヤー_4
  6
CONTINUOUS
 62
     7
 10
167.6553084243245
 20
75.19617354333771
 30
0.0
  0
VERTEX
  5
8DC
  8
レイヤー_4
  6
CONTINUOUS
 62
     7
 10
168.7584279987015
 20
74.56641008863399
 30
0.0
  0
VERTEX
  5
8DD
  8
レイヤー_4
  6
CONTINUOUS
 62
     7
 10
169.6520857675753
 20
73.7898855662588
 30
0.0
  0
VERTEX
  5
8DE
  8
レイヤー_4
  6
CONTINUOUS
 62
     7
 10
170.2997637188022
 20
72.89829485467608
 30
0.0
  0
SEQEND
  5
8DF
  8
レイヤー_4
  6
CONTINUOUS
 62
     7
  0
POLYLINE
  5
8E0
  8
レイヤー_4
  6
CONTINUOUS
 62
     7
 66
     1
 10
0.0
 20
0.0
 30
0.0
  0
VERTEX
  5
8E1
  8
レイヤー_4
  6
CONTINUOUS
 62
     7
 10
157.5039894268736
 20
73.81055598879489
 30
0.0
 42
0.0870054900256014
  0
VERTEX
  5
8E2
  8
レイヤー_4
  6
CONTINUOUS
 62
     7
 10
158.1307988966412
 20
73.90491971895723
 30
0.0
 42
0.0873408434403328
  0
VERTEX
  5
8E3
  8
レイヤー_4
  6
CONTINUOUS
 62
     7
 10
158.6856574268736
 20
74.2060529887949
 30
0.0
  0
SEQEND
  5
8E4
  8
レイヤー_4
  6
CONTINUOUS
 62
     7
  0
LINE
  5
8E5
  8
レイヤー_4
  6
CONTINUOUS
 62
     7
 10
156.9879147637969
 20
73.8105561391702
 30
0.0
 11
157.5039900674873
 21
73.8105561391702
 31
0.0
  0
LINE
  5
8E6
  8
レイヤー_4
  6
CONTINUOUS
 62
     7
 10
156.9879147637969
 20
74.1702241078303
 30
0.0
 11
156.9879147637969
 21
73.8105561391702
 31
0.0
  0
LINE
  5
8E7
  8
レイヤー_4
  6
CONTINUOUS
 62
     7
 10
157.5039900674873
 20
74.1702241078303
 30
0.0
 11
156.9879147637969
 21
74.1702241078303
 31
0.0
  0
POLYLINE
  5
8E8
  8
レイヤー_4
  6
CONTINUOUS
 62
     7
 66
     1
 10
0.0
 20
0.0
 30
0.0
  0
VERTEX
  5
8E9
  8
レイヤー_4
  6
CONTINUOUS
 62
     7
 10
157.5039894268736
 20
74.17022398879489
 30
0.0
 42
0.0870115815398071
  0
VERTEX
  5
8EA
  8
レイヤー_4
  6
CONTINUOUS
 62
     7
 10
157.9226503445277
 20
74.23328183926053
 30
0.0
 42
0.0875720000799836
  0
VERTEX
  5
8EB
  8
レイヤー_4
  6
CONTINUOUS
 62
     7
 10
158.2922274268736
 20
74.43411798879488
 30
0.0
  0
SEQEND
  5
8EC
  8
レイヤー_4
  6
CONTINUOUS
 62
     7
  0
ARC
  5
8ED
  8
レイヤー_4
  6
CONTINUOUS
 62
     7
 10
173.4152745715237
 20
74.85676081648761
 30
0.0
 40
3.211487051709523
 50
214.6852127981629
 51
273.6699030456975
  0
LINE
  5
8EE
  8
レイヤー_4
  6
CONTINUOUS
 62
     7
 10
178.8718503052009
 20
71.65185930811269
 30
0.0
 11
173.6208357665831
 21
71.65185930811269
 31
0.0
  0
LINE
  5
8EF
  8
レイヤー_4
  6
CONTINUOUS
 62
     7
 10
178.8718503052009
 20
71.2915023203556
 30
0.0
 11
178.8718503052009
 21
71.65185930811269
 31
0.0
  0
LINE
  5
8F0
  8
レイヤー_4
  6
CONTINUOUS
 62
     7
 10
173.6208357665831
 20
71.2915023203556
 30
0.0
 11
178.8718503052009
 21
71.2915023203556
 31
0.0
  0
ARC
  5
8F1
  8
レイヤー_4
  6
CONTINUOUS
 62
     7
 10
157.5334641936976
 20
82.58814974956563
 30
0.0
 40
1.221476828835853
 50
268.6173237846763
 51
308.4027593046919
  0
POLYLINE
  5
8F2
  8
レイヤー_4
  6
CONTINUOUS
 62
     7
 66
     1
 10
0.0
 20
0.0
 30
0.0
  0
VERTEX
  5
8F3
  8
レイヤー_4
  6
CONTINUOUS
 62
     7
 10
156.4794184268736
 20
74.17022398879489
 30
0.0
 42
0.1914312061458134
  0
VERTEX
  5
8F4
  8
レイヤー_4
  6
CONTINUOUS
 62
     7
 10
156.6625035306056
 20
73.88916548471089
 30
0.0
 42
0.1913420458031382
  0
VERTEX
  5
8F5
  8
レイヤー_4
  6
CONTINUOUS
 62
     7
 10
156.9879144268736
 20
73.81055598879489
 30
0.0
  0
SEQEND
  5
8F6
  8
レイヤー_4
  6
CONTINUOUS
 62
     7
  0
LINE
  5
8F7
  8
レイヤー_4
  6
CONTINUOUS
 62
     7
 10
156.479418670174
 20
74.1702241078303
 30
0.0
 11
156.479418670174
 21
74.5305810955875
 31
0.0
  0
POLYLINE
  5
8F8
  8
レイヤー_4
  6
CONTINUOUS
 62
     7
 66
     1
 10
0.0
 20
0.0
 30
0.0
  0
VERTEX
  5
8F9
  8
レイヤー_4
  6
CONTINUOUS
 62
     7
 10
156.4794184268736
 20
74.53058098879488
 30
0.0
 42
0.1908809907013858
  0
VERTEX
  5
8FA
  8
レイヤー_4
  6
CONTINUOUS
 62
     7
 10
156.661870018064
 20
74.24984377724532
 30
0.0
 42
0.1911557138768111
  0
VERTEX
  5
8FB
  8
レイヤー_4
  6
CONTINUOUS
 62
     7
 10
156.9879144268736
 20
74.17022398879489
 30
0.0
  0
SEQEND
  5
8FC
  8
レイヤー_4
  6
CONTINUOUS
 62
     7
  0
LINE
  5
8FD
  8
レイヤー_4
  6
CONTINUOUS
 62
     7
 10
156.479418670174
 20
74.5305810955875
 30
0.0
 11
156.479418670174
 21
81.00804962695419
 31
0.0
  0
POLYLINE
  5
8FE
  8
レイヤー_4
  6
CONTINUOUS
 62
     7
 66
     1
 10
0.0
 20
0.0
 30
0.0
  0
VERTEX
  5
8FF
  8
レイヤー_4
  6
CONTINUOUS
 62
     7
 10
156.9879144268736
 20
81.3670279887949
 30
0.0
 42
0.1919117659356295
  0
VERTEX
  5
900
  8
レイヤー_4
  6
CONTINUOUS
 62
     7
 10
156.6625866795269
 20
81.28903793012013
 30
0.0
 42
0.1915978292648583
  0
VERTEX
  5
901
  8
レイヤー_4
  6
CONTINUOUS
 62
     7
 10
156.4794184268736
 20
81.0080489887949
 30
0.0
  0
SEQEND
  5
902
  8
レイヤー_4
  6
CONTINUOUS
 62
     7
  0
LINE
  5
903
  8
レイヤー_4
  6
CONTINUOUS
 62
     7
 10
157.5039900674873
 20
81.3670285765172
 30
0.0
 11
156.9879147637969
 21
81.3670285765172
 31
0.0
  0
ARC
  5
904
  8
レイヤー_4
  6
CONTINUOUS
 62
     7
 10
173.4160568269275
 20
82.05518184198932
 30
0.0
 40
3.213050344534695
 50
214.7009786812593
 51
273.6541371625988
  0
LINE
  5
905
  8
レイヤー_4
  6
CONTINUOUS
 62
     7
 10
173.6208357665831
 20
78.8486637767996
 30
0.0
 11
173.6208357665831
 21
71.65185930811269
 31
0.0
  0
POLYLINE
  5
906
  8
レイヤー_4
  6
CONTINUOUS
 62
     7
 66
     1
 10
0.0
 20
0.0
 30
0.0
  0
VERTEX
  5
907
  8
レイヤー_4
  6
CONTINUOUS
 62
     7
 10
162.7522485297169
 20
79.8504975439103
 30
0.0
  0
VERTEX
  5
908
  8
レイヤー_4
  6
CONTINUOUS
 62
     7
 10
162.7460473578434
 20
79.84636342932801
 30
0.0
  0
VERTEX
  5
909
  8
レイヤー_4
  6
CONTINUOUS
 62
     7
 10
162.4242754395211
 20
79.63001143285429
 30
0.0
  0
SEQEND
  5
90A
  8
レイヤー_4
  6
CONTINUOUS
 62
     7
  0
LINE
  5
90B
  8
レイヤー_4
  6
CONTINUOUS
 62
     7
 10
178.8718503052009
 20
78.8486637767996
 30
0.0
 11
173.6208357665831
 21
78.8486637767996
 31
0.0
  0
POLYLINE
  5
90C
  8
レイヤー_4
  6
CONTINUOUS
 62
     7
 66
     1
 10
0.0
 20
0.0
 30
0.0
  0
VERTEX
  5
90D
  8
レイヤー_4
  6
CONTINUOUS
 62
     7
 10
179.3803454268736
 20
78.48830598879489
 30
0.0
 42
0.0527978004881389
  0
VERTEX
  5
90E
  8
レイヤー_4
  6
CONTINUOUS
 62
     7
 10
179.3516350211369
 20
78.57963535938838
 30
0.0
 42
0.3367692177777284
  0
VERTEX
  5
90F
  8
レイヤー_4
  6
CONTINUOUS
 62
     7
 10
178.8718494268736
 20
78.84866298879489
 30
0.0
  0
SEQEND
  5
910
  8
レイヤー_4
  6
CONTINUOUS
 62
     7
  0
LINE
  5
911
  8
レイヤー_4
  6
CONTINUOUS
 62
     7
 10
179.3803463988238
 20
72.0108382576757
 30
0.0
 11
179.3803463988238
 21
78.48830678904248
 31
0.0
  0
POLYLINE
  5
912
  8
レイヤー_4
  6
CONTINUOUS
 62
     7
 66
     1
 10
0.0
 20
0.0
 30
0.0
  0
VERTEX
  5
913
  8
レイヤー_4
  6
CONTINUOUS
 62
     7
 10
178.8718494268736
 20
71.6518589887949
 30
0.0
 42
0.1920521648637247
  0
VERTEX
  5
914
  8
レイヤー_4
  6
CONTINUOUS
 62
     7
 10
179.1971701092633
 20
71.72979858096029
 30
0.0
 42
0.1915643814948226
  0
VERTEX
  5
915
  8
レイヤー_4
  6
CONTINUOUS
 62
     7
 10
179.3803454268736
 20
72.0108379887949
 30
0.0
  0
SEQEND
  5
916
  8
レイヤー_4
  6
CONTINUOUS
 62
     7
  0
LINE
  5
917
  8
レイヤー_4
  6
CONTINUOUS
 62
     7
 10
179.3803463988238
 20
72.0108382576757
 30
0.0
 11
179.3803463988238
 21
71.65185930811269
 31
0.0
  0
POLYLINE
  5
918
  8
レイヤー_4
  6
CONTINUOUS
 62
     7
 66
     1
 10
0.0
 20
0.0
 30
0.0
  0
VERTEX
  5
919
  8
レイヤー_4
  6
CONTINUOUS
 62
     7
 10
178.8718494268736
 20
71.2915019887949
 30
0.0
 42
0.0540215208824073
  0
VERTEX
  5
91A
  8
レイヤー_4
  6
CONTINUOUS
 62
     7
 10
178.9697723430864
 20
71.28849465372328
 30
0.0
 42
0.3354112233016636
  0
VERTEX
  5
91B
  8
レイヤー_4
  6
CONTINUOUS
 62
     7
 10
179.3803454268736
 20
71.6518589887949
 30
0.0
  0
SEQEND
  5
91C
  8
レイヤー_4
  6
CONTINUOUS
 62
     7
  0
LINE
  5
91D
  8
レイヤー_4
  6
CONTINUOUS
 62
     7
 10
164.242596836636
 20
-37.93456102039349
 30
0.0
 11
164.242596836636
 21
-35.77655320843299
 31
0.0
  0
LINE
  5
91E
  8
レイヤー_4
  6
CONTINUOUS
 62
     7
 10
164.242596836636
 20
-37.93456102039349
 30
0.0
 11
162.2837155437229
 21
-37.22142625494676
 31
0.0
  0
LINE
  5
91F
  8
レイヤー_4
  6
CONTINUOUS
 62
     7
 10
162.2837155437229
 20
-37.22142625494676
 30
0.0
 11
164.242596836636
 21
-35.77655320843299
 31
0.0
  0
LINE
  5
920
  8
レイヤー_4
  6
CONTINUOUS
 62
     7
 10
162.1534909343805
 20
-36.87209357274243
 30
0.0
 11
162.2837155437229
 21
-37.22142625494676
 31
0.0
  0
LINE
  5
921
  8
レイヤー_4
  6
CONTINUOUS
 62
     7
 10
162.1534909343805
 20
-36.87209357274243
 30
0.0
 11
164.1130612463906
 21
-35.4279095453257
 31
0.0
  0
LINE
  5
922
  8
レイヤー_4
  6
CONTINUOUS
 62
     7
 10
164.242596836636
 20
-35.77655320843299
 30
0.0
 11
164.1130612463906
 21
-35.4279095453257
 31
0.0
  0
LINE
  5
923
  8
レイヤー_4
  6
CONTINUOUS
 62
     7
 10
164.242596836636
 20
79.19524038261581
 30
0.0
 11
164.242596836636
 21
81.35393721367329
 31
0.0
  0
LINE
  5
924
  8
レイヤー_4
  6
CONTINUOUS
 62
     7
 10
164.242596836636
 20
79.19524038261581
 30
0.0
 11
162.2837155437229
 21
80.6394244100325
 31
0.0
  0
LINE
  5
925
  8
レイヤー_4
  6
CONTINUOUS
 62
     7
 10
162.2837155437229
 20
80.6394244100325
 30
0.0
 11
164.242596836636
 21
81.35393721367329
 31
0.0
  0
LINE
  5
926
  8
レイヤー_4
  6
CONTINUOUS
 62
     7
 10
164.242596836636
 20
79.19524038261581
 30
0.0
 11
164.1130612463906
 21
78.84728573860549
 31
0.0
  0
LINE
  5
927
  8
レイヤー_4
  6
CONTINUOUS
 62
     7
 10
164.1130612463906
 20
78.84728573860549
 30
0.0
 11
162.1534909343805
 21
80.2914697660223
 31
0.0
  0
LINE
  5
928
  8
レイヤー_4
  6
CONTINUOUS
 62
     7
 10
162.1534909343805
 20
80.2914697660223
 30
0.0
 11
162.2837155437229
 21
80.6394244100325
 31
0.0
  0
ENDBLK
  5
92A
  8
0
  0
ENDSEC
  0
SECTION
  2
ENTITIES
  0
INSERT
  5
92B
  8
0
  2
0-NONE
 10
0.0
 20
0.0
 30
0.0
  0
ENDSEC
  0
EOF
