  0
SECTION
  2
HEADER
  9
$ACADVER
  1
AC1009
  9
$DWGCODEPAGE
  3
dos932
  9
$INSBASE
 10
0.0
 20
0.0
 30
0.0
  9
$EXTMIN
 10
-170.6784407739667
 20
-104.1967589943346
 30
0.0
  9
$EXTMAX
 10
163.2287996687558
 20
118.5436240235751
 30
0.0
  9
$LIMMIN
 10
0.0
 20
0.0
  9
$LIMMAX
 10
420.0
 20
297.0
  9
$ORTHOMODE
 70
     0
  9
$REGENMODE
 70
     1
  9
$FILLMODE
 70
     1
  9
$QTEXTMODE
 70
     0
  9
$MIRRTEXT
 70
     1
  9
$DRAGMODE
 70
     2
  9
$LTSCALE
 40
1.0
  9
$OSMODE
 70
    37
  9
$ATTMODE
 70
     1
  9
$TEXTSIZE
 40
0.2
  9
$TRACEWID
 40
0.05
  9
$TEXTSTYLE
  7
STANDARD
  9
$CLAYER
  8
0
  9
$CELTYPE
  6
BYLAYER
  9
$CECOLOR
 62
   256
  9
$DIMSCALE
 40
1.0
  9
$DIMASZ
 40
0.18
  9
$DIMEXO
 40
0.0625
  9
$DIMDLI
 40
0.38
  9
$DIMRND
 40
0.0
  9
$DIMDLE
 40
0.0
  9
$DIMEXE
 40
0.18
  9
$DIMTP
 40
0.0
  9
$DIMTM
 40
0.0
  9
$DIMTXT
 40
0.18
  9
$DIMCEN
 40
0.09
  9
$DIMTSZ
 40
0.0
  9
$DIMTOL
 70
     0
  9
$DIMLIM
 70
     0
  9
$DIMTIH
 70
     1
  9
$DIMTOH
 70
     1
  9
$DIMSE1
 70
     0
  9
$DIMSE2
 70
     0
  9
$DIMTAD
 70
     0
  9
$DIMZIN
 70
     0
  9
$DIMBLK
  1

  9
$DIMASO
 70
     1
  9
$DIMSHO
 70
     1
  9
$DIMPOST
  1

  9
$DIMAPOST
  1

  9
$DIMALT
 70
     0
  9
$DIMALTD
 70
     3
  9
$DIMALTF
 40
0.0393700787401575
  9
$DIMLFAC
 40
1.0
  9
$DIMTOFL
 70
     0
  9
$DIMTVP
 40
0.0
  9
$DIMTIX
 70
     0
  9
$DIMSOXD
 70
     0
  9
$DIMSAH
 70
     0
  9
$DIMBLK1
  1

  9
$DIMBLK2
  1

  9
$DIMSTYLE
  2
STANDARD
  9
$DIMCLRD
 70
     0
  9
$DIMCLRE
 70
     0
  9
$DIMCLRT
 70
     0
  9
$DIMTFAC
 40
1.0
  9
$DIMGAP
 40
0.09
  9
$LUNITS
 70
     2
  9
$LUPREC
 70
     4
  9
$SKETCHINC
 40
0.1
  9
$FILLETRAD
 40
0.5
  9
$AUNITS
 70
     0
  9
$AUPREC
 70
     0
  9
$MENU
  1
.
  9
$ELEVATION
 40
0.0
  9
$PELEVATION
 40
0.0
  9
$THICKNESS
 40
0.0
  9
$LIMCHECK
 70
     0
  9
$CHAMFERA
 40
0.0
  9
$CHAMFERB
 40
0.0
  9
$SKPOLY
 70
     0
  9
$TDCREATE
 40
2459109.436615637
  9
$TDUPDATE
 40
2459109.43661581
  9
$TDINDWG
 40
0.0000000116
  9
$TDUSRTIMER
 40
0.0000000116
  9
$USRTIMER
 70
     1
  9
$ANGBASE
 50
0.0
  9
$ANGDIR
 70
     0
  9
$PDMODE
 70
     0
  9
$PDSIZE
 40
0.0
  9
$PLINEWID
 40
0.0
  9
$COORDS
 70
     1
  9
$SPLFRAME
 70
     0
  9
$SPLINETYPE
 70
     6
  9
$SPLINESEGS
 70
     8
  9
$ATTDIA
 70
     0
  9
$ATTREQ
 70
     1
  9
$HANDLING
 70
     1
  9
$HANDSEED
  5
53A
  9
$SURFTAB1
 70
     6
  9
$SURFTAB2
 70
     6
  9
$SURFTYPE
 70
     6
  9
$SURFU
 70
     6
  9
$SURFV
 70
     6
  9
$UCSNAME
  2

  9
$UCSORG
 10
0.0
 20
0.0
 30
0.0
  9
$UCSXDIR
 10
1.0
 20
0.0
 30
0.0
  9
$UCSYDIR
 10
0.0
 20
1.0
 30
0.0
  9
$PUCSNAME
  2

  9
$PUCSORG
 10
0.0
 20
0.0
 30
0.0
  9
$PUCSXDIR
 10
1.0
 20
0.0
 30
0.0
  9
$PUCSYDIR
 10
0.0
 20
1.0
 30
0.0
  9
$USERI1
 70
     0
  9
$USERI2
 70
     0
  9
$USERI3
 70
     0
  9
$USERI4
 70
     0
  9
$USERI5
 70
     0
  9
$USERR1
 40
0.0
  9
$USERR2
 40
0.0
  9
$USERR3
 40
0.0
  9
$USERR4
 40
0.0
  9
$USERR5
 40
0.0
  9
$WORLDVIEW
 70
     1
  9
$SHADEDGE
 70
     3
  9
$SHADEDIF
 70
    70
  9
$TILEMODE
 70
     1
  9
$MAXACTVP
 70
    64
  9
$PLIMCHECK
 70
     0
  9
$PEXTMIN
 10
1.000000000000000E+20
 20
1.000000000000000E+20
 30
1.000000000000000E+20
  9
$PEXTMAX
 10
-1.000000000000000E+20
 20
-1.000000000000000E+20
 30
-1.000000000000000E+20
  9
$PLIMMIN
 10
0.0
 20
0.0
  9
$PLIMMAX
 10
12.0
 20
9.0
  9
$UNITMODE
 70
     0
  9
$VISRETAIN
 70
     1
  9
$PLINEGEN
 70
     0
  9
$PSLTSCALE
 70
     1
  0
ENDSEC
  0
SECTION
  2
TABLES
  0
TABLE
  2
VPORT
 70
     1
  0
VPORT
  2
*ACTIVE
 70
     0
 10
0.0
 20
0.0
 11
1.0
 21
1.0
 12
10.42990654205607
 22
4.5
 13
0.0
 23
0.0
 14
0.5
 24
0.5
 15
0.5
 25
0.5
 16
0.0
 26
0.0
 36
1.0
 17
0.0
 27
0.0
 37
0.0
 40
9.0
 41
1.972972972850329
 42
50.0
 43
0.0
 44
0.0
 50
0.0
 51
0.0
 71
     0
 72
   100
 73
     1
 74
     3
 75
     0
 76
     0
 77
     0
 78
     0
  0
ENDTAB
  0
TABLE
  2
LTYPE
 70
    25
  0
LTYPE
  2
CONTINUOUS
 70
     0
  3
Solid line
 72
    65
 73
     0
 40
0.0
  0
LTYPE
  2
BORDER
 70
     0
  3
__ __ . __ __ . __ __ . __ __ . __ __ . __ __ .
 72
    65
 73
     6
 40
8.75
 49
2.5
 49
-1.25
 49
2.5
 49
-1.25
 49
0.0
 49
-1.25
  0
LTYPE
  2
CENTER
 70
     0
  3
____ _ ____ _ ____ _ ____ _ ____ _ ____ _ ____ 
 72
    65
 73
     4
 40
10.0
 49
6.25
 49
-1.25
 49
1.25
 49
-1.25
  0
LTYPE
  2
DASHDOT
 70
     0
  3
__ . __ . __ . __ . __ . __ . __ . __ . __ . __
 72
    65
 73
     4
 40
5.0
 49
2.5
 49
-1.25
 49
0.0
 49
-1.25
  0
LTYPE
  2
DASHED
 70
     0
  3
__ __ __ __ __ __ __ __ __ __ __ __ __ __ __ __
 72
    65
 73
     2
 40
3.75
 49
2.5
 49
-1.25
  0
LTYPE
  2
DIVIDE
 70
     0
  3
____ . . ____ . . ____ . . ____ . . ____ . . __
 72
    65
 73
     6
 40
6.25
 49
2.5
 49
-1.25
 49
0.0
 49
-1.25
 49
0.0
 49
-1.25
  0
LTYPE
  2
DOT
 70
     0
  3
. . . . . . . . . . . . . . . . . . . . . . . .
 72
    65
 73
     2
 40
1.25
 49
0.0
 49
-1.25
  0
LTYPE
  2
HIDDEN
 70
     0
  3
__ __ __ __ __ __ __ __ __ __ __ __ __ __ __ __
 72
    65
 73
     2
 40
1.875
 49
1.25
 49
-0.625
  0
LTYPE
  2
PHANTOM
 70
     0
  3
______  __  __  ______  __  __  ______  __  __ 
 72
    65
 73
     6
 40
12.5
 49
6.25
 49
-1.25
 49
1.25
 49
-1.25
 49
1.25
 49
-1.25
  0
LTYPE
  2
BORDER2
 70
     0
  3
__.__.__.__.__.__.__.__.__.__.__.__.__.__.__.__
 72
    65
 73
     2
 40
2.5
 49
2.5
 49
0.0
  0
LTYPE
  2
BORDERX2
 70
     0
  3
____ ____ . ____ ____ . ____ ____ . ____ ____ .
 72
    65
 73
     6
 40
13.75
 49
5.0
 49
-1.25
 49
5.0
 49
-1.25
 49
0.0
 49
-1.25
  0
LTYPE
  2
CENTER2
 70
     0
  3
___ _ ___ _ ___ _ ___ _ ___ _ ___ _ ___ _ ___ _
 72
    65
 73
     4
 40
8.4
 49
4.65
 49
-1.25
 49
1.25
 49
-1.25
  0
LTYPE
  2
CENTERX2
 70
     0
  3
_________ _ _________ _ _________ _ _________ _
 72
    65
 73
     4
 40
16.8
 49
13.05
 49
-1.25
 49
1.25
 49
-1.25
  0
LTYPE
  2
DASHDOT2
 70
     0
  3
_ . _ . _ . _ . _ . _ . _ . _ . _ . _ . _ . _ .
 72
    65
 73
     4
 40
3.75
 49
1.25
 49
-1.25
 49
0.0
 49
-1.25
  0
LTYPE
  2
DASHDOTX2
 70
     0
  3
________ . ________ . ________ . ________ . ___
 72
    65
 73
     4
 40
12.5
 49
10.0
 49
-1.25
 49
0.0
 49
-1.25
  0
LTYPE
  2
DASHED2
 70
     0
  3
_ _ _ _ _ _ _ _ _ _ _ _ _ _ _ _ _ _ _ _ _ _ _ _
 72
    65
 73
     2
 40
2.5
 49
1.25
 49
-1.25
  0
LTYPE
  2
DASHEDX2
 70
     0
  3
____ ____ ____ ____ ____ ____ ____ ____ ____ __
 72
    65
 73
     4
 40
2.5
 49
10.0
 49
-1.25
 49
0.0
 49
-1.25
  0
LTYPE
  2
DIVIDE2
 70
     0
  3
_ _ . . _ _ . . _ _ . . _ _ . . _ _ . . _ _ . .
 72
    65
 73
     8
 40
7.5
 49
1.25
 49
-1.25
 49
1.25
 49
-1.25
 49
0.0
 49
-1.25
 49
0.0
 49
-1.25
  0
LTYPE
  2
DIVIDEX2
 70
     0
  3
________________ . . ________________ . . _____
 72
    65
 73
     7
 40
13.75
 49
0.625
 49
10.0
 49
-1.25
 49
0.0
 49
-1.25
 49
0.0
 49
-1.25
  0
LTYPE
  2
DOT2
 70
     0
  3
...............................................
 72
    65
 73
     2
 40
0.625
 49
0.0
 49
-0.625
  0
LTYPE
  2
DOTX2
 70
     0
  3
.  .  .  .  .  .  .  .  .  .  .  .  .  .  .  . 
 72
    65
 73
     2
 40
2.5
 49
0.0
 49
-2.5
  0
LTYPE
  2
HIDDEN2
 70
     0
  3
_ _ _ _ _ _ _ _ _ _ _ _ _ _ _ _ _ _ _ _ _ _ _ _
 72
    65
 73
     2
 40
1.25
 49
0.625
 49
-0.625
  0
LTYPE
  2
HIDDENX2
 70
     0
  3
____ ____ ____ ____ ____ ____ ____ ____ ____ __
 72
    65
 73
     2
 40
3.125
 49
2.5
 49
-0.625
  0
LTYPE
  2
PHANTOM2
 70
     0
  3
___  __  __  ___  __  __  ___  __  __ ___  __  
 72
    65
 73
     6
 40
9.375
 49
3.125
 49
-1.25
 49
1.25
 49
-1.25
 49
1.25
 49
-1.25
  0
LTYPE
  2
PHANTOMX2
 70
     0
  3
____________  __  __  ____________  __  __  ___
 72
    65
 73
     6
 40
18.75
 49
12.5
 49
-1.25
 49
1.25
 49
-1.25
 49
1.25
 49
-1.25
  0
ENDTAB
  0
TABLE
  2
LAYER
 70
     3
  0
LAYER
  2
0
 70
     0
 62
     7
  6
CONTINUOUS
  0
LAYER
  2
レイヤー_5
 70
     0
 62
     7
  6
CONTINUOUS
  0
LAYER
  2
寸法線
 70
     0
 62
     7
  6
CONTINUOUS
  0
ENDTAB
  0
TABLE
  2
STYLE
 70
     2
  0
STYLE
  2
STANDARD
 70
     0
 40
0.0
 41
1.0
 50
0.0
 71
     0
 42
0.2
  3
txt
  4

  0
STYLE
  2
EXCESS_STANDARD
 70
     0
 40
0.2
 41
1.0
 50
0.0
 71
     0
 42
0.2
  3
txt
  4
BIGFONT
  0
ENDTAB
  0
TABLE
  2
VIEW
 70
     0
  0
ENDTAB
  0
TABLE
  2
UCS
 70
     0
  0
ENDTAB
  0
TABLE
  2
APPID
 70
     1
  0
APPID
  2
ACAD
 70
     0
  0
ENDTAB
  0
TABLE
  2
DIMSTYLE
 70
     2
  0
DIMSTYLE
  2
STANDARD
 70
     0
  3

  4

  5

  6

  7

 40
1.0
 41
0.18
 42
0.0625
 43
0.38
 44
0.18
 45
0.0
 46
0.0
 47
0.0
 48
0.0
140
0.18
141
0.09
142
0.0
143
25.4
144
1.0
145
0.0
146
1.0
147
0.09
 71
     0
 72
     0
 73
     1
 74
     1
 75
     0
 76
     0
 77
     0
 78
     0
170
     0
171
     2
172
     0
173
     0
174
     0
175
     0
176
     0
177
     0
178
     0
  0
DIMSTYLE
  2
ISO-25
 70
     0
  3

  4

  5

  6

  7

 40
1.0
 41
3.5
 42
0.3
 43
9.0
 44
0.18
 45
0.0
 46
0.0
 47
0.0
 48
0.0
140
5.0
141
0.09
142
0.0
143
25.4
144
1.0
145
0.0
146
0.5
147
0.5
 71
     0
 72
     0
 73
     1
 74
     1
 75
     0
 76
     0
 77
     1
 78
     0
170
     0
171
     2
172
     0
173
     0
174
     0
175
     0
176
     0
177
     0
178
     0
  0
ENDTAB
  0
ENDSEC
  0
SECTION
  2
BLOCKS
  0
BLOCK
  8
0
  2
$MODEL_SPACE
 70
     0
 10
0.0
 20
0.0
 30
0.0
  3
$MODEL_SPACE
  1

  0
ENDBLK
  5
21
  8
0
  0
BLOCK
 67
     1
  8
0
  2
$PAPER_SPACE
 70
     0
 10
0.0
 20
0.0
 30
0.0
  3
$PAPER_SPACE
  1

  0
ENDBLK
  5
1D
 67
     1
  8
0
  0
BLOCK
  8
0
  2
0-NONE
 70
     0
 10
0.0
 20
0.0
 30
0.0
  3
0-NONE
  1

  0
LINE
  5
8A
  8
寸法線
  6
CONTINUOUS
 62
     7
 10
149.3908846331528
 20
84.14936726066219
 30
0.0
 11
149.3908846331528
 21
-69.71445377292046
 31
0.0
  0
LINE
  5
8B
  8
寸法線
  6
CONTINUOUS
 62
     7
 10
76.23772709935774
 20
84.31404282485718
 30
0.0
 11
163.2287996687558
 21
84.31404282485718
 31
0.0
  0
LINE
  5
8C
  8
寸法線
  6
CONTINUOUS
 62
     7
 10
76.90676464259322
 20
-69.71445377292046
 30
0.0
 11
152.1369702444454
 21
-69.71445377292046
 31
0.0
  0
LINE
  5
8D
  8
寸法線
  6
CONTINUOUS
 62
     7
 10
59.65407096201064
 20
-87.50630489694473
 30
0.0
 11
163.2287996687558
 21
-87.50630489694473
 31
0.0
  0
LINE
  5
8E
  8
寸法線
  6
CONTINUOUS
 62
     7
 10
160.3738490401293
 20
84.2661559976122
 30
0.0
 11
160.3738490401293
 21
-87.50630489694473
 31
0.0
  0
LINE
  5
8F
  8
寸法線
  6
CONTINUOUS
 62
     7
 10
149.4353263649126
 20
-70.13923404625177
 30
0.0
 11
149.3364521244858
 21
-87.4880458908729
 31
0.0
  0
LINE
  5
90
  8
寸法線
  6
CONTINUOUS
 62
     7
 10
76.45959124860782
 20
-77.53068640985529
 30
0.0
 11
95.74661381323052
 21
-77.53068640985529
 31
0.0
  0
LINE
  5
91
  8
寸法線
  6
CONTINUOUS
 62
     7
 10
94.19597633531951
 20
-70.55161197583618
 30
0.0
 11
94.29106097071254
 21
-77.53068640985529
 31
0.0
  0
LINE
  5
92
  8
寸法線
  6
CONTINUOUS
 62
     7
 10
34.43700553862733
 20
12.43350356331339
 30
0.0
 11
34.43700553862733
 21
-70.04414941085888
 31
0.0
  0
LINE
  5
93
  8
寸法線
  6
CONTINUOUS
 62
     7
 10
30.04381977583682
 20
83.036945928475
 30
0.0
 11
40.36739290693643
 21
83.036945928475
 31
0.0
  0
LINE
  5
94
  8
寸法線
  6
CONTINUOUS
 62
     7
 10
34.43700553862733
 20
82.8385084285247
 30
0.0
 11
34.43700553862733
 21
12.43350356331339
 31
0.0
  0
LINE
  5
95
  8
寸法線
  6
CONTINUOUS
 62
     7
 10
30.04381977583682
 20
12.43350356331339
 30
0.0
 11
40.36739290693643
 21
12.43350356331339
 31
0.0
  0
LINE
  5
96
  8
寸法線
  6
CONTINUOUS
 62
     7
 10
30.70286654216513
 20
-70.04414941085888
 30
0.0
 11
41.02643967326473
 21
-70.04414941085888
 31
0.0
  0
LINE
  5
97
  8
寸法線
  6
CONTINUOUS
 62
     7
 10
55.15443174872583
 20
91.8391648932884
 30
0.0
 11
79.53571700738742
 21
91.8391648932884
 31
0.0
  0
LINE
  5
98
  8
寸法線
  6
CONTINUOUS
 62
     7
 10
75.22280196940314
 20
101.6046325557776
 30
0.0
 11
122.2962421703084
 21
101.6328823387566
 31
0.0
  0
LINE
  5
99
  8
寸法線
  6
CONTINUOUS
 62
     7
 10
122.6259378082468
 20
61.8303161594711
 30
0.0
 11
122.6259378082468
 21
115.8910990235601
 31
0.0
  0
LINE
  5
9A
  8
寸法線
  6
CONTINUOUS
 62
     7
 10
75.22280196940314
 20
84.8084140269905
 30
0.0
 11
75.22280196940314
 21
105.1193189698294
 31
0.0
  0
LINE
  5
9B
  8
寸法線
  6
CONTINUOUS
 62
     7
 10
41.90493902200343
 20
84.90591022922308
 30
0.0
 11
41.90493902200343
 21
116.1491366754053
 31
0.0
  0
LINE
  5
9C
  8
寸法線
  6
CONTINUOUS
 62
     7
 10
69.87153515216464
 20
84.62306788988408
 30
0.0
 11
69.87153515216464
 21
94.69411552191488
 31
0.0
  0
LINE
  5
9D
  8
寸法線
  6
CONTINUOUS
 62
     7
 10
41.90493902200343
 20
101.5750047346044
 30
0.0
 11
74.32053146181623
 21
101.6046325557776
 31
0.0
  0
LINE
  5
9E
  8
寸法線
  6
CONTINUOUS
 62
     7
 10
41.90493902200343
 20
111.9099466808054
 30
0.0
 11
121.7784443188753
 21
111.9554219412107
 31
0.0
  0
LINE
  5
9F
  8
寸法線
  6
CONTINUOUS
 62
     7
 10
-165.6837680658563
 20
-102.1793110781723
 30
0.0
 11
-11.95878438032923
 21
-102.2630268984639
 31
0.0
  0
LINE
  5
A0
  8
寸法線
  6
CONTINUOUS
 62
     7
 10
-11.95878438032923
 20
-86.2912197192971
 30
0.0
 11
-11.95878438032923
 21
-104.1967589943346
 31
0.0
  0
LINE
  5
A1
  8
寸法線
  6
CONTINUOUS
 62
     7
 10
-165.6837680658563
 20
-86.2912197192971
 30
0.0
 11
-165.6837680658563
 21
-104.1967589943346
 31
0.0
  0
LINE
  5
A2
  8
寸法線
  6
CONTINUOUS
 62
     7
 10
-18.10896884059724
 20
84.64373846279548
 30
0.0
 11
-18.10896884059724
 21
113.6945061421648
 31
0.0
  0
LINE
  5
A3
  8
寸法線
  6
CONTINUOUS
 62
     7
 10
-159.3196431759543
 20
84.6861131372641
 30
0.0
 11
-159.3196431759543
 21
113.95254379401
 31
0.0
  0
LINE
  5
A4
  8
寸法線
  6
CONTINUOUS
 62
     7
 10
-159.3196431759543
 20
109.7133537994101
 30
0.0
 11
-18.10896884059724
 21
109.7791551231784
 31
0.0
  0
LINE
  5
A5
  8
寸法線
  6
CONTINUOUS
 62
     7
 10
-149.2406718243074
 20
98.8723273264259
 30
0.0
 11
-28.21274487973797
 21
98.67699041241218
 31
0.0
  0
LINE
  5
A6
  8
寸法線
  6
CONTINUOUS
 62
     7
 10
-28.21274487973797
 20
84.9159010061303
 30
0.0
 11
-28.21274487973797
 21
100.190076349534
 31
0.0
  0
LINE
  5
A7
  8
寸法線
  6
CONTINUOUS
 62
     7
 10
-149.1976081307417
 20
84.9159010061303
 30
0.0
 11
-149.1976081307417
 21
100.190076349534
 31
0.0
  0
LINE
  5
A8
  8
寸法線
  6
CONTINUOUS
 62
     7
 10
-22.92245625258832
 20
-33.71527300935081
 30
0.0
 11
-154.4186503386379
 21
-33.6322462081563
 31
0.0
  0
LINE
  5
A9
  8
寸法線
  6
CONTINUOUS
 62
     7
 10
-154.7383551996691
 20
-35.89601845151397
 30
0.0
 11
-154.7383551996691
 21
-22.68235471783821
 31
0.0
  0
LINE
  5
AA
  8
寸法線
  6
CONTINUOUS
 62
     7
 10
-22.92245625258832
 20
-35.95010645063238
 30
0.0
 11
-22.92245625258832
 21
-22.7364427169566
 31
0.0
  0
LINE
  5
AB
  8
寸法線
  6
CONTINUOUS
 62
     7
 10
-164.4404331052297
 20
-22.68235471783821
 30
0.0
 11
-164.4404331052297
 21
12.05902168406669
 31
0.0
  0
LINE
  5
AC
  8
寸法線
  6
CONTINUOUS
 62
     7
 10
-154.7383551996691
 20
-22.68235471783821
 30
0.0
 11
-167.8844950618339
 21
-22.68235471783821
 31
0.0
  0
LINE
  5
AD
  8
寸法線
  6
CONTINUOUS
 62
     7
 10
-154.7383551996691
 20
12.43350356331339
 30
0.0
 11
-167.8844950618339
 21
12.43350356331339
 31
0.0
  0
LINE
  5
AE
  8
寸法線
  6
CONTINUOUS
 62
     7
 10
137.5301098965346
 20
-36.6577290633027
 30
0.0
 11
137.5301098965346
 21
60.63073391150709
 31
0.0
  0
LINE
  5
AF
  8
寸法線
  6
CONTINUOUS
 62
     7
 10
122.6162915408881
 20
60.70170287850328
 30
0.0
 11
140.2751619791817
 21
60.70170287850328
 31
0.0
  0
LINE
  5
B0
  8
寸法線
  6
CONTINUOUS
 62
     7
 10
123.1103182334729
 20
-36.6577290633027
 30
0.0
 11
140.2751619791817
 21
-36.6577290633027
 31
0.0
  0
POLYLINE
  5
B1
  8
寸法線
  6
CONTINUOUS
 62
     7
 66
     1
 10
0.0
 20
0.0
 30
0.0
  0
VERTEX
  5
B2
  8
寸法線
  6
CONTINUOUS
 62
     7
 10
-156.1177714319631
 20
108.8562140426799
 30
0.0
  0
VERTEX
  5
B3
  8
寸法線
  6
CONTINUOUS
 62
     7
 10
-159.3196431759543
 20
109.7133537994101
 30
0.0
  0
VERTEX
  5
B4
  8
寸法線
  6
CONTINUOUS
 62
     7
 10
-156.1177714319631
 20
110.5715270847858
 30
0.0
  0
SEQEND
  5
B5
  8
寸法線
  6
CONTINUOUS
 62
     7
  0
POLYLINE
  5
B6
  8
寸法線
  6
CONTINUOUS
 62
     7
 66
     1
 10
0.0
 20
0.0
 30
0.0
  0
VERTEX
  5
B7
  8
寸法線
  6
CONTINUOUS
 62
     7
 10
-146.0384555707677
 20
98.0148430601472
 30
0.0
  0
VERTEX
  5
B8
  8
寸法線
  6
CONTINUOUS
 62
     7
 10
-149.2406718243074
 20
98.8723273264259
 30
0.0
  0
VERTEX
  5
B9
  8
寸法線
  6
CONTINUOUS
 62
     7
 10
-146.0384555707677
 20
99.7305006118016
 30
0.0
  0
SEQEND
  5
BA
  8
寸法線
  6
CONTINUOUS
 62
     7
  0
POLYLINE
  5
BB
  8
寸法線
  6
CONTINUOUS
 62
     7
 66
     1
 10
0.0
 20
0.0
 30
0.0
  0
VERTEX
  5
BC
  8
寸法線
  6
CONTINUOUS
 62
     7
 10
-21.31084058458844
 20
110.6362948799085
 30
0.0
  0
VERTEX
  5
BD
  8
寸法線
  6
CONTINUOUS
 62
     7
 10
-18.10896884059724
 20
109.7791551231784
 30
0.0
  0
VERTEX
  5
BE
  8
寸法線
  6
CONTINUOUS
 62
     7
 10
-21.31084058458844
 20
108.9206373282541
 30
0.0
  0
SEQEND
  5
BF
  8
寸法線
  6
CONTINUOUS
 62
     7
  0
POLYLINE
  5
C0
  8
寸法線
  6
CONTINUOUS
 62
     7
 66
     1
 10
0.0
 20
0.0
 30
0.0
  0
VERTEX
  5
C1
  8
寸法線
  6
CONTINUOUS
 62
     7
 10
-31.41496113327769
 20
99.5341301691424
 30
0.0
  0
VERTEX
  5
C2
  8
寸法線
  6
CONTINUOUS
 62
     7
 10
-28.21274487973797
 20
98.67699041241218
 30
0.0
  0
VERTEX
  5
C3
  8
寸法線
  6
CONTINUOUS
 62
     7
 10
-31.41496113327769
 20
97.818472617488
 30
0.0
  0
SEQEND
  5
C4
  8
寸法線
  6
CONTINUOUS
 62
     7
  0
POLYLINE
  5
C5
  8
寸法線
  6
CONTINUOUS
 62
     7
 66
     1
 10
0.0
 20
0.0
 30
0.0
  0
VERTEX
  5
C6
  8
寸法線
  6
CONTINUOUS
 62
     7
 10
-165.2975728619598
 20
9.231631819322189
 30
0.0
  0
VERTEX
  5
C7
  8
寸法線
  6
CONTINUOUS
 62
     7
 10
-164.4404331052297
 20
12.43350356331339
 30
0.0
  0
VERTEX
  5
C8
  8
寸法線
  6
CONTINUOUS
 62
     7
 10
-163.5819153103054
 20
9.231631819322189
 30
0.0
  0
SEQEND
  5
C9
  8
寸法線
  6
CONTINUOUS
 62
     7
  0
POLYLINE
  5
CA
  8
寸法線
  6
CONTINUOUS
 62
     7
 66
     1
 10
0.0
 20
0.0
 30
0.0
  0
VERTEX
  5
CB
  8
寸法線
  6
CONTINUOUS
 62
     7
 10
-163.5832933484995
 20
-19.48013846429851
 30
0.0
  0
VERTEX
  5
CC
  8
寸法線
  6
CONTINUOUS
 62
     7
 10
-164.4404331052297
 20
-22.68235471783821
 30
0.0
  0
VERTEX
  5
CD
  8
寸法線
  6
CONTINUOUS
 62
     7
 10
-165.2989509001539
 20
-19.48013846429851
 30
0.0
  0
SEQEND
  5
CE
  8
寸法線
  6
CONTINUOUS
 62
     7
  0
POLYLINE
  5
CF
  8
寸法線
  6
CONTINUOUS
 62
     7
 66
     1
 10
0.0
 20
0.0
 30
0.0
  0
VERTEX
  5
D0
  8
寸法線
  6
CONTINUOUS
 62
     7
 10
-151.5282152265133
 20
-34.43770953260771
 30
0.0
  0
VERTEX
  5
D1
  8
寸法線
  6
CONTINUOUS
 62
     7
 10
-154.7300869705045
 20
-33.58056977587751
 30
0.0
  0
VERTEX
  5
D2
  8
寸法線
  6
CONTINUOUS
 62
     7
 10
-151.5282152265133
 20
-32.72205198095331
 30
0.0
  0
SEQEND
  5
D3
  8
寸法線
  6
CONTINUOUS
 62
     7
  0
POLYLINE
  5
D4
  8
寸法線
  6
CONTINUOUS
 62
     7
 66
     1
 10
0.0
 20
0.0
 30
0.0
  0
VERTEX
  5
D5
  8
寸法線
  6
CONTINUOUS
 62
     7
 10
-162.4815518123166
 20
-103.0364508349025
 30
0.0
  0
VERTEX
  5
D6
  8
寸法線
  6
CONTINUOUS
 62
     7
 10
-165.6837680658563
 20
-102.1793110781723
 30
0.0
  0
VERTEX
  5
D7
  8
寸法線
  6
CONTINUOUS
 62
     7
 10
-162.4815518123166
 20
-101.320793283248
 30
0.0
  0
SEQEND
  5
D8
  8
寸法線
  6
CONTINUOUS
 62
     7
  0
POLYLINE
  5
D9
  8
寸法線
  6
CONTINUOUS
 62
     7
 66
     1
 10
0.0
 20
0.0
 30
0.0
  0
VERTEX
  5
DA
  8
寸法線
  6
CONTINUOUS
 62
     7
 10
-26.12467250612804
 20
-32.8581332526206
 30
0.0
  0
VERTEX
  5
DB
  8
寸法線
  6
CONTINUOUS
 62
     7
 10
-22.92245625258832
 20
-33.71527300935081
 30
0.0
  0
VERTEX
  5
DC
  8
寸法線
  6
CONTINUOUS
 62
     7
 10
-26.12467250612804
 20
-34.57344629472655
 30
0.0
  0
SEQEND
  5
DD
  8
寸法線
  6
CONTINUOUS
 62
     7
  0
POLYLINE
  5
DE
  8
寸法線
  6
CONTINUOUS
 62
     7
 66
     1
 10
0.0
 20
0.0
 30
0.0
  0
VERTEX
  5
DF
  8
寸法線
  6
CONTINUOUS
 62
     7
 10
-15.16100063386896
 20
-101.4058871417337
 30
0.0
  0
VERTEX
  5
E0
  8
寸法線
  6
CONTINUOUS
 62
     7
 10
-11.95878438032923
 20
-102.2630268984639
 30
0.0
  0
VERTEX
  5
E1
  8
寸法線
  6
CONTINUOUS
 62
     7
 10
-15.16100063386896
 20
-103.1215446933881
 30
0.0
  0
SEQEND
  5
E2
  8
寸法線
  6
CONTINUOUS
 62
     7
  0
POLYLINE
  5
E3
  8
寸法線
  6
CONTINUOUS
 62
     7
 66
     1
 10
0.0
 20
0.0
 30
0.0
  0
VERTEX
  5
E4
  8
寸法線
  6
CONTINUOUS
 62
     7
 10
35.29414529535752
 20
-66.84193315731915
 30
0.0
  0
VERTEX
  5
E5
  8
寸法線
  6
CONTINUOUS
 62
     7
 10
34.43700553862733
 20
-70.04414941085888
 30
0.0
  0
VERTEX
  5
E6
  8
寸法線
  6
CONTINUOUS
 62
     7
 10
33.57848774370314
 20
-66.84193315731915
 30
0.0
  0
SEQEND
  5
E7
  8
寸法線
  6
CONTINUOUS
 62
     7
  0
POLYLINE
  5
E8
  8
寸法線
  6
CONTINUOUS
 62
     7
 66
     1
 10
0.0
 20
0.0
 30
0.0
  0
VERTEX
  5
E9
  8
寸法線
  6
CONTINUOUS
 62
     7
 10
95.14820072744264
 20
-74.32847015631557
 30
0.0
  0
VERTEX
  5
EA
  8
寸法線
  6
CONTINUOUS
 62
     7
 10
94.29106097071254
 20
-77.53068640985529
 30
0.0
  0
VERTEX
  5
EB
  8
寸法線
  6
CONTINUOUS
 62
     7
 10
93.43254317578824
 20
-74.32847015631557
 30
0.0
  0
SEQEND
  5
EC
  8
寸法線
  6
CONTINUOUS
 62
     7
  0
POLYLINE
  5
ED
  8
寸法線
  6
CONTINUOUS
 62
     7
 66
     1
 10
0.0
 20
0.0
 30
0.0
  0
VERTEX
  5
EE
  8
寸法線
  6
CONTINUOUS
 62
     7
 10
93.34124814542913
 20
-72.9166700264602
 30
0.0
  0
VERTEX
  5
EF
  8
寸法線
  6
CONTINUOUS
 62
     7
 10
94.19838790215924
 20
-69.71445377292046
 30
0.0
  0
VERTEX
  5
F0
  8
寸法線
  6
CONTINUOUS
 62
     7
 10
95.05690569708354
 20
-72.9166700264602
 30
0.0
  0
SEQEND
  5
F1
  8
寸法線
  6
CONTINUOUS
 62
     7
  0
POLYLINE
  5
F2
  8
寸法線
  6
CONTINUOUS
 62
     7
 66
     1
 10
0.0
 20
0.0
 30
0.0
  0
VERTEX
  5
F3
  8
寸法線
  6
CONTINUOUS
 62
     7
 10
150.2480243898829
 20
-66.51258202892926
 30
0.0
  0
VERTEX
  5
F4
  8
寸法線
  6
CONTINUOUS
 62
     7
 10
149.3908846331528
 20
-69.71445377292046
 30
0.0
  0
VERTEX
  5
F5
  8
寸法線
  6
CONTINUOUS
 62
     7
 10
148.532711347777
 20
-66.51258202892926
 30
0.0
  0
SEQEND
  5
F6
  8
寸法線
  6
CONTINUOUS
 62
     7
  0
POLYLINE
  5
F7
  8
寸法線
  6
CONTINUOUS
 62
     7
 66
     1
 10
0.0
 20
0.0
 30
0.0
  0
VERTEX
  5
F8
  8
寸法線
  6
CONTINUOUS
 62
     7
 10
150.1953144289586
 20
-83.96819183359314
 30
0.0
  0
VERTEX
  5
F9
  8
寸法線
  6
CONTINUOUS
 62
     7
 10
149.3381746722284
 20
-87.17040808713287
 30
0.0
  0
VERTEX
  5
FA
  8
寸法線
  6
CONTINUOUS
 62
     7
 10
148.4800013868527
 20
-83.96819183359314
 30
0.0
  0
SEQEND
  5
FB
  8
寸法線
  6
CONTINUOUS
 62
     7
  0
POLYLINE
  5
FC
  8
寸法線
  6
CONTINUOUS
 62
     7
 66
     1
 10
0.0
 20
0.0
 30
0.0
  0
VERTEX
  5
FD
  8
寸法線
  6
CONTINUOUS
 62
     7
 10
148.5337448764226
 20
-72.9166700264602
 30
0.0
  0
VERTEX
  5
FE
  8
寸法線
  6
CONTINUOUS
 62
     7
 10
149.3908846331528
 20
-69.71445377292046
 30
0.0
  0
VERTEX
  5
FF
  8
寸法線
  6
CONTINUOUS
 62
     7
 10
150.249402428077
 20
-72.9166700264602
 30
0.0
  0
SEQEND
  5
100
  8
寸法線
  6
CONTINUOUS
 62
     7
  0
POLYLINE
  5
101
  8
寸法線
  6
CONTINUOUS
 62
     7
 66
     1
 10
0.0
 20
0.0
 30
0.0
  0
VERTEX
  5
102
  8
寸法線
  6
CONTINUOUS
 62
     7
 10
161.2309887968594
 20
-84.30408864340501
 30
0.0
  0
VERTEX
  5
103
  8
寸法線
  6
CONTINUOUS
 62
     7
 10
160.3738490401293
 20
-87.50630489694473
 30
0.0
  0
VERTEX
  5
104
  8
寸法線
  6
CONTINUOUS
 62
     7
 10
159.515331245205
 20
-84.30408864340501
 30
0.0
  0
SEQEND
  5
105
  8
寸法線
  6
CONTINUOUS
 62
     7
  0
POLYLINE
  5
106
  8
寸法線
  6
CONTINUOUS
 62
     7
 66
     1
 10
0.0
 20
0.0
 30
0.0
  0
VERTEX
  5
107
  8
寸法線
  6
CONTINUOUS
 62
     7
 10
138.3872496532648
 20
-33.45585731931151
 30
0.0
  0
VERTEX
  5
108
  8
寸法線
  6
CONTINUOUS
 62
     7
 10
137.5301098965346
 20
-36.6577290633027
 30
0.0
  0
VERTEX
  5
109
  8
寸法線
  6
CONTINUOUS
 62
     7
 10
136.6715921016104
 20
-33.45585731931151
 30
0.0
  0
SEQEND
  5
10A
  8
寸法線
  6
CONTINUOUS
 62
     7
  0
POLYLINE
  5
10B
  8
寸法線
  6
CONTINUOUS
 62
     7
 66
     1
 10
0.0
 20
0.0
 30
0.0
  0
VERTEX
  5
10C
  8
寸法線
  6
CONTINUOUS
 62
     7
 10
136.6729701398045
 20
57.4285176579674
 30
0.0
  0
VERTEX
  5
10D
  8
寸法線
  6
CONTINUOUS
 62
     7
 10
137.5301098965346
 20
60.63073391150709
 30
0.0
  0
VERTEX
  5
10E
  8
寸法線
  6
CONTINUOUS
 62
     7
 10
138.3882831819104
 20
57.4285176579674
 30
0.0
  0
SEQEND
  5
10F
  8
寸法線
  6
CONTINUOUS
 62
     7
  0
POLYLINE
  5
110
  8
寸法線
  6
CONTINUOUS
 62
     7
 66
     1
 10
0.0
 20
0.0
 30
0.0
  0
VERTEX
  5
111
  8
寸法線
  6
CONTINUOUS
 62
     7
 10
148.5337448764226
 20
80.94749551667098
 30
0.0
  0
VERTEX
  5
112
  8
寸法線
  6
CONTINUOUS
 62
     7
 10
149.3908846331528
 20
84.14936726066219
 30
0.0
  0
VERTEX
  5
113
  8
寸法線
  6
CONTINUOUS
 62
     7
 10
150.249402428077
 20
80.94749551667098
 30
0.0
  0
SEQEND
  5
114
  8
寸法線
  6
CONTINUOUS
 62
     7
  0
POLYLINE
  5
115
  8
寸法線
  6
CONTINUOUS
 62
     7
 66
     1
 10
0.0
 20
0.0
 30
0.0
  0
VERTEX
  5
116
  8
寸法線
  6
CONTINUOUS
 62
     7
 10
159.5167092833991
 20
81.064284253621
 30
0.0
  0
VERTEX
  5
117
  8
寸法線
  6
CONTINUOUS
 62
     7
 10
160.3738490401293
 20
84.2661559976122
 30
0.0
  0
VERTEX
  5
118
  8
寸法線
  6
CONTINUOUS
 62
     7
 10
161.2320223255051
 20
81.064284253621
 30
0.0
  0
SEQEND
  5
119
  8
寸法線
  6
CONTINUOUS
 62
     7
  0
POLYLINE
  5
11A
  8
寸法線
  6
CONTINUOUS
 62
     7
 66
     1
 10
0.0
 20
0.0
 30
0.0
  0
VERTEX
  5
11B
  8
寸法線
  6
CONTINUOUS
 62
     7
 10
45.10681076599462
 20
111.0528069240752
 30
0.0
  0
VERTEX
  5
11C
  8
寸法線
  6
CONTINUOUS
 62
     7
 10
41.90493902200343
 20
111.9099466808054
 30
0.0
  0
VERTEX
  5
11D
  8
寸法線
  6
CONTINUOUS
 62
     7
 10
45.10681076599462
 20
112.7681199661811
 30
0.0
  0
SEQEND
  5
11E
  8
寸法線
  6
CONTINUOUS
 62
     7
  0
POLYLINE
  5
11F
  8
寸法線
  6
CONTINUOUS
 62
     7
 66
     1
 10
0.0
 20
0.0
 30
0.0
  0
VERTEX
  5
120
  8
寸法線
  6
CONTINUOUS
 62
     7
 10
45.10681076599462
 20
100.7178649778742
 30
0.0
  0
VERTEX
  5
121
  8
寸法線
  6
CONTINUOUS
 62
     7
 10
41.90493902200343
 20
101.5750047346044
 30
0.0
  0
VERTEX
  5
122
  8
寸法線
  6
CONTINUOUS
 62
     7
 10
45.10681076599462
 20
102.4331780199802
 30
0.0
  0
SEQEND
  5
123
  8
寸法線
  6
CONTINUOUS
 62
     7
  0
POLYLINE
  5
124
  8
寸法線
  6
CONTINUOUS
 62
     7
 66
     1
 10
0.0
 20
0.0
 30
0.0
  0
VERTEX
  5
125
  8
寸法線
  6
CONTINUOUS
 62
     7
 10
78.42501822294294
 20
100.7474927990474
 30
0.0
  0
VERTEX
  5
126
  8
寸法線
  6
CONTINUOUS
 62
     7
 10
75.22280196940314
 20
101.6046325557776
 30
0.0
  0
VERTEX
  5
127
  8
寸法線
  6
CONTINUOUS
 62
     7
 10
78.42501822294294
 20
102.4631503507018
 30
0.0
  0
SEQEND
  5
128
  8
寸法線
  6
CONTINUOUS
 62
     7
  0
POLYLINE
  5
129
  8
寸法線
  6
CONTINUOUS
 62
     7
 66
     1
 10
0.0
 20
0.0
 30
0.0
  0
VERTEX
  5
12A
  8
寸法線
  6
CONTINUOUS
 62
     7
 10
78.42501822294294
 20
90.9816806270097
 30
0.0
  0
VERTEX
  5
12B
  8
寸法線
  6
CONTINUOUS
 62
     7
 10
75.22280196940314
 20
91.8391648932884
 30
0.0
  0
VERTEX
  5
12C
  8
寸法線
  6
CONTINUOUS
 62
     7
 10
78.42501822294294
 20
92.6973381786641
 30
0.0
  0
SEQEND
  5
12D
  8
寸法線
  6
CONTINUOUS
 62
     7
  0
POLYLINE
  5
12E
  8
寸法線
  6
CONTINUOUS
 62
     7
 66
     1
 10
0.0
 20
0.0
 30
0.0
  0
VERTEX
  5
12F
  8
寸法線
  6
CONTINUOUS
 62
     7
 10
66.66931889862484
 20
92.6963046500185
 30
0.0
  0
VERTEX
  5
130
  8
寸法線
  6
CONTINUOUS
 62
     7
 10
69.87153515216464
 20
91.8391648932884
 30
0.0
  0
VERTEX
  5
131
  8
寸法線
  6
CONTINUOUS
 62
     7
 10
66.66931889862484
 20
90.9806470983641
 30
0.0
  0
SEQEND
  5
132
  8
寸法線
  6
CONTINUOUS
 62
     7
  0
POLYLINE
  5
133
  8
寸法線
  6
CONTINUOUS
 62
     7
 66
     1
 10
0.0
 20
0.0
 30
0.0
  0
VERTEX
  5
134
  8
寸法線
  6
CONTINUOUS
 62
     7
 10
72.02093022541193
 20
102.4617723125077
 30
0.0
  0
VERTEX
  5
135
  8
寸法線
  6
CONTINUOUS
 62
     7
 10
75.22280196940314
 20
101.6046325557776
 30
0.0
  0
VERTEX
  5
136
  8
寸法線
  6
CONTINUOUS
 62
     7
 10
72.02093022541193
 20
100.7464592704018
 30
0.0
  0
SEQEND
  5
137
  8
寸法線
  6
CONTINUOUS
 62
     7
  0
POLYLINE
  5
138
  8
寸法線
  6
CONTINUOUS
 62
     7
 66
     1
 10
0.0
 20
0.0
 30
0.0
  0
VERTEX
  5
139
  8
寸法線
  6
CONTINUOUS
 62
     7
 10
119.0943704263172
 20
102.4900220954868
 30
0.0
  0
VERTEX
  5
13A
  8
寸法線
  6
CONTINUOUS
 62
     7
 10
122.2962421703084
 20
101.6328823387566
 30
0.0
  0
VERTEX
  5
13B
  8
寸法線
  6
CONTINUOUS
 62
     7
 10
119.0943704263172
 20
100.7743645438324
 30
0.0
  0
SEQEND
  5
13C
  8
寸法線
  6
CONTINUOUS
 62
     7
  0
POLYLINE
  5
13D
  8
寸法線
  6
CONTINUOUS
 62
     7
 66
     1
 10
0.0
 20
0.0
 30
0.0
  0
VERTEX
  5
13E
  8
寸法線
  6
CONTINUOUS
 62
     7
 10
119.4237215547071
 20
112.8914543845531
 30
0.0
  0
VERTEX
  5
13F
  8
寸法線
  6
CONTINUOUS
 62
     7
 10
122.6259378082468
 20
112.0343146278229
 30
0.0
  0
VERTEX
  5
140
  8
寸法線
  6
CONTINUOUS
 62
     7
 10
119.4237215547071
 20
111.1757968328986
 30
0.0
  0
SEQEND
  5
141
  8
寸法線
  6
CONTINUOUS
 62
     7
  0
POLYLINE
  5
142
  8
寸法線
  6
CONTINUOUS
 62
     7
 66
     1
 10
0.0
 20
0.0
 30
0.0
  0
VERTEX
  5
143
  8
寸法線
  6
CONTINUOUS
 62
     7
 10
33.57986578189723
 20
9.231631819322189
 30
0.0
  0
VERTEX
  5
144
  8
寸法線
  6
CONTINUOUS
 62
     7
 10
34.43700553862733
 20
12.43350356331339
 30
0.0
  0
VERTEX
  5
145
  8
寸法線
  6
CONTINUOUS
 62
     7
 10
35.29552333355163
 20
9.231631819322189
 30
0.0
  0
SEQEND
  5
146
  8
寸法線
  6
CONTINUOUS
 62
     7
  0
POLYLINE
  5
147
  8
寸法線
  6
CONTINUOUS
 62
     7
 66
     1
 10
0.0
 20
0.0
 30
0.0
  0
VERTEX
  5
148
  8
寸法線
  6
CONTINUOUS
 62
     7
 10
33.57986578189723
 20
79.63663668453339
 30
0.0
  0
VERTEX
  5
149
  8
寸法線
  6
CONTINUOUS
 62
     7
 10
34.43700553862733
 20
82.8385084285247
 30
0.0
  0
VERTEX
  5
14A
  8
寸法線
  6
CONTINUOUS
 62
     7
 10
35.29552333355163
 20
79.63663668453339
 30
0.0
  0
SEQEND
  5
14B
  8
寸法線
  6
CONTINUOUS
 62
     7
  0
POLYLINE
  5
14C
  8
寸法線
  6
CONTINUOUS
 62
     7
 66
     1
 10
0.0
 20
0.0
 30
0.0
  0
VERTEX
  5
14D
  8
寸法線
  6
CONTINUOUS
 62
     7
 10
35.29414529535752
 20
15.63571981685308
 30
0.0
  0
VERTEX
  5
14E
  8
寸法線
  6
CONTINUOUS
 62
     7
 10
34.43700553862733
 20
12.43350356331339
 30
0.0
  0
VERTEX
  5
14F
  8
寸法線
  6
CONTINUOUS
 62
     7
 10
33.57848774370314
 20
15.63571981685308
 30
0.0
  0
SEQEND
  5
150
  8
寸法線
  6
CONTINUOUS
 62
     7
  0
LINE
  5
151
  8
寸法線
  6
CONTINUOUS
 62
     7
 10
69.58455869824324
 20
-27.56371051088871
 30
0.0
 11
68.40116839905993
 21
-24.46725868874621
 31
0.0
  0
TEXT
  5
153
  8
寸法線
  6
CONTINUOUS
 62
     7
 10
147.2073831146014
 20
4.060543495962207
 30
0.0
 40
4.480836716485385
  1
1
 50
90.0
 41
0.5
  7
EXCESS_STANDARD
  0
TEXT
  5
154
  8
寸法線
  6
CONTINUOUS
 62
     7
 10
147.2073831146014
 20
6.3009618542049
 30
0.0
 40
4.480836716485385
  1
5
 50
90.0
 41
0.5
  7
EXCESS_STANDARD
  0
TEXT
  5
155
  8
寸法線
  6
CONTINUOUS
 62
     7
 10
147.2073831146014
 20
8.541380212447592
 30
0.0
 40
4.480836716485385
  1
4
 50
90.0
 41
0.5
  7
EXCESS_STANDARD
  0
TEXT
  5
156
  8
寸法線
  6
CONTINUOUS
 62
     7
 10
158.396364231596
 20
4.498759641686007
 30
0.0
 40
4.480836716485385
  1
1
 50
90.0
 41
0.5
  7
EXCESS_STANDARD
  0
TEXT
  5
157
  8
寸法線
  6
CONTINUOUS
 62
     7
 10
158.396364231596
 20
6.7391779999287
 30
0.0
 40
4.480836716485385
  1
7
 50
90.0
 41
0.5
  7
EXCESS_STANDARD
  0
TEXT
  5
158
  8
寸法線
  6
CONTINUOUS
 62
     7
 10
158.396364231596
 20
8.979596358171392
 30
0.0
 40
4.480836716485385
  1
1
 50
90.0
 41
0.5
  7
EXCESS_STANDARD
  0
TEXT
  5
159
  8
寸法線
  6
CONTINUOUS
 62
     7
 10
146.4704771903066
 20
-83.2712490169271
 30
0.0
 40
4.480836716485385
  1
1
 50
90.0
 41
0.5
  7
EXCESS_STANDARD
  0
TEXT
  5
15A
  8
寸法線
  6
CONTINUOUS
 62
     7
 10
146.4704771903066
 20
-81.03083065868441
 30
0.0
 40
4.480836716485385
  1
7
 50
90.0
 41
0.5
  7
EXCESS_STANDARD
  0
TEXT
  5
15B
  8
寸法線
  6
CONTINUOUS
 62
     7
 10
92.01213030721972
 20
-76.2139709153928
 30
0.0
 40
4.480836716485385
  1
7
 50
90.0
 41
0.5
  7
EXCESS_STANDARD
  0
TEXT
  5
15C
  8
寸法線
  6
CONTINUOUS
 62
     7
 10
32.24041265723213
 20
-35.54427420246995
 30
0.0
 40
4.480836716485385
  1
8
 50
90.0
 41
0.5
  7
EXCESS_STANDARD
  0
TEXT
  5
15D
  8
寸法線
  6
CONTINUOUS
 62
     7
 10
32.24041265723213
 20
-33.30385584422726
 30
0.0
 40
4.480836716485385
  1
2
 50
90.0
 41
0.5
  7
EXCESS_STANDARD
  0
TEXT
  5
15E
  8
寸法線
  6
CONTINUOUS
 62
     7
 10
32.24041265723213
 20
-31.06343748598457
 30
0.0
 40
4.480836716485385
  1
.
 50
90.0
 41
0.5
  7
EXCESS_STANDARD
  0
TEXT
  5
15F
  8
寸法線
  6
CONTINUOUS
 62
     7
 10
32.24041265723213
 20
-29.94322830686322
 30
0.0
 40
4.480836716485385
  1
5
 50
90.0
 41
0.5
  7
EXCESS_STANDARD
  0
TEXT
  5
160
  8
寸法線
  6
CONTINUOUS
 62
     7
 10
32.13051411125262
 20
38.0455491840805
 30
0.0
 40
4.480836716485385
  1
7
 50
90.0
 41
0.5
  7
EXCESS_STANDARD
  0
TEXT
  5
161
  8
寸法線
  6
CONTINUOUS
 62
     7
 10
32.13051411125262
 20
40.28596754232319
 30
0.0
 40
4.480836716485385
  1
1
 50
90.0
 41
0.5
  7
EXCESS_STANDARD
  0
TEXT
  5
162
  8
寸法線
  6
CONTINUOUS
 62
     7
 10
71.16103439229362
 20
114.062786849538
 30
0.0
 40
4.480837174037134
  1
8
 41
0.5
  7
EXCESS_STANDARD
  0
TEXT
  5
163
  8
寸法線
  6
CONTINUOUS
 62
     7
 10
73.40145297931218
 20
114.062786849538
 30
0.0
 40
4.480837174037134
  1
0
 41
0.5
  7
EXCESS_STANDARD
  0
TEXT
  5
164
  8
寸法線
  6
CONTINUOUS
 62
     7
 10
75.64187156633075
 20
114.062786849538
 30
0.0
 40
4.480837174037134
  1
.
 41
0.5
  7
EXCESS_STANDARD
  0
TEXT
  5
165
  8
寸法線
  6
CONTINUOUS
 62
     7
 10
76.76208085984004
 20
114.062786849538
 30
0.0
 40
4.480837174037134
  1
5
 41
0.5
  7
EXCESS_STANDARD
  0
TEXT
  5
166
  8
寸法線
  6
CONTINUOUS
 62
     7
 10
54.09540939656003
 20
102.7706251227604
 30
0.0
 40
4.480837174037134
  1
3
 41
0.4999999999999984
  7
EXCESS_STANDARD
  0
TEXT
  5
167
  8
寸法線
  6
CONTINUOUS
 62
     7
 10
56.33582798357859
 20
102.7706251227604
 30
0.0
 40
4.480837174037134
  1
3
 41
0.4999999999999984
  7
EXCESS_STANDARD
  0
TEXT
  5
168
  8
寸法線
  6
CONTINUOUS
 62
     7
 10
91.66865428734032
 20
103.3480231260882
 30
0.0
 40
4.480837174037134
  1
4
 41
0.5
  7
EXCESS_STANDARD
  0
TEXT
  5
169
  8
寸法線
  6
CONTINUOUS
 62
     7
 10
93.90907287435888
 20
103.3480231260882
 30
0.0
 40
4.480837174037134
  1
7
 41
0.5
  7
EXCESS_STANDARD
  0
TEXT
  5
16A
  8
寸法線
  6
CONTINUOUS
 62
     7
 10
96.14949146137745
 20
103.3480231260882
 30
0.0
 40
4.480837174037134
  1
.
 41
0.5
  7
EXCESS_STANDARD
  0
TEXT
  5
16B
  8
寸法線
  6
CONTINUOUS
 62
     7
 10
97.26970075488674
 20
103.3480231260882
 30
0.0
 40
4.480837174037134
  1
5
 41
0.5
  7
EXCESS_STANDARD
  0
TEXT
  5
16C
  8
寸法線
  6
CONTINUOUS
 62
     7
 10
55.70909212185101
 20
93.31935016852589
 30
0.0
 40
4.480837174037134
  1
5
 41
0.5
  7
EXCESS_STANDARD
  0
TEXT
  5
16D
  8
寸法線
  6
CONTINUOUS
 62
     7
 10
57.94951070886958
 20
93.31935016852589
 30
0.0
 40
4.480837174037134
  1
.
 41
0.5
  7
EXCESS_STANDARD
  0
TEXT
  5
16E
  8
寸法線
  6
CONTINUOUS
 62
     7
 10
59.06972000237887
 20
93.31935016852589
 30
0.0
 40
4.480837174037134
  1
5
 41
0.5
  7
EXCESS_STANDARD
  0
TEXT
  5
16F
  8
寸法線
  6
CONTINUOUS
 62
     7
 10
-95.86529070700885
 20
-101.0558654404323
 30
0.0
 40
4.480837174037134
  1
1
 41
0.5
  7
EXCESS_STANDARD
  0
TEXT
  5
170
  8
寸法線
  6
CONTINUOUS
 62
     7
 10
-93.62487211999029
 20
-101.0558654404323
 30
0.0
 40
4.480837174037134
  1
5
 41
0.5
  7
EXCESS_STANDARD
  0
TEXT
  5
171
  8
寸法線
  6
CONTINUOUS
 62
     7
 10
-91.38445353297172
 20
-101.0558654404323
 30
0.0
 40
4.480837174037134
  1
4
 41
0.5
  7
EXCESS_STANDARD
  0
TEXT
  5
172
  8
寸法線
  6
CONTINUOUS
 62
     7
 10
-96.04133508630514
 20
111.8382886947122
 30
0.0
 40
4.480837174037134
  1
1
 41
0.5
  7
EXCESS_STANDARD
  0
TEXT
  5
173
  8
寸法線
  6
CONTINUOUS
 62
     7
 10
-93.80091649928657
 20
111.8382886947122
 30
0.0
 40
4.480837174037134
  1
4
 41
0.5
  7
EXCESS_STANDARD
  0
TEXT
  5
174
  8
寸法線
  6
CONTINUOUS
 62
     7
 10
-91.560497912268
 20
111.8382886947122
 30
0.0
 40
4.480837174037134
  1
2
 41
0.5
  7
EXCESS_STANDARD
  0
TEXT
  5
175
  8
寸法線
  6
CONTINUOUS
 62
     7
 10
-99.05097050221939
 20
100.1931769354707
 30
0.0
 40
4.480837174037134
  1
1
 41
0.5
  7
EXCESS_STANDARD
  0
TEXT
  5
176
  8
寸法線
  6
CONTINUOUS
 62
     7
 10
-96.81055191520082
 20
100.1931769354707
 30
0.0
 40
4.480837174037134
  1
2
 41
0.5
  7
EXCESS_STANDARD
  0
TEXT
  5
177
  8
寸法線
  6
CONTINUOUS
 62
     7
 10
-94.57013332818227
 20
100.1931769354707
 30
0.0
 40
4.480837174037134
  1
1
 41
0.5
  7
EXCESS_STANDARD
  0
TEXT
  5
178
  8
寸法線
  6
CONTINUOUS
 62
     7
 10
-92.3297147411637
 20
100.1931769354707
 30
0.0
 40
4.480837174037134
  1
.
 41
0.5
  7
EXCESS_STANDARD
  0
TEXT
  5
179
  8
寸法線
  6
CONTINUOUS
 62
     7
 10
-91.20950544765441
 20
100.1931769354707
 30
0.0
 40
4.480837174037134
  1
5
 41
0.5
  7
EXCESS_STANDARD
  0
TEXT
  5
17A
  8
寸法線
  6
CONTINUOUS
 62
     7
 10
-84.8826708095809
 20
-31.40568099603931
 30
0.0
 40
4.48083717403712
  1
1
 41
0.5000000000000016
  7
EXCESS_STANDARD
  0
TEXT
  5
17B
  8
寸法線
  6
CONTINUOUS
 62
     7
 10
-82.64225222256233
 20
-31.40568099603931
 30
0.0
 40
4.48083717403712
  1
3
 41
0.5000000000000016
  7
EXCESS_STANDARD
  0
TEXT
  5
17C
  8
寸法線
  6
CONTINUOUS
 62
     7
 10
-80.40183363554378
 20
-31.40568099603931
 30
0.0
 40
4.48083717403712
  1
2
 41
0.5000000000000016
  7
EXCESS_STANDARD
  0
TEXT
  5
17D
  8
寸法線
  6
CONTINUOUS
 62
     7
 10
-166.1976040574813
 20
-9.68538749018471
 30
0.0
 40
4.480836716485385
  1
3
 50
90.0
 41
0.4999999999999984
  7
EXCESS_STANDARD
  0
TEXT
  5
17E
  8
寸法線
  6
CONTINUOUS
 62
     7
 10
-166.1976040574813
 20
-7.444969131942024
 30
0.0
 40
4.480836716485385
  1
5
 50
90.0
 41
0.4999999999999984
  7
EXCESS_STANDARD
  0
TEXT
  5
17F
  8
寸法線
  6
CONTINUOUS
 62
     7
 10
135.9677590939738
 20
3.010133882509507
 30
0.0
 40
4.480836716485385
  1
φ
 50
90.0
  7
EXCESS_STANDARD
  0
TEXT
  5
180
  8
寸法線
  6
CONTINUOUS
 62
     7
 10
135.9677590939738
 20
7.490970598994892
 30
0.0
 40
4.480836716485385
  1
9
 50
90.0
 41
0.5
  7
EXCESS_STANDARD
  0
TEXT
  5
181
  8
寸法線
  6
CONTINUOUS
 62
     7
 10
135.9677590939738
 20
9.731388957237584
 30
0.0
 40
4.480836716485385
  1
7
 50
90.0
 41
0.5
  7
EXCESS_STANDARD
  0
LINE
  5
182
  8
レイヤー_5
  6
CONTINUOUS
 62
     7
 10
-28.5813700966597
 20
83.71459621042371
 30
0.0
 11
-149.0808193937918
 21
83.71459621042371
 31
0.0
  0
LINE
  5
183
  8
レイヤー_5
  6
CONTINUOUS
 62
     7
 10
-28.5813700966597
 20
83.71459621042371
 30
0.0
 11
-28.5813700966597
 21
83.21402383641689
 31
0.0
  0
LINE
  5
184
  8
レイヤー_5
  6
CONTINUOUS
 62
     7
 10
-149.0808193937918
 20
83.71459621042371
 30
0.0
 11
-149.0808193937918
 21
83.21402383641689
 31
0.0
  0
LINE
  5
185
  8
レイヤー_5
  6
CONTINUOUS
 62
     7
 10
-144.2094543776485
 20
83.21402383641689
 30
0.0
 11
-144.2094543776485
 21
-70.28461707572932
 31
0.0
  0
LINE
  5
186
  8
レイヤー_5
  6
CONTINUOUS
 62
     7
 10
-144.2094543776485
 20
83.21402383641689
 30
0.0
 11
-33.45307962235149
 21
83.21402383641689
 31
0.0
  0
LINE
  5
187
  8
レイヤー_5
  6
CONTINUOUS
 62
     7
 10
-33.45307962235149
 20
-70.28461707572932
 30
0.0
 11
-33.45307962235149
 21
83.21402383641689
 31
0.0
  0
LINE
  5
188
  8
レイヤー_5
  6
CONTINUOUS
 62
     7
 10
-144.2094543776485
 20
-70.28461707572932
 30
0.0
 11
-33.45307962235149
 21
-70.28461707572932
 31
0.0
  0
LINE
  5
189
  8
レイヤー_5
  6
CONTINUOUS
 62
     7
 10
-149.5813917677986
 20
-70.28461707572932
 30
0.0
 11
-149.5813917677986
 21
83.21402383641689
 31
0.0
  0
LINE
  5
18A
  8
レイヤー_5
  6
CONTINUOUS
 62
     7
 10
-149.5813917677986
 20
83.21402383641689
 30
0.0
 11
-144.2094543776485
 21
83.21402383641689
 31
0.0
  0
LINE
  5
18B
  8
レイヤー_5
  6
CONTINUOUS
 62
     7
 10
-144.2094543776485
 20
-70.28461707572932
 30
0.0
 11
-149.5813917677986
 21
-70.28461707572932
 31
0.0
  0
LINE
  5
18C
  8
レイヤー_5
  6
CONTINUOUS
 62
     7
 10
-28.08114223220142
 20
83.21402383641689
 30
0.0
 11
-28.08114223220142
 21
-70.28461707572932
 31
0.0
  0
LINE
  5
18D
  8
レイヤー_5
  6
CONTINUOUS
 62
     7
 10
-33.45307962235149
 20
83.21402383641689
 30
0.0
 11
-28.08114223220142
 21
83.21402383641689
 31
0.0
  0
LINE
  5
18E
  8
レイヤー_5
  6
CONTINUOUS
 62
     7
 10
-28.08114223220142
 20
-70.28461707572932
 30
0.0
 11
-33.45307962235149
 21
-70.28461707572932
 31
0.0
  0
LINE
  5
18F
  8
レイヤー_5
  6
CONTINUOUS
 62
     7
 10
-159.8308953459654
 20
83.21402383641689
 30
0.0
 11
-159.8308953459654
 21
-70.28461707572932
 31
0.0
  0
POLYLINE
  5
190
  8
レイヤー_5
  6
CONTINUOUS
 62
     7
 66
     1
 10
0.0
 20
0.0
 30
0.0
  0
VERTEX
  5
191
  8
レイヤー_5
  6
CONTINUOUS
 62
     7
 10
-157.0810198061441
 20
-22.78536339214071
 30
0.0
 42
0.0498344555580543
  0
VERTEX
  5
192
  8
レイヤー_5
  6
CONTINUOUS
 62
     7
 10
-157.0361997338184
 20
-23.23393619570873
 30
0.0
 42
0.050253342506286
  0
VERTEX
  5
193
  8
レイヤー_5
  6
CONTINUOUS
 62
     7
 10
-156.9042598061441
 20
-23.6610743921407
 30
0.0
 42
0.0722830620275039
  0
VERTEX
  5
194
  8
レイヤー_5
  6
CONTINUOUS
 62
     7
 10
-156.5692915643807
 20
-24.21443334984482
 30
0.0
 42
0.0720546550614982
  0
VERTEX
  5
195
  8
レイヤー_5
  6
CONTINUOUS
 62
     7
 10
-156.0892598061441
 20
-24.65123939214071
 30
0.0
 42
0.074568425250037
  0
VERTEX
  5
196
  8
レイヤー_5
  6
CONTINUOUS
 62
     7
 10
-155.4905333098751
 20
-24.93718884632701
 30
0.0
 42
0.0743119709959424
  0
VERTEX
  5
197
  8
レイヤー_5
  6
CONTINUOUS
 62
     7
 10
-154.8313718061441
 20
-25.03570039214071
 30
0.0
 42
0.0498688154605145
  0
VERTEX
  5
198
  8
レイヤー_5
  6
CONTINUOUS
 62
     7
 10
-154.3827303376137
 20
-24.99084239764587
 30
0.0
 42
0.0502869045125703
  0
VERTEX
  5
199
  8
レイヤー_5
  6
CONTINUOUS
 62
     7
 10
-153.9555158061441
 20
-24.85878339214072
 30
0.0
 42
0.072296142499194
  0
VERTEX
  5
19A
  8
レイヤー_5
  6
CONTINUOUS
 62
     7
 10
-153.4022181370924
 20
-24.52363081651573
 30
0.0
 42
0.0720375483621904
  0
VERTEX
  5
19B
  8
レイヤー_5
  6
CONTINUOUS
 62
     7
 10
-152.9654058061441
 20
-24.04331739214071
 30
0.0
 42
0.0745341834619486
  0
VERTEX
  5
19C
  8
レイヤー_5
  6
CONTINUOUS
 62
     7
 10
-152.6794860361384
 20
-23.44437212260205
 30
0.0
 42
0.0742832165530421
  0
VERTEX
  5
19D
  8
レイヤー_5
  6
CONTINUOUS
 62
     7
 10
-152.5810358061441
 20
-22.78536339214071
 30
0.0
 42
0.0498783760431789
  0
VERTEX
  5
19E
  8
レイヤー_5
  6
CONTINUOUS
 62
     7
 10
-152.6258832503729
 20
-22.33691384389914
 30
0.0
 42
0.0502769541300244
  0
VERTEX
  5
19F
  8
レイヤー_5
  6
CONTINUOUS
 62
     7
 10
-152.7579038061441
 20
-21.90985139214071
 30
0.0
 42
0.0482897681533507
  0
VERTEX
  5
1A0
  8
レイヤー_5
  6
CONTINUOUS
 62
     7
 10
-152.9639307400543
 20
-21.52982868936364
 30
0.0
 42
0.0480624619453855
  0
VERTEX
  5
1A1
  8
レイヤー_5
  6
CONTINUOUS
 62
     7
 10
-153.2402118061441
 20
-21.19463339214069
 30
0.0
 42
0.0480632628797339
  0
VERTEX
  5
1A2
  8
レイヤー_5
  6
CONTINUOUS
 62
     7
 10
-153.5754159400539
 20
-20.91834591373219
 30
0.0
 42
0.0482935372278485
  0
VERTEX
  5
1A3
  8
レイヤー_5
  6
CONTINUOUS
 62
     7
 10
-153.9555158061441
 20
-20.7122823921407
 30
0.0
 42
0.0502850812468801
  0
VERTEX
  5
1A4
  8
レイヤー_5
  6
CONTINUOUS
 62
     7
 10
-154.382751122823
 20
-20.58022450707704
 30
0.0
 42
0.0498656570946868
  0
VERTEX
  5
1A5
  8
レイヤー_5
  6
CONTINUOUS
 62
     7
 10
-154.8313718061441
 20
-20.5353713921407
 30
0.0
 42
0.0498778824724079
  0
VERTEX
  5
1A6
  8
レイヤー_5
  6
CONTINUOUS
 62
     7
 10
-155.2800371907995
 20
-20.58023997499348
 30
0.0
 42
0.0502943524971256
  0
VERTEX
  5
1A7
  8
レイヤー_5
  6
CONTINUOUS
 62
     7
 10
-155.7071208061441
 20
-20.7122823921407
 30
0.0
 42
0.0723041269898444
  0
VERTEX
  5
1A8
  8
レイヤー_5
  6
CONTINUOUS
 62
     7
 10
-156.2601605608781
 20
-21.04734303982983
 30
0.0
 42
0.0720542616040967
  0
VERTEX
  5
1A9
  8
レイヤー_5
  6
CONTINUOUS
 62
     7
 10
-156.6968678061441
 20
-21.52767039214071
 30
0.0
 42
0.0745311861227232
  0
VERTEX
  5
1AA
  8
レイヤー_5
  6
CONTINUOUS
 62
     7
 10
-156.9826562249029
 20
-22.12658767285787
 30
0.0
 42
0.0742442421613709
  0
VERTEX
  5
1AB
  8
レイヤー_5
  6
CONTINUOUS
 62
     7
 10
-157.0810198061441
 20
-22.7853633919846
 30
0.0
  0
SEQEND
  5
1AC
  8
レイヤー_5
  6
CONTINUOUS
 62
     7
  0
LINE
  5
1AD
  8
レイヤー_5
  6
CONTINUOUS
 62
     7
 10
-159.8308953459654
 20
83.21402383641689
 30
0.0
 11
-149.5813917677986
 21
83.21402383641689
 31
0.0
  0
LINE
  5
1AE
  8
レイヤー_5
  6
CONTINUOUS
 62
     7
 10
-159.8308953459654
 20
-70.28461707572932
 30
0.0
 11
-149.5813917677986
 21
-70.28461707572932
 31
0.0
  0
LINE
  5
1AF
  8
レイヤー_5
  6
CONTINUOUS
 62
     7
 10
-17.83163865403463
 20
83.21402383641689
 30
0.0
 11
-17.83163865403463
 21
-70.28461707572932
 31
0.0
  0
POLYLINE
  5
1B0
  8
レイヤー_5
  6
CONTINUOUS
 62
     7
 66
     1
 10
0.0
 20
0.0
 30
0.0
  0
VERTEX
  5
1B1
  8
レイヤー_5
  6
CONTINUOUS
 62
     7
 10
-25.08115380614407
 20
-22.78536339214071
 30
0.0
 42
0.049821837954395
  0
VERTEX
  5
1B2
  8
レイヤー_5
  6
CONTINUOUS
 62
     7
 10
-25.03634254220891
 20
-23.23396218490797
 30
0.0
 42
0.0502451898040899
  0
VERTEX
  5
1B3
  8
レイヤー_5
  6
CONTINUOUS
 62
     7
 10
-24.90444180614407
 20
-23.6610743921407
 30
0.0
 42
0.0722871014916862
  0
VERTEX
  5
1B4
  8
レイヤー_5
  6
CONTINUOUS
 62
     7
 10
-24.56952493778763
 20
-24.21444439346087
 30
0.0
 42
0.0720686251780799
  0
VERTEX
  5
1B5
  8
レイヤー_5
  6
CONTINUOUS
 62
     7
 10
-24.08954480614408
 20
-24.65123939214071
 30
0.0
 42
0.0745878128048388
  0
VERTEX
  5
1B6
  8
レイヤー_5
  6
CONTINUOUS
 62
     7
 10
-23.4907644273947
 20
-24.93719581197836
 30
0.0
 42
0.0742957753074089
  0
VERTEX
  5
1B7
  8
レイヤー_5
  6
CONTINUOUS
 62
     7
 10
-22.83150580614407
 20
-25.03570039214071
 30
0.0
 42
0.0498715786660821
  0
VERTEX
  5
1B8
  8
レイヤー_5
  6
CONTINUOUS
 62
     7
 10
-22.38287152991422
 20
-24.9908406188643
 30
0.0
 42
0.0502949704392736
  0
VERTEX
  5
1B9
  8
レイヤー_5
  6
CONTINUOUS
 62
     7
 10
-21.95570380614407
 20
-24.85878339214071
 30
0.0
 42
0.0723033826194925
  0
VERTEX
  5
1BA
  8
レイヤー_5
  6
CONTINUOUS
 62
     7
 10
-21.40253912622134
 20
-24.52366792246274
 30
0.0
 42
0.0720482517044851
  0
VERTEX
  5
1BB
  8
レイヤー_5
  6
CONTINUOUS
 62
     7
 10
-20.96577480614407
 20
-24.04331739214071
 30
0.0
 42
0.0745322256474743
  0
VERTEX
  5
1BC
  8
レイヤー_5
  6
CONTINUOUS
 62
     7
 10
-20.67992334040279
 20
-23.4443428556321
 30
0.0
 42
0.0742567828853672
  0
VERTEX
  5
1BD
  8
レイヤー_5
  6
CONTINUOUS
 62
     7
 10
-20.58151480614407
 20
-22.78536339214071
 30
0.0
 42
0.0498619889112713
  0
VERTEX
  5
1BE
  8
レイヤー_5
  6
CONTINUOUS
 62
     7
 10
-20.62634740021076
 20
-22.33691426843363
 30
0.0
 42
0.0502676443768834
  0
VERTEX
  5
1BF
  8
レイヤー_5
  6
CONTINUOUS
 62
     7
 10
-20.75832880614407
 20
-21.90985139214071
 30
0.0
 42
0.0482897116790858
  0
VERTEX
  5
1C0
  8
レイヤー_5
  6
CONTINUOUS
 62
     7
 10
-20.96432448845965
 20
-21.52979390795667
 30
0.0
 42
0.0480609781819761
  0
VERTEX
  5
1C1
  8
レイヤー_5
  6
CONTINUOUS
 62
     7
 10
-21.24051780614407
 20
-21.1946333921407
 30
0.0
 42
0.0480773624382441
  0
VERTEX
  5
1C2
  8
レイヤー_5
  6
CONTINUOUS
 62
     7
 10
-21.57571413034862
 20
-20.91830865693794
 30
0.0
 42
0.0482954213074843
  0
VERTEX
  5
1C3
  8
レイヤー_5
  6
CONTINUOUS
 62
     7
 10
-21.95570380614407
 20
-20.71228239214071
 30
0.0
 42
0.0502918066012372
  0
VERTEX
  5
1C4
  8
レイヤー_5
  6
CONTINUOUS
 62
     7
 10
-22.38288086893309
 20
-20.58022864168494
 30
0.0
 42
0.0498696857835019
  0
VERTEX
  5
1C5
  8
レイヤー_5
  6
CONTINUOUS
 62
     7
 10
-22.83150580614407
 20
-20.5353713921407
 30
0.0
 42
0.049866344481229
  0
VERTEX
  5
1C6
  8
レイヤー_5
  6
CONTINUOUS
 62
     7
 10
-23.28026040084029
 20
-20.58023846336039
 30
0.0
 42
0.0503005725039129
  0
VERTEX
  5
1C7
  8
レイヤー_5
  6
CONTINUOUS
 62
     7
 10
-23.70739980614407
 20
-20.71228239214071
 30
0.0
 42
0.0723140733697356
  0
VERTEX
  5
1C8
  8
レイヤー_5
  6
CONTINUOUS
 62
     7
 10
-24.26041255429828
 20
-21.04732536947161
 30
0.0
 42
0.0720698515605131
  0
VERTEX
  5
1C9
  8
レイヤー_5
  6
CONTINUOUS
 62
     7
 10
-24.69709280614407
 20
-21.52767039214071
 30
0.0
 42
0.0745267625943325
  0
VERTEX
  5
1CA
  8
レイヤー_5
  6
CONTINUOUS
 62
     7
 10
-24.98280431669955
 20
-22.12653785167063
 30
0.0
 42
0.0742284022670746
  0
VERTEX
  5
1CB
  8
レイヤー_5
  6
CONTINUOUS
 62
     7
 10
-25.08115380614407
 20
-22.78536339235852
 30
0.0
  0
SEQEND
  5
1CC
  8
レイヤー_5
  6
CONTINUOUS
 62
     7
  0
LINE
  5
1CD
  8
レイヤー_5
  6
CONTINUOUS
 62
     7
 10
-28.08114223220142
 20
83.21402383641689
 30
0.0
 11
-17.83163865403463
 21
83.21402383641689
 31
0.0
  0
LINE
  5
1CE
  8
レイヤー_5
  6
CONTINUOUS
 62
     7
 10
-28.08114223220142
 20
-70.28461707572932
 30
0.0
 11
-17.83163865403463
 21
-70.28461707572932
 31
0.0
  0
POLYLINE
  5
1CF
  8
レイヤー_5
  6
CONTINUOUS
 62
     7
 66
     1
 10
0.0
 20
0.0
 30
0.0
  0
VERTEX
  5
1D0
  8
レイヤー_5
  6
CONTINUOUS
 62
     7
 10
-157.7307648061441
 20
12.21473960785929
 30
0.0
 42
0.0498234357410582
  0
VERTEX
  5
1D1
  8
レイヤー_5
  6
CONTINUOUS
 62
     7
 10
-157.6729705839849
 20
11.63618902835882
 30
0.0
 42
0.05026763923304
  0
VERTEX
  5
1D2
  8
レイヤー_5
  6
CONTINUOUS
 62
     7
 10
-157.5029148061441
 20
11.0856256078593
 30
0.0
 42
0.0723105531716923
  0
VERTEX
  5
1D3
  8
レイヤー_5
  6
CONTINUOUS
 62
     7
 10
-157.0712478326654
 20
10.37262978999416
 30
0.0
 42
0.0720947270351171
  0
VERTEX
  5
1D4
  8
レイヤー_5
  6
CONTINUOUS
 62
     7
 10
-156.4524458061441
 20
9.809776607859298
 30
0.0
 42
0.0365387424932475
  0
VERTEX
  5
1D5
  8
レイヤー_5
  6
CONTINUOUS
 62
     7
 10
-156.0856252170174
 20
9.599212955020176
 30
0.0
 42
0.0366537542301777
  0
VERTEX
  5
1D6
  8
レイヤー_5
  6
CONTINUOUS
 62
     7
 10
-155.6935588061441
 20
9.444984607859283
 30
0.0
 42
0.0378886399076576
  0
VERTEX
  5
1D7
  8
レイヤー_5
  6
CONTINUOUS
 62
     7
 10
-155.2694881634281
 20
9.347583644535321
 30
0.0
 42
0.037524587261947
  0
VERTEX
  5
1D8
  8
レイヤー_5
  6
CONTINUOUS
 62
     7
 10
-154.8313718061441
 20
9.314658607859286
 30
0.0
 42
0.0498168767002416
  0
VERTEX
  5
1D9
  8
レイヤー_5
  6
CONTINUOUS
 62
     7
 10
-154.2529318592976
 20
9.372434133627767
 30
0.0
 42
0.0502599305002097
  0
VERTEX
  5
1DA
  8
レイヤー_5
  6
CONTINUOUS
 62
     7
 10
-153.7023498061441
 20
9.542470607859292
 30
0.0
 42
0.0723191644996656
  0
VERTEX
  5
1DB
  8
レイヤー_5
  6
CONTINUOUS
 62
     7
 10
-152.9891211541509
 20
9.974240486860374
 30
0.0
 42
0.0720845620023471
  0
VERTEX
  5
1DC
  8
レイヤー_5
  6
CONTINUOUS
 62
     7
 10
-152.4262648061441
 20
10.59299360785929
 30
0.0
 42
0.0365441843507485
  0
VERTEX
  5
1DD
  8
レイヤー_5
  6
CONTINUOUS
 62
     7
 10
-152.2156330528526
 20
10.95988962554002
 30
0.0
 42
0.0366615406388318
  0
VERTEX
  5
1DE
  8
レイヤー_5
  6
CONTINUOUS
 62
     7
 10
-152.0613348061441
 20
11.3521056078593
 30
0.0
 42
0.0378944171096013
  0
VERTEX
  5
1DF
  8
レイヤー_5
  6
CONTINUOUS
 62
     7
 10
-151.96388890128
 20
11.77637202415068
 30
0.0
 42
0.0375208524261604
  0
VERTEX
  5
1E0
  8
レイヤー_5
  6
CONTINUOUS
 62
     7
 10
-151.930946806144
 20
12.21473960785929
 30
0.0
 42
0.0498566605368377
  0
VERTEX
  5
1E1
  8
レイヤー_5
  6
CONTINUOUS
 62
     7
 10
-151.9887413344722
 20
12.79290578087173
 30
0.0
 42
0.050281246430189
  0
VERTEX
  5
1E2
  8
レイヤー_5
  6
CONTINUOUS
 62
     7
 10
-152.1588608061441
 20
13.34336360785929
 30
0.0
 42
0.0483097165031951
  0
VERTEX
  5
1E3
  8
レイヤー_5
  6
CONTINUOUS
 62
     7
 10
-152.4244001164047
 20
13.83319109910956
 30
0.0
 42
0.0480804124106691
  0
VERTEX
  5
1E4
  8
レイヤー_5
  6
CONTINUOUS
 62
     7
 10
-152.7804208061441
 20
14.2650876078593
 30
0.0
 42
0.0480860339639383
  0
VERTEX
  5
1E5
  8
レイヤー_5
  6
CONTINUOUS
 62
     7
 10
-153.2124638363773
 20
14.62110073736395
 30
0.0
 42
0.04829383437805
  0
VERTEX
  5
1E6
  8
レイヤー_5
  6
CONTINUOUS
 62
     7
 10
-153.7023498061441
 20
14.88657260785931
 30
0.0
 42
0.050271236418215
  0
VERTEX
  5
1E7
  8
レイヤー_5
  6
CONTINUOUS
 62
     7
 10
-154.2529881037291
 20
15.05668479511465
 30
0.0
 42
0.049835259076182
  0
VERTEX
  5
1E8
  8
レイヤー_5
  6
CONTINUOUS
 62
     7
 10
-154.8313718061441
 20
15.1144766078593
 30
0.0
 42
0.0498614019704522
  0
VERTEX
  5
1E9
  8
レイヤー_5
  6
CONTINUOUS
 62
     7
 10
-155.4095743272534
 20
15.05667292203134
 30
0.0
 42
0.0502787928936981
  0
VERTEX
  5
1EA
  8
レイヤー_5
  6
CONTINUOUS
 62
     7
 10
-155.9599428061441
 20
14.88657260785932
 30
0.0
 42
0.0723045745016074
  0
VERTEX
  5
1EB
  8
レイヤー_5
  6
CONTINUOUS
 62
     7
 10
-156.6727705917848
 20
14.4548281260128
 30
0.0
 42
0.072064685916077
  0
VERTEX
  5
1EC
  8
レイヤー_5
  6
CONTINUOUS
 62
     7
 10
-157.2355918061441
 20
13.83592160785929
 30
0.0
 42
0.0745520478711178
  0
VERTEX
  5
1ED
  8
レイヤー_5
  6
CONTINUOUS
 62
     7
 10
-157.6039524693081
 20
13.06404602273816
 30
0.0
 42
0.074244992144863
  0
VERTEX
  5
1EE
  8
レイヤー_5
  6
CONTINUOUS
 62
     7
 10
-157.7307648061441
 20
12.21473960696551
 30
0.0
  0
SEQEND
  5
1EF
  8
レイヤー_5
  6
CONTINUOUS
 62
     7
  0
LINE
  5
1F0
  8
レイヤー_5
  6
CONTINUOUS
 62
     7
 10
-154.4813510764694
 20
11.8640292796016
 30
0.0
 11
-153.0812642712639
 21
11.8640292796016
 31
0.0
  0
LINE
  5
1F1
  8
レイヤー_5
  6
CONTINUOUS
 62
     7
 10
-153.0812642712639
 20
11.8640292796016
 30
0.0
 11
-153.0812642712639
 21
12.5651062108499
 31
0.0
  0
LINE
  5
1F2
  8
レイヤー_5
  6
CONTINUOUS
 62
     7
 10
-153.0812642712639
 20
12.5651062108499
 30
0.0
 11
-154.4813510764694
 21
12.5651062108499
 31
0.0
  0
LINE
  5
1F3
  8
レイヤー_5
  6
CONTINUOUS
 62
     7
 10
-154.4813510764694
 20
12.5651062108499
 30
0.0
 11
-154.4813510764694
 21
13.96519301605548
 31
0.0
  0
LINE
  5
1F4
  8
レイヤー_5
  6
CONTINUOUS
 62
     7
 10
-154.4813510764694
 20
13.96519301605548
 30
0.0
 11
-155.1813944790722
 21
13.96519301605548
 31
0.0
  0
LINE
  5
1F5
  8
レイヤー_5
  6
CONTINUOUS
 62
     7
 10
-155.1813944790722
 20
13.96519301605548
 30
0.0
 11
-155.1813944790722
 21
12.5651062108499
 31
0.0
  0
LINE
  5
1F6
  8
レイヤー_5
  6
CONTINUOUS
 62
     7
 10
-155.1813944790722
 20
12.5651062108499
 30
0.0
 11
-156.5811367747292
 21
12.5651062108499
 31
0.0
  0
LINE
  5
1F7
  8
レイヤー_5
  6
CONTINUOUS
 62
     7
 10
-155.1813944790722
 20
11.8640292796016
 30
0.0
 11
-155.1813944790722
 21
10.4646314934931
 31
0.0
  0
LINE
  5
1F8
  8
レイヤー_5
  6
CONTINUOUS
 62
     7
 10
-155.1813944790722
 20
10.4646314934931
 30
0.0
 11
-154.4813510764694
 21
10.4646314934931
 31
0.0
  0
LINE
  5
1F9
  8
レイヤー_5
  6
CONTINUOUS
 62
     7
 10
-154.4813510764694
 20
10.4646314934931
 30
0.0
 11
-154.4813510764694
 21
11.8640292796016
 31
0.0
  0
LINE
  5
1FA
  8
レイヤー_5
  6
CONTINUOUS
 62
     7
 10
-156.5811367747292
 20
11.8640292796016
 30
0.0
 11
-155.1813944790722
 21
11.8640292796016
 31
0.0
  0
LINE
  5
1FB
  8
レイヤー_5
  6
CONTINUOUS
 62
     7
 10
-156.5811367747292
 20
12.5651062108499
 30
0.0
 11
-156.5811367747292
 21
11.8640292796016
 31
0.0
  0
LINE
  5
1FC
  8
レイヤー_5
  6
CONTINUOUS
 62
     7
 10
-22.48113952092781
 20
12.5651062108499
 30
0.0
 11
-22.48113952092781
 21
13.96519301605548
 31
0.0
  0
LINE
  5
1FD
  8
レイヤー_5
  6
CONTINUOUS
 62
     7
 10
-22.48113952092781
 20
13.96519301605548
 30
0.0
 11
-23.1815274330791
 21
13.96519301605548
 31
0.0
  0
LINE
  5
1FE
  8
レイヤー_5
  6
CONTINUOUS
 62
     7
 10
-23.1815274330791
 20
13.96519301605548
 30
0.0
 11
-23.1815274330791
 21
12.5651062108499
 31
0.0
  0
LINE
  5
1FF
  8
レイヤー_5
  6
CONTINUOUS
 62
     7
 10
-24.58161423828464
 20
11.8640292796016
 30
0.0
 11
-23.1815274330791
 21
11.8640292796016
 31
0.0
  0
LINE
  5
200
  8
レイヤー_5
  6
CONTINUOUS
 62
     7
 10
-23.1815274330791
 20
11.8640292796016
 30
0.0
 11
-23.1815274330791
 21
10.4646314934931
 31
0.0
  0
LINE
  5
201
  8
レイヤー_5
  6
CONTINUOUS
 62
     7
 10
-24.58161423828464
 20
12.5651062108499
 30
0.0
 11
-24.58161423828464
 21
11.8640292796016
 31
0.0
  0
LINE
  5
202
  8
レイヤー_5
  6
CONTINUOUS
 62
     7
 10
-23.1815274330791
 20
12.5651062108499
 30
0.0
 11
-24.58161423828464
 21
12.5651062108499
 31
0.0
  0
LINE
  5
203
  8
レイヤー_5
  6
CONTINUOUS
 62
     7
 10
-21.0813972252708
 20
11.8640292796016
 30
0.0
 11
-21.0813972252708
 21
12.5651062108499
 31
0.0
  0
LINE
  5
204
  8
レイヤー_5
  6
CONTINUOUS
 62
     7
 10
-22.48113952092781
 20
11.8640292796016
 30
0.0
 11
-21.0813972252708
 21
11.8640292796016
 31
0.0
  0
LINE
  5
205
  8
レイヤー_5
  6
CONTINUOUS
 62
     7
 10
-22.48113952092781
 20
10.4646314934931
 30
0.0
 11
-22.48113952092781
 21
11.8640292796016
 31
0.0
  0
LINE
  5
206
  8
レイヤー_5
  6
CONTINUOUS
 62
     7
 10
-23.1815274330791
 20
10.4646314934931
 30
0.0
 11
-22.48113952092781
 21
10.4646314934931
 31
0.0
  0
LINE
  5
207
  8
レイヤー_5
  6
CONTINUOUS
 62
     7
 10
-21.0813972252708
 20
12.5651062108499
 30
0.0
 11
-22.48113952092781
 21
12.5651062108499
 31
0.0
  0
POLYLINE
  5
208
  8
レイヤー_5
  6
CONTINUOUS
 62
     7
 66
     1
 10
0.0
 20
0.0
 30
0.0
  0
VERTEX
  5
209
  8
レイヤー_5
  6
CONTINUOUS
 62
     7
 10
-25.73158780614408
 20
12.21473960785929
 30
0.0
 42
0.0498362822174575
  0
VERTEX
  5
20A
  8
レイヤー_5
  6
CONTINUOUS
 62
     7
 10
-25.67377908879673
 20
11.63619383889144
 30
0.0
 42
0.050277699660561
  0
VERTEX
  5
20B
  8
レイヤー_5
  6
CONTINUOUS
 62
     7
 10
-25.50367880614407
 20
11.0856256078593
 30
0.0
 42
0.0723198854698615
  0
VERTEX
  5
20C
  8
レイヤー_5
  6
CONTINUOUS
 62
     7
 10
-25.07190758937098
 20
10.37263575051486
 30
0.0
 42
0.0720904814696122
  0
VERTEX
  5
20D
  8
レイヤー_5
  6
CONTINUOUS
 62
     7
 10
-24.45294880614406
 20
9.809776607859307
 30
0.0
 42
0.0365219202330049
  0
VERTEX
  5
20E
  8
レイヤー_5
  6
CONTINUOUS
 62
     7
 10
-24.08616971332236
 20
9.599274645303355
 30
0.0
 42
0.0366585065316454
  0
VERTEX
  5
20F
  8
レイヤー_5
  6
CONTINUOUS
 62
     7
 10
-23.69388480614407
 20
9.444984607859283
 30
0.0
 42
0.0378784825953664
  0
VERTEX
  5
210
  8
レイヤー_5
  6
CONTINUOUS
 62
     7
 10
-23.26974357756441
 20
9.347587341528822
 30
0.0
 42
0.0375185849698417
  0
VERTEX
  5
211
  8
レイヤー_5
  6
CONTINUOUS
 62
     7
 10
-22.83150580614407
 20
9.314658607859286
 30
0.0
 42
0.04981687669746
  0
VERTEX
  5
212
  8
レイヤー_5
  6
CONTINUOUS
 62
     7
 10
-22.25306585932943
 20
9.37243413362134
 30
0.0
 42
0.05025993050295
  0
VERTEX
  5
213
  8
レイヤー_5
  6
CONTINUOUS
 62
     7
 10
-21.70248380614407
 20
9.542470607859286
 30
0.0
 42
0.0723191644963885
  0
VERTEX
  5
214
  8
レイヤー_5
  6
CONTINUOUS
 62
     7
 10
-20.98925515418006
 20
9.97424048683635
 30
0.0
 42
0.0720845620056446
  0
VERTEX
  5
215
  8
レイヤー_5
  6
CONTINUOUS
 62
     7
 10
-20.42639880614408
 20
10.59299360785928
 30
0.0
 42
0.0365441843536341
  0
VERTEX
  5
216
  8
レイヤー_5
  6
CONTINUOUS
 62
     7
 10
-20.21576705283815
 20
10.95988962557013
 30
0.0
 42
0.0366615406359643
  0
VERTEX
  5
217
  8
レイヤー_5
  6
CONTINUOUS
 62
     7
 10
-20.06146880614408
 20
11.3521056078593
 30
0.0
 42
0.0378944171097959
  0
VERTEX
  5
218
  8
レイヤー_5
  6
CONTINUOUS
 62
     7
 10
-19.96402290127967
 20
11.77637202415289
 30
0.0
 42
0.0375208523333383
  0
VERTEX
  5
219
  8
レイヤー_5
  6
CONTINUOUS
 62
     7
 10
-19.93108080614407
 20
12.21473960785929
 30
0.0
 42
0.0498566605356232
  0
VERTEX
  5
21A
  8
レイヤー_5
  6
CONTINUOUS
 62
     7
 10
-19.98887533446941
 20
12.79290578085786
 30
0.0
 42
0.0502812464313899
  0
VERTEX
  5
21B
  8
レイヤー_5
  6
CONTINUOUS
 62
     7
 10
-20.15899480614407
 20
13.34336360785929
 30
0.0
 42
0.0483097165004483
  0
VERTEX
  5
21C
  8
レイヤー_5
  6
CONTINUOUS
 62
     7
 10
-20.42453411638694
 20
13.83319109908331
 30
0.0
 42
0.0480804124134345
  0
VERTEX
  5
21D
  8
レイヤー_5
  6
CONTINUOUS
 62
     7
 10
-20.78055480614408
 20
14.2650876078593
 30
0.0
 42
0.0480860339643309
  0
VERTEX
  5
21E
  8
レイヤー_5
  6
CONTINUOUS
 62
     7
 10
-21.21259783638108
 20
14.6211007373665
 30
0.0
 42
0.0482938343776585
  0
VERTEX
  5
21F
  8
レイヤー_5
  6
CONTINUOUS
 62
     7
 10
-21.70248380614408
 20
14.88657260785931
 30
0.0
 42
0.0502712364182848
  0
VERTEX
  5
220
  8
レイヤー_5
  6
CONTINUOUS
 62
     7
 10
-22.25312210372988
 20
15.05668479511479
 30
0.0
 42
0.0498352590760936
  0
VERTEX
  5
221
  8
レイヤー_5
  6
CONTINUOUS
 62
     7
 10
-22.83150580614407
 20
15.1144766078593
 30
0.0
 42
0.049851006547281
  0
VERTEX
  5
222
  8
レイヤー_5
  6
CONTINUOUS
 62
     7
 10
-23.40984410572677
 20
15.05667146225281
 30
0.0
 42
0.0502682573701365
  0
VERTEX
  5
223
  8
レイヤー_5
  6
CONTINUOUS
 62
     7
 10
-23.96032980614409
 20
14.88657260785931
 30
0.0
 42
0.072303655900325
  0
VERTEX
  5
224
  8
レイヤー_5
  6
CONTINUOUS
 62
     7
 10
-24.67341976333396
 20
14.4547525112219
 30
0.0
 42
0.0720575607464301
  0
VERTEX
  5
225
  8
レイヤー_5
  6
CONTINUOUS
 62
     7
 10
-25.23628680614407
 20
13.83592160785929
 30
0.0
 42
0.0745628521061144
  0
VERTEX
  5
226
  8
レイヤー_5
  6
CONTINUOUS
 62
     7
 10
-25.60474483367516
 20
13.06403127542282
 30
0.0
 42
0.0742630903745154
  0
VERTEX
  5
227
  8
レイヤー_5
  6
CONTINUOUS
 62
     7
 10
-25.73158780614407
 20
12.21473960785471
 30
0.0
  0
SEQEND
  5
228
  8
レイヤー_5
  6
CONTINUOUS
 62
     7
  0
POLYLINE
  5
229
  8
レイヤー_5
  6
CONTINUOUS
 62
     7
 66
     1
 10
0.0
 20
0.0
 30
0.0
  0
VERTEX
  5
22A
  8
レイヤー_5
  6
CONTINUOUS
 62
     7
 10
-157.3810878061441
 20
-60.2859173921407
 30
0.0
 42
0.0498514255667248
  0
VERTEX
  5
22B
  8
レイヤー_5
  6
CONTINUOUS
 62
     7
 10
-157.330276124231
 20
-60.79428205716403
 30
0.0
 42
0.0502984774705257
  0
VERTEX
  5
22C
  8
レイヤー_5
  6
CONTINUOUS
 62
     7
 10
-157.1807448061441
 20
-61.27809939214071
 30
0.0
 42
0.0723443070169527
  0
VERTEX
  5
22D
  8
レイヤー_5
  6
CONTINUOUS
 62
     7
 10
-156.8011858030776
 20
-61.90459998922229
 30
0.0
 42
0.0720934030274016
  0
VERTEX
  5
22E
  8
レイヤー_5
  6
CONTINUOUS
 62
     7
 10
-156.2570238061441
 20
-62.39919739214071
 30
0.0
 42
0.0745319133081392
  0
VERTEX
  5
22F
  8
レイヤー_5
  6
CONTINUOUS
 62
     7
 10
-155.5784881445862
 20
-62.72278832603897
 30
0.0
 42
0.0741870548584518
  0
VERTEX
  5
230
  8
レイヤー_5
  6
CONTINUOUS
 62
     7
 10
-154.8313718061441
 20
-62.83425439214071
 30
0.0
 42
0.0497889553337026
  0
VERTEX
  5
231
  8
レイヤー_5
  6
CONTINUOUS
 62
     7
 10
-154.322844385864
 20
-62.78349045334998
 30
0.0
 42
0.0502382239686471
  0
VERTEX
  5
232
  8
レイヤー_5
  6
CONTINUOUS
 62
     7
 10
-153.8387758061441
 20
-62.63407739214072
 30
0.0
 42
0.0722935513393509
  0
VERTEX
  5
233
  8
レイヤー_5
  6
CONTINUOUS
 62
     7
 10
-153.2116910794543
 20
-62.25467385631733
 30
0.0
 42
0.0720904712422502
  0
VERTEX
  5
234
  8
レイヤー_5
  6
CONTINUOUS
 62
     7
 10
-152.7168238061441
 20
-61.71098139214072
 30
0.0
 42
0.0746152005729097
  0
VERTEX
  5
235
  8
レイヤー_5
  6
CONTINUOUS
 62
     7
 10
-152.3928558450127
 20
-61.03259574060659
 30
0.0
 42
0.0742808033799287
  0
VERTEX
  5
236
  8
レイヤー_5
  6
CONTINUOUS
 62
     7
 10
-152.2813128061441
 20
-60.2859173921407
 30
0.0
 42
0.0498261340599912
  0
VERTEX
  5
237
  8
レイヤー_5
  6
CONTINUOUS
 62
     7
 10
-152.3321381794836
 20
-59.77715634729525
 30
0.0
 42
0.0502654769549784
  0
VERTEX
  5
238
  8
レイヤー_5
  6
CONTINUOUS
 62
     7
 10
-152.4817098061441
 20
-59.2929223921407
 30
0.0
 42
0.0483056896723762
  0
VERTEX
  5
239
  8
レイヤー_5
  6
CONTINUOUS
 62
     7
 10
-152.7151941550152
 20
-58.86202450544426
 30
0.0
 42
0.0480862548153427
  0
VERTEX
  5
23A
  8
レイヤー_5
  6
CONTINUOUS
 62
     7
 10
-153.0282088061441
 20
-58.48215139214071
 30
0.0
 42
0.0480960847896743
  0
VERTEX
  5
23B
  8
レイヤー_5
  6
CONTINUOUS
 62
     7
 10
-153.4080704694232
 20
-58.16903780553697
 30
0.0
 42
0.0483077930353979
  0
VERTEX
  5
23C
  8
レイヤー_5
  6
CONTINUOUS
 62
     7
 10
-153.8387758061441
 20
-57.9355763921407
 30
0.0
 42
0.0502820284774707
  0
VERTEX
  5
23D
  8
レイヤー_5
  6
CONTINUOUS
 62
     7
 10
-154.3228753834874
 20
-57.78598767440935
 30
0.0
 42
0.0498451136420089
  0
VERTEX
  5
23E
  8
レイヤー_5
  6
CONTINUOUS
 62
     7
 10
-154.8313718061441
 20
-57.73516839214071
 30
0.0
 42
0.0498520343575005
  0
VERTEX
  5
23F
  8
レイヤー_5
  6
CONTINUOUS
 62
     7
 10
-155.3399019185525
 20
-57.78599723453853
 30
0.0
 42
0.0502853493011455
  0
VERTEX
  5
240
  8
レイヤー_5
  6
CONTINUOUS
 62
     7
 10
-155.8239148061441
 20
-57.93557639214071
 30
0.0
 42
0.0723384239374309
  0
VERTEX
  5
241
  8
レイヤー_5
  6
CONTINUOUS
 62
     7
 10
-156.4508637952841
 20
-58.31535310066013
 30
0.0
 42
0.0720731465110422
  0
VERTEX
  5
242
  8
レイヤー_5
  6
CONTINUOUS
 62
     7
 10
-156.9456848061441
 20
-58.8596353921407
 30
0.0
 42
0.0745381819471933
  0
VERTEX
  5
243
  8
レイヤー_5
  6
CONTINUOUS
 62
     7
 10
-157.2695166678281
 20
-59.53843026749168
 30
0.0
 42
0.0742188345129737
  0
VERTEX
  5
244
  8
レイヤー_5
  6
CONTINUOUS
 62
     7
 10
-157.3810878061441
 20
-60.28591739206682
 30
0.0
  0
SEQEND
  5
245
  8
レイヤー_5
  6
CONTINUOUS
 62
     7
  0
CIRCLE
  5
246
  8
レイヤー_5
  6
CONTINUOUS
 62
     7
 10
-22.83002951921991
 20
73.21576589348851
 30
0.0
 40
2.551191808286447
  0
POLYLINE
  5
247
  8
レイヤー_5
  6
CONTINUOUS
 62
     7
 66
     1
 10
0.0
 20
0.0
 30
0.0
  0
VERTEX
  5
248
  8
レイヤー_5
  6
CONTINUOUS
 62
     7
 10
-157.3810878061441
 20
73.21428960785929
 30
0.0
 42
0.0498448877116565
  0
VERTEX
  5
249
  8
レイヤー_5
  6
CONTINUOUS
 62
     7
 10
-157.3302767469264
 20
72.7058641622821
 30
0.0
 42
0.050266786567218
  0
VERTEX
  5
24A
  8
レイヤー_5
  6
CONTINUOUS
 62
     7
 10
-157.180744806144
 20
72.2218916078593
 30
0.0
 42
0.0722950786512747
  0
VERTEX
  5
24B
  8
レイヤー_5
  6
CONTINUOUS
 62
     7
 10
-156.8011896275212
 20
71.59504384317813
 30
0.0
 42
0.0720779651510884
  0
VERTEX
  5
24C
  8
レイヤー_5
  6
CONTINUOUS
 62
     7
 10
-156.2570238061441
 20
71.1000666078593
 30
0.0
 42
0.0745622968283591
  0
VERTEX
  5
24D
  8
レイヤー_5
  6
CONTINUOUS
 62
     7
 10
-155.5783788033659
 20
70.77613328688088
 30
0.0
 42
0.0742594505133894
  0
VERTEX
  5
24E
  8
レイヤー_5
  6
CONTINUOUS
 62
     7
 10
-154.8313718061441
 20
70.6645736078593
 30
0.0
 42
0.0498409336632387
  0
VERTEX
  5
24F
  8
レイヤー_5
  6
CONTINUOUS
 62
     7
 10
-154.3229010016195
 20
70.7153851490333
 30
0.0
 42
0.0502759774806174
  0
VERTEX
  5
250
  8
レイヤー_5
  6
CONTINUOUS
 62
     7
 10
-153.8387758061441
 20
70.86496560785929
 30
0.0
 42
0.0722988744128754
  0
VERTEX
  5
251
  8
レイヤー_5
  6
CONTINUOUS
 62
     7
 10
-153.2117943749723
 20
71.24462349143292
 30
0.0
 42
0.0720644454956856
  0
VERTEX
  5
252
  8
レイヤー_5
  6
CONTINUOUS
 62
     7
 10
-152.7168238061441
 20
71.78878860785927
 30
0.0
 42
0.0745550103134343
  0
VERTEX
  5
253
  8
レイヤー_5
  6
CONTINUOUS
 62
     7
 10
-152.3928705897594
 20
72.46741653859061
 30
0.0
 42
0.0742717357120328
  0
VERTEX
  5
254
  8
レイヤー_5
  6
CONTINUOUS
 62
     7
 10
-152.2813128061441
 20
73.21428960785929
 30
0.0
 42
0.0498422046308522
  0
VERTEX
  5
255
  8
レイヤー_5
  6
CONTINUOUS
 62
     7
 10
-152.332126233799
 20
73.72276625940682
 30
0.0
 42
0.0502780857995936
  0
VERTEX
  5
256
  8
レイヤー_5
  6
CONTINUOUS
 62
     7
 10
-152.4817098061441
 20
74.2068856078593
 30
0.0
 42
0.0483026655606178
  0
VERTEX
  5
257
  8
レイヤー_5
  6
CONTINUOUS
 62
     7
 10
-152.7151656501322
 20
74.63761994317943
 30
0.0
 42
0.048083800838418
  0
VERTEX
  5
258
  8
レイヤー_5
  6
CONTINUOUS
 62
     7
 10
-153.0282088061441
 20
75.0174526078593
 30
0.0
 42
0.0480852578116233
  0
VERTEX
  5
259
  8
レイヤー_5
  6
CONTINUOUS
 62
     7
 10
-153.4080443745123
 20
75.33049894843603
 30
0.0
 42
0.0483032790656514
  0
VERTEX
  5
25A
  8
レイヤー_5
  6
CONTINUOUS
 62
     7
 10
-153.8387758061441
 20
75.56395160785928
 30
0.0
 42
0.0502778430026109
  0
VERTEX
  5
25B
  8
レイヤー_5
  6
CONTINUOUS
 62
     7
 10
-154.3228948675644
 20
75.7135349001367
 30
0.0
 42
0.0498420211797032
  0
VERTEX
  5
25C
  8
レイヤー_5
  6
CONTINUOUS
 62
     7
 10
-154.8313718061441
 20
75.76434860785929
 30
0.0
 42
0.0498504176390121
  0
VERTEX
  5
25D
  8
レイヤー_5
  6
CONTINUOUS
 62
     7
 10
-155.3398993290132
 20
75.71352168089388
 30
0.0
 42
0.0502792381874502
  0
VERTEX
  5
25E
  8
レイヤー_5
  6
CONTINUOUS
 62
     7
 10
-155.8239148061441
 20
75.56395160785928
 30
0.0
 42
0.0723195045495427
  0
VERTEX
  5
25F
  8
レイヤー_5
  6
CONTINUOUS
 62
     7
 10
-156.4508217048062
 20
75.18425830069005
 30
0.0
 42
0.0720709192215913
  0
VERTEX
  5
260
  8
レイヤー_5
  6
CONTINUOUS
 62
     7
 10
-156.9456848061441
 20
74.64004960785928
 30
0.0
 42
0.0745562737344541
  0
VERTEX
  5
261
  8
レイヤー_5
  6
CONTINUOUS
 62
     7
 10
-157.2695756405606
 20
73.96126916618223
 30
0.0
 42
0.0742294256104213
  0
VERTEX
  5
262
  8
レイヤー_5
  6
CONTINUOUS
 62
     7
 10
-157.3810878061441
 20
73.21428960767082
 30
0.0
  0
SEQEND
  5
263
  8
レイヤー_5
  6
CONTINUOUS
 62
     7
  0
CIRCLE
  5
264
  8
レイヤー_5
  6
CONTINUOUS
 62
     7
 10
-22.83047742191553
 20
-60.28395218016334
 30
0.0
 40
2.550744234814505
  0
POLYLINE
  5
265
  8
レイヤー_5
  6
CONTINUOUS
 62
     7
 66
     1
 10
0.0
 20
0.0
 30
0.0
  0
VERTEX
  5
266
  8
レイヤー_5
  6
CONTINUOUS
 62
     7
 10
-165.8308736430765
 20
-83.47278710281421
 30
0.0
  0
VERTEX
  5
267
  8
レイヤー_5
  6
CONTINUOUS
 62
     7
 10
-165.7984897455152
 20
-83.65296559669278
 30
0.0
  0
VERTEX
  5
268
  8
レイヤー_5
  6
CONTINUOUS
 62
     7
 10
-165.7020270719282
 20
-83.82522037095528
 30
0.0
  0
VERTEX
  5
269
  8
レイヤー_5
  6
CONTINUOUS
 62
     7
 10
-165.5452752273493
 20
-83.98886240650464
 30
0.0
  0
VERTEX
  5
26A
  8
レイヤー_5
  6
CONTINUOUS
 62
     7
 10
-165.3320238168123
 20
-84.13286739778809
 30
0.0
  0
VERTEX
  5
26B
  8
レイヤー_5
  6
CONTINUOUS
 62
     7
 10
-165.0701965599333
 20
-84.25757985435413
 30
0.0
  0
VERTEX
  5
26C
  8
レイヤー_5
  6
CONTINUOUS
 62
     7
 10
-164.7684061954254
 20
-84.35542056613522
 30
0.0
  0
VERTEX
  5
26D
  8
レイヤー_5
  6
CONTINUOUS
 62
     7
 10
-164.4362989906473
 20
-84.42638953313136
 30
0.0
  0
VERTEX
  5
26E
  8
レイヤー_5
  6
CONTINUOUS
 62
     7
 10
-164.0842102320548
 20
-84.46497460256617
 30
0.0
  0
SEQEND
  5
26F
  8
レイヤー_5
  6
CONTINUOUS
 62
     7
  0
LINE
  5
270
  8
レイヤー_5
  6
CONTINUOUS
 62
     7
 10
-165.8308736430765
 20
-83.47278710281421
 30
0.0
 11
-165.8308736430765
 21
-83.44694888667485
 31
0.0
  0
LINE
  5
271
  8
レイヤー_5
  6
CONTINUOUS
 62
     7
 10
-165.8308736430765
 20
-83.44694888667485
 30
0.0
 11
-165.3313347977153
 21
-83.44694888667485
 31
0.0
  0
LINE
  5
272
  8
レイヤー_5
  6
CONTINUOUS
 62
     7
 10
-12.33154371183326
 20
-76.99773013828715
 30
0.0
 11
-165.3313347977153
 21
-76.99773013828715
 31
0.0
  0
LINE
  5
273
  8
レイヤー_5
  6
CONTINUOUS
 62
     7
 10
-11.83131584737499
 20
-83.44694888667485
 30
0.0
 11
-12.33154371183326
 21
-83.44694888667485
 31
0.0
  0
LINE
  5
274
  8
レイヤー_5
  6
CONTINUOUS
 62
     7
 10
-11.83131584737499
 20
-83.47278710281421
 30
0.0
 11
-11.83131584737499
 21
-83.44694888667485
 31
0.0
  0
POLYLINE
  5
275
  8
レイヤー_5
  6
CONTINUOUS
 62
     7
 66
     1
 10
0.0
 20
0.0
 30
0.0
  0
VERTEX
  5
276
  8
レイヤー_5
  6
CONTINUOUS
 62
     7
 10
-13.57832376794518
 20
-84.46497460256617
 30
0.0
  0
VERTEX
  5
277
  8
レイヤー_5
  6
CONTINUOUS
 62
     7
 10
-13.22657951890117
 20
-84.42638953313136
 30
0.0
  0
VERTEX
  5
278
  8
レイヤー_5
  6
CONTINUOUS
 62
     7
 10
-12.89378329502604
 20
-84.35542056613522
 30
0.0
  0
VERTEX
  5
279
  8
レイヤー_5
  6
CONTINUOUS
 62
     7
 10
-12.59199293051815
 20
-84.25757985435413
 30
0.0
  0
VERTEX
  5
27A
  8
レイヤー_5
  6
CONTINUOUS
 62
     7
 10
-12.33016567363916
 20
-84.13286739778809
 30
0.0
  0
VERTEX
  5
27B
  8
レイヤー_5
  6
CONTINUOUS
 62
     7
 10
-12.11794779174777
 20
-83.98886240650464
 30
0.0
  0
VERTEX
  5
27C
  8
レイヤー_5
  6
CONTINUOUS
 62
     7
 10
-11.96016241852333
 20
-83.82522037095528
 30
0.0
  0
VERTEX
  5
27D
  8
レイヤー_5
  6
CONTINUOUS
 62
     7
 10
-11.86404425448486
 20
-83.65296559669278
 30
0.0
  0
VERTEX
  5
27E
  8
レイヤー_5
  6
CONTINUOUS
 62
     7
 10
-11.83131584737499
 20
-83.47278710281421
 30
0.0
  0
SEQEND
  5
27F
  8
レイヤー_5
  6
CONTINUOUS
 62
     7
  0
POLYLINE
  5
280
  8
レイヤー_5
  6
CONTINUOUS
 62
     7
 66
     1
 10
0.0
 20
0.0
 30
0.0
  0
VERTEX
  5
281
  8
レイヤー_5
  6
CONTINUOUS
 62
     7
 10
-13.57832376794518
 20
-84.46497460256617
 30
0.0
  0
VERTEX
  5
282
  8
レイヤー_5
  6
CONTINUOUS
 62
     7
 10
-23.56875616562119
 20
-85.05822004512618
 30
0.0
  0
VERTEX
  5
283
  8
レイヤー_5
  6
CONTINUOUS
 62
     7
 10
-33.57744756936901
 20
-85.56774966739465
 30
0.0
  0
VERTEX
  5
284
  8
レイヤー_5
  6
CONTINUOUS
 62
     7
 10
-43.60233092189751
 20
-85.99252994072594
 30
0.0
  0
VERTEX
  5
285
  8
レイヤー_5
  6
CONTINUOUS
 62
     7
 10
-53.63996112772144
 20
-86.33256086512012
 30
0.0
  0
VERTEX
  5
286
  8
レイヤー_5
  6
CONTINUOUS
 62
     7
 10
-63.68723760090407
 20
-86.58715342148007
 30
0.0
  0
VERTEX
  5
287
  8
レイヤー_5
  6
CONTINUOUS
 62
     7
 10
-73.74174877460571
 20
-86.75596310025732
 30
0.0
  0
VERTEX
  5
288
  8
レイヤー_5
  6
CONTINUOUS
 62
     7
 10
-83.80108308198672
 20
-86.84071244919446
 30
0.0
  0
VERTEX
  5
289
  8
レイヤー_5
  6
CONTINUOUS
 62
     7
 10
-93.86145091801329
 20
-86.84071244919446
 30
0.0
  0
VERTEX
  5
28A
  8
レイヤー_5
  6
CONTINUOUS
 62
     7
 10
-103.9200962062972
 20
-86.75596310025732
 30
0.0
  0
VERTEX
  5
28B
  8
レイヤー_5
  6
CONTINUOUS
 62
     7
 10
-113.9752963990959
 20
-86.58715342148007
 30
0.0
  0
VERTEX
  5
28C
  8
レイヤー_5
  6
CONTINUOUS
 62
     7
 10
-124.0229173818271
 20
-86.33256086512012
 30
0.0
  0
VERTEX
  5
28D
  8
レイヤー_5
  6
CONTINUOUS
 62
     7
 10
-134.0602030781025
 20
-85.99252994072594
 30
0.0
  0
VERTEX
  5
28E
  8
レイヤー_5
  6
CONTINUOUS
 62
     7
 10
-144.0847419210825
 20
-85.56774966739465
 30
0.0
  0
VERTEX
  5
28F
  8
レイヤー_5
  6
CONTINUOUS
 62
     7
 10
-154.0937778343788
 20
-85.05822004512618
 30
0.0
  0
VERTEX
  5
290
  8
レイヤー_5
  6
CONTINUOUS
 62
     7
 10
-164.0842102320548
 20
-84.46497460256617
 30
0.0
  0
SEQEND
  5
291
  8
レイヤー_5
  6
CONTINUOUS
 62
     7
  0
LINE
  5
292
  8
レイヤー_5
  6
CONTINUOUS
 62
     7
 10
-12.33154371183326
 20
-83.44694888667485
 30
0.0
 11
-12.33154371183326
 21
-78.43157887924812
 31
0.0
  0
LINE
  5
293
  8
レイヤー_5
  6
CONTINUOUS
 62
     7
 10
-12.33154371183326
 20
-78.43157887924812
 30
0.0
 11
-11.83131584737499
 21
-78.43157887924812
 31
0.0
  0
LINE
  5
294
  8
レイヤー_5
  6
CONTINUOUS
 62
     7
 10
-11.83131584737499
 20
-78.43157887924812
 30
0.0
 11
-11.83131584737499
 21
-83.44694888667485
 31
0.0
  0
LINE
  5
295
  8
レイヤー_5
  6
CONTINUOUS
 62
     7
 10
-165.8308736430765
 20
-78.43157887924812
 30
0.0
 11
-165.3313347977153
 21
-78.43157887924812
 31
0.0
  0
LINE
  5
296
  8
レイヤー_5
  6
CONTINUOUS
 62
     7
 10
-165.3313347977153
 20
-78.43157887924812
 30
0.0
 11
-165.3313347977153
 21
-83.44694888667485
 31
0.0
  0
LINE
  5
297
  8
レイヤー_5
  6
CONTINUOUS
 62
     7
 10
-165.8308736430765
 20
-83.44694888667485
 30
0.0
 11
-165.8308736430765
 21
-78.43157887924812
 31
0.0
  0
LINE
  5
298
  8
レイヤー_5
  6
CONTINUOUS
 62
     7
 10
-11.83131584737499
 20
-74.97580359799402
 30
0.0
 11
-12.33154371183326
 21
-74.97580359799402
 31
0.0
  0
LINE
  5
299
  8
レイヤー_5
  6
CONTINUOUS
 62
     7
 10
-11.83131584737499
 20
-74.97580359799402
 30
0.0
 11
-11.83131584737499
 21
-78.43157887924812
 31
0.0
  0
LINE
  5
29A
  8
レイヤー_5
  6
CONTINUOUS
 62
     7
 10
-12.33154371183326
 20
-78.43157887924812
 30
0.0
 11
-12.33154371183326
 21
-74.97580359799402
 31
0.0
  0
LINE
  5
29B
  8
レイヤー_5
  6
CONTINUOUS
 62
     7
 10
-165.3313347977153
 20
-74.97580359799402
 30
0.0
 11
-165.8308736430765
 21
-74.97580359799402
 31
0.0
  0
LINE
  5
29C
  8
レイヤー_5
  6
CONTINUOUS
 62
     7
 10
-165.8308736430765
 20
-74.97580359799402
 30
0.0
 11
-165.8308736430765
 21
-78.43157887924812
 31
0.0
  0
LINE
  5
29D
  8
レイヤー_5
  6
CONTINUOUS
 62
     7
 10
-165.3313347977153
 20
-78.43157887924812
 30
0.0
 11
-165.3313347977153
 21
-74.97580359799402
 31
0.0
  0
LINE
  5
29E
  8
レイヤー_5
  6
CONTINUOUS
 62
     7
 10
-165.3313347977153
 20
-73.28460622428489
 30
0.0
 11
-165.8308736430765
 21
-73.28460622428489
 31
0.0
  0
LINE
  5
29F
  8
レイヤー_5
  6
CONTINUOUS
 62
     7
 10
-165.8308736430765
 20
-73.28460622428489
 30
0.0
 11
-165.8308736430765
 21
-74.97580359799402
 31
0.0
  0
LINE
  5
2A0
  8
レイヤー_5
  6
CONTINUOUS
 62
     7
 10
-165.3313347977153
 20
-74.97580359799402
 30
0.0
 11
-165.3313347977153
 21
-73.28460622428489
 31
0.0
  0
LINE
  5
2A1
  8
レイヤー_5
  6
CONTINUOUS
 62
     7
 10
-11.83131584737499
 20
-73.28460622428489
 30
0.0
 11
-12.33154371183326
 21
-73.28460622428489
 31
0.0
  0
LINE
  5
2A2
  8
レイヤー_5
  6
CONTINUOUS
 62
     7
 10
-11.83131584737499
 20
-73.28460622428489
 30
0.0
 11
-11.83131584737499
 21
-74.97580359799402
 31
0.0
  0
LINE
  5
2A3
  8
レイヤー_5
  6
CONTINUOUS
 62
     7
 10
-12.33154371183326
 20
-74.97580359799402
 30
0.0
 11
-12.33154371183326
 21
-73.28460622428489
 31
0.0
  0
LINE
  5
2A4
  8
レイヤー_5
  6
CONTINUOUS
 62
     7
 10
-12.33154371183326
 20
-72.28587304311094
 30
0.0
 11
-11.83131584737499
 21
-72.28587304311094
 31
0.0
  0
LINE
  5
2A5
  8
レイヤー_5
  6
CONTINUOUS
 62
     7
 10
-11.83131584737499
 20
-72.28587304311094
 30
0.0
 11
-11.83131584737499
 21
-73.28460622428489
 31
0.0
  0
LINE
  5
2A6
  8
レイヤー_5
  6
CONTINUOUS
 62
     7
 10
-12.33154371183326
 20
-73.28460622428489
 30
0.0
 11
-12.33154371183326
 21
-72.28587304311094
 31
0.0
  0
LINE
  5
2A7
  8
レイヤー_5
  6
CONTINUOUS
 62
     7
 10
-165.8308736430765
 20
-72.28587304311094
 30
0.0
 11
-165.3313347977153
 21
-72.28587304311094
 31
0.0
  0
LINE
  5
2A8
  8
レイヤー_5
  6
CONTINUOUS
 62
     7
 10
-165.8308736430765
 20
-73.28460622428489
 30
0.0
 11
-165.8308736430765
 21
-72.28587304311094
 31
0.0
  0
LINE
  5
2A9
  8
レイヤー_5
  6
CONTINUOUS
 62
     7
 10
-165.3313347977153
 20
-72.28587304311094
 30
0.0
 11
-165.3313347977153
 21
-73.28460622428489
 31
0.0
  0
POLYLINE
  5
2AA
  8
レイヤー_5
  6
CONTINUOUS
 62
     7
 66
     1
 10
0.0
 20
0.0
 30
0.0
  0
VERTEX
  5
2AB
  8
レイヤー_5
  6
CONTINUOUS
 62
     7
 10
-163.8313398061441
 20
-70.2846173921407
 30
0.0
 42
0.1989829982223761
  0
VERTEX
  5
2AC
  8
レイヤー_5
  6
CONTINUOUS
 62
     7
 10
-165.244746561184
 20
-70.87029466243537
 30
0.0
 42
0.198841838610432
  0
VERTEX
  5
2AD
  8
レイヤー_5
  6
CONTINUOUS
 62
     7
 10
-165.8308728061441
 20
-72.28587339142621
 30
0.0
  0
SEQEND
  5
2AE
  8
レイヤー_5
  6
CONTINUOUS
 62
     7
  0
POLYLINE
  5
2AF
  8
レイヤー_5
  6
CONTINUOUS
 62
     7
 66
     1
 10
0.0
 20
0.0
 30
0.0
  0
VERTEX
  5
2B0
  8
レイヤー_5
  6
CONTINUOUS
 62
     7
 10
-11.83131680614407
 20
-72.2858733921407
 30
0.0
 42
0.1987952270443889
  0
VERTEX
  5
2B1
  8
レイヤー_5
  6
CONTINUOUS
 62
     7
 10
-12.41711868168525
 20
-70.87072056903439
 30
0.0
 42
0.1990292995463432
  0
VERTEX
  5
2B2
  8
レイヤー_5
  6
CONTINUOUS
 62
     7
 10
-13.83119380614407
 20
-70.2846173921407
 30
0.0
  0
SEQEND
  5
2B3
  8
レイヤー_5
  6
CONTINUOUS
 62
     7
  0
LINE
  5
2B4
  8
レイヤー_5
  6
CONTINUOUS
 62
     7
 10
-159.8308953459654
 20
-70.28461707572932
 30
0.0
 11
-163.8313402234375
 21
-70.28461707572932
 31
0.0
  0
LINE
  5
2B5
  8
レイヤー_5
  6
CONTINUOUS
 62
     7
 10
-13.83119377656252
 20
-70.28461707572932
 30
0.0
 11
-17.83163865403463
 21
-70.28461707572932
 31
0.0
  0
LINE
  5
2B6
  8
レイヤー_5
  6
DOT
 62
     7
 10
-144.0812968255972
 20
65.08903197896899
 30
0.0
 11
-144.0812968255972
 21
64.04999118061758
 31
0.0
  0
LINE
  5
2B7
  8
レイヤー_5
  6
DOT
 62
     7
 10
-33.58158168395131
 20
64.04999118061758
 30
0.0
 11
-33.58158168395131
 21
65.08903197896899
 31
0.0
  0
LINE
  5
2B8
  8
レイヤー_5
  6
DOT
 62
     7
 10
-144.0812968255972
 20
65.08903197896899
 30
0.0
 11
-144.0812968255972
 21
65.59993963943148
 31
0.0
  0
LINE
  5
2B9
  8
レイヤー_5
  6
DOT
 62
     7
 10
-33.58158168395131
 20
65.59993963943148
 30
0.0
 11
-33.58158168395131
 21
65.08903197896899
 31
0.0
  0
LINE
  5
2BA
  8
レイヤー_5
  6
DASHDOT
 62
     7
 10
-148.5812805484306
 20
81.7650166753208
 30
0.0
 11
-149.0808193937918
 21
81.7650166753208
 31
0.0
  0
LINE
  5
2BB
  8
レイヤー_5
  6
DOT
 62
     7
 10
-148.5812805484306
 20
83.21402383641689
 30
0.0
 11
-148.5812805484306
 21
81.7650166753208
 31
0.0
  0
LINE
  5
2BC
  8
レイヤー_5
  6
DASHDOT
 62
     7
 10
-28.5813700966597
 20
81.7650166753208
 30
0.0
 11
-29.08159796111798
 21
81.7650166753208
 31
0.0
  0
LINE
  5
2BD
  8
レイヤー_5
  6
DASHDOT
 62
     7
 10
-29.08159796111798
 20
81.7650166753208
 30
0.0
 11
-29.08159796111798
 21
83.21402383641689
 31
0.0
  0
LINE
  5
2BE
  8
レイヤー_5
  6
DASHDOT
 62
     7
 10
-148.5812805484306
 20
75.8559888990203
 30
0.0
 11
-149.0808193937918
 21
75.8559888990203
 31
0.0
  0
LINE
  5
2BF
  8
レイヤー_5
  6
DASHDOT
 62
     7
 10
-148.5812805484306
 20
75.8559888990203
 30
0.0
 11
-148.5812805484306
 21
81.7650166753208
 31
0.0
  0
LINE
  5
2C0
  8
レイヤー_5
  6
DASHDOT
 62
     7
 10
-29.08159796111798
 20
75.8559888990203
 30
0.0
 11
-28.5813700966597
 21
75.8559888990203
 31
0.0
  0
LINE
  5
2C1
  8
レイヤー_5
  6
DASHDOT
 62
     7
 10
-29.08159796111798
 20
75.8559888990203
 30
0.0
 11
-29.08159796111798
 21
81.7650166753208
 31
0.0
  0
LINE
  5
2C2
  8
レイヤー_5
  6
DOT
 62
     7
 10
-33.58158168395131
 20
65.6602288104234
 30
0.0
 11
-33.58158168395131
 21
65.7260301341916
 31
0.0
  0
LINE
  5
2C3
  8
レイヤー_5
  6
DASHDOT
 62
     7
 10
-148.6811883175028
 20
82.21460163614589
 30
0.0
 11
-148.6811883175028
 21
79.2146124875903
 31
0.0
  0
LINE
  5
2C4
  8
レイヤー_5
  6
DASHDOT
 62
     7
 10
-28.9813456824972
 20
82.21460163614589
 30
0.0
 11
-28.9813456824972
 21
79.2146124875903
 31
0.0
  0
LINE
  5
2C5
  8
レイヤー_5
  6
DOT
 62
     7
 10
-33.58158168395131
 20
72.4897861003827
 30
0.0
 11
-33.58158168395131
 21
73.7148620549375
 31
0.0
  0
LINE
  5
2C6
  8
レイヤー_5
  6
DOT
 62
     7
 10
-144.0812968255972
 20
73.7148620549375
 30
0.0
 11
-144.0812968255972
 21
72.4897861003827
 31
0.0
  0
LINE
  5
2C7
  8
レイヤー_5
  6
DOT
 62
     7
 10
-33.58158168395131
 20
65.7260301341916
 30
0.0
 11
-33.58158168395131
 21
72.4897861003827
 31
0.0
  0
LINE
  5
2C8
  8
レイヤー_5
  6
DOT
 62
     7
 10
-144.0812968255972
 20
72.4897861003827
 30
0.0
 11
-144.0812968255972
 21
65.7260301341916
 31
0.0
  0
LINE
  5
2C9
  8
レイヤー_5
  6
DOT
 62
     7
 10
-145.5809468903265
 20
83.61434393180289
 30
0.0
 11
-144.0812968255972
 21
83.61434393180289
 31
0.0
  0
LINE
  5
2CA
  8
レイヤー_5
  6
DOT
 62
     7
 10
-147.0812859741528
 20
83.61434393180289
 30
0.0
 11
-145.5809468903265
 21
83.61434393180289
 31
0.0
  0
LINE
  5
2CB
  8
レイヤー_5
  6
DOT
 62
     7
 10
-106.5814324686527
 20
83.61434393180289
 30
0.0
 11
-105.081437894375
 21
83.61434393180289
 31
0.0
  0
LINE
  5
2CC
  8
レイヤー_5
  6
DOT
 62
     7
 10
-108.081082533382
 20
83.61434393180289
 30
0.0
 11
-106.5814324686527
 21
83.61434393180289
 31
0.0
  0
LINE
  5
2CD
  8
レイヤー_5
  6
DOT
 62
     7
 10
-71.0814460408958
 20
83.61434393180289
 30
0.0
 11
-69.58145146661802
 21
83.61434393180289
 31
0.0
  0
LINE
  5
2CE
  8
レイヤー_5
  6
DOT
 62
     7
 10
-72.58109610562505
 20
83.61434393180289
 30
0.0
 11
-71.0814460408958
 21
83.61434393180289
 31
0.0
  0
LINE
  5
2CF
  8
レイヤー_5
  6
DOT
 62
     7
 10
-32.08158710967353
 20
83.61434393180289
 30
0.0
 11
-30.58124802584723
 21
83.61434393180289
 31
0.0
  0
LINE
  5
2D0
  8
レイヤー_5
  6
DOT
 62
     7
 10
-33.58158168395131
 20
83.61434393180289
 30
0.0
 11
-32.08158710967353
 21
83.61434393180289
 31
0.0
  0
POLYLINE
  5
2D1
  8
レイヤー_5
  6
DASHDOT
 62
     7
 66
     1
 10
0.0
 20
0.0
 30
0.0
  0
VERTEX
  5
2D2
  8
レイヤー_5
  6
DASHDOT
 62
     7
 10
-156.4812288061441
 20
73.21428960785929
 30
0.0
 42
0.0992655976355646
  0
VERTEX
  5
2D3
  8
レイヤー_5
  6
DASHDOT
 62
     7
 10
-156.3536874933666
 20
72.57819529524201
 30
0.0
 42
0.0977173944147978
  0
VERTEX
  5
2D4
  8
レイヤー_5
  6
DASHDOT
 62
     7
 10
-155.9980108061441
 20
72.04765060785928
 30
0.0
 42
0.0979005763764189
  0
VERTEX
  5
2D5
  8
レイヤー_5
  6
DASHDOT
 62
     7
 10
-155.4663606250072
 20
71.69151258142358
 30
0.0
 42
0.0990822306716188
  0
VERTEX
  5
2D6
  8
レイヤー_5
  6
DASHDOT
 62
     7
 10
-154.8313718061441
 20
71.56443260785929
 30
0.0
 42
0.1990716862089852
  0
VERTEX
  5
2D7
  8
レイヤー_5
  6
DASHDOT
 62
     7
 10
-153.6636164834067
 20
72.04855208039936
 30
0.0
 42
0.1987534645752916
  0
VERTEX
  5
2D8
  8
レイヤー_5
  6
DASHDOT
 62
     7
 10
-153.1811718061441
 20
73.21428960785929
 30
0.0
 42
0.0984923559498308
  0
VERTEX
  5
2D9
  8
レイヤー_5
  6
DASHDOT
 62
     7
 10
-153.3067476117729
 20
73.84559558924174
 30
0.0
 42
0.0984907030345154
  0
VERTEX
  5
2DA
  8
レイヤー_5
  6
DASHDOT
 62
     7
 10
-153.6645618061441
 20
74.38109960785928
 30
0.0
 42
0.0983707958803887
  0
VERTEX
  5
2DB
  8
レイヤー_5
  6
DASHDOT
 62
     7
 10
-154.1993432739069
 20
74.7386140028872
 30
0.0
 42
0.098611761309789
  0
VERTEX
  5
2DC
  8
レイヤー_5
  6
DASHDOT
 62
     7
 10
-154.8313718061441
 20
74.8644896078593
 30
0.0
 42
0.1986294689974813
  0
VERTEX
  5
2DD
  8
レイヤー_5
  6
DASHDOT
 62
     7
 10
-155.9965531663248
 20
74.38259852846986
 30
0.0
 42
0.1991948911940079
  0
VERTEX
  5
2DE
  8
レイヤー_5
  6
DASHDOT
 62
     7
 10
-156.4812288061441
 20
73.2142896078563
 30
0.0
  0
SEQEND
  5
2DF
  8
レイヤー_5
  6
DASHDOT
 62
     7
  0
POLYLINE
  5
2E0
  8
レイヤー_5
  6
DASHDOT
 62
     7
 66
     1
 10
0.0
 20
0.0
 30
0.0
  0
VERTEX
  5
2E1
  8
レイヤー_5
  6
DASHDOT
 62
     7
 10
-156.4812288061441
 20
-60.2859173921407
 30
0.0
 42
0.1989240649832238
  0
VERTEX
  5
2E2
  8
レイヤー_5
  6
DASHDOT
 62
     7
 10
-155.9984613811928
 20
-61.45134687316965
 30
0.0
 42
0.19890106533729
  0
VERTEX
  5
2E3
  8
レイヤー_5
  6
DASHDOT
 62
     7
 10
-154.8313718061441
 20
-61.93473939214071
 30
0.0
 42
0.1987399854167023
  0
VERTEX
  5
2E4
  8
レイヤー_5
  6
DASHDOT
 62
     7
 10
-153.6645887646168
 20
-61.45189532998211
 30
0.0
 42
0.1990847702017407
  0
VERTEX
  5
2E5
  8
レイヤー_5
  6
DASHDOT
 62
     7
 10
-153.1811718061441
 20
-60.2859173921407
 30
0.0
 42
0.0498156133933558
  0
VERTEX
  5
2E6
  8
レイヤー_5
  6
DASHDOT
 62
     7
 10
-153.2140718597051
 20
-59.95651856809792
 30
0.0
 42
0.0502533388257688
  0
VERTEX
  5
2E7
  8
レイヤー_5
  6
DASHDOT
 62
     7
 10
-153.3108738061441
 20
-59.64305139214071
 30
0.0
 42
0.0482791882724379
  0
VERTEX
  5
2E8
  8
レイヤー_5
  6
DASHDOT
 62
     7
 10
-153.4619142687452
 20
-59.36421160266784
 30
0.0
 42
0.0481046617215799
  0
VERTEX
  5
2E9
  8
レイヤー_5
  6
DASHDOT
 62
     7
 10
-153.6645618061441
 20
-59.1182013921407
 30
0.0
 42
0.0982745418738917
  0
VERTEX
  5
2EA
  8
レイヤー_5
  6
DASHDOT
 62
     7
 10
-154.1985296383721
 20
-58.76091646257711
 30
0.0
 42
0.0987627457901718
  0
VERTEX
  5
2EB
  8
レイヤー_5
  6
DASHDOT
 62
     7
 10
-154.8313718061441
 20
-58.6346823921407
 30
0.0
 42
0.0498767881550654
  0
VERTEX
  5
2EC
  8
レイヤー_5
  6
DASHDOT
 62
     7
 10
-155.1604473119274
 20
-58.66759071655976
 30
0.0
 42
0.0502916066087295
  0
VERTEX
  5
2ED
  8
レイヤー_5
  6
DASHDOT
 62
     7
 10
-155.4735868061441
 20
-58.76440139214072
 30
0.0
 42
0.1473263881005877
  0
VERTEX
  5
2EE
  8
レイヤー_5
  6
DASHDOT
 62
     7
 10
-156.2059593042837
 20
-59.37241665634435
 30
0.0
 42
0.1473942957143553
  0
VERTEX
  5
2EF
  8
レイヤー_5
  6
DASHDOT
 62
     7
 10
-156.4812288061441
 20
-60.28591739261515
 30
0.0
  0
SEQEND
  5
2F0
  8
レイヤー_5
  6
DASHDOT
 62
     7
  0
POLYLINE
  5
2F1
  8
レイヤー_5
  6
DASHDOT
 62
     7
 66
     1
 10
0.0
 20
0.0
 30
0.0
  0
VERTEX
  5
2F2
  8
レイヤー_5
  6
DASHDOT
 62
     7
 10
-24.48136280614407
 20
-60.2859173921407
 30
0.0
 42
0.1989240650486065
  0
VERTEX
  5
2F3
  8
レイヤー_5
  6
DASHDOT
 62
     7
 10
-23.99859538089965
 20
-61.45134687346281
 30
0.0
 42
0.1989010652718075
  0
VERTEX
  5
2F4
  8
レイヤー_5
  6
DASHDOT
 62
     7
 10
-22.83150580614407
 20
-61.93473939214071
 30
0.0
 42
0.1988062564093615
  0
VERTEX
  5
2F5
  8
レイヤー_5
  6
DASHDOT
 62
     7
 10
-21.66400925911215
 20
-61.45142570103901
 30
0.0
 42
0.1990183609259613
  0
VERTEX
  5
2F6
  8
レイヤー_5
  6
DASHDOT
 62
     7
 10
-21.18096080614407
 20
-60.2859173921407
 30
0.0
 42
0.0498191522664083
  0
VERTEX
  5
2F7
  8
レイヤー_5
  6
DASHDOT
 62
     7
 10
-21.21386481961837
 20
-59.9565024389258
 30
0.0
 42
0.0502565109169491
  0
VERTEX
  5
2F8
  8
レイヤー_5
  6
DASHDOT
 62
     7
 10
-21.31066880614407
 20
-59.64305139214071
 30
0.0
 42
0.0482932932946742
  0
VERTEX
  5
2F9
  8
レイヤー_5
  6
DASHDOT
 62
     7
 10
-21.46175086997396
 20
-59.36416893239553
 30
0.0
 42
0.0481019494772096
  0
VERTEX
  5
2FA
  8
レイヤー_5
  6
DASHDOT
 62
     7
 10
-21.66439380614407
 20
-59.1182013921407
 30
0.0
 42
0.0480959035158103
  0
VERTEX
  5
2FB
  8
レイヤー_5
  6
DASHDOT
 62
     7
 10
-21.91023595102166
 20
-58.91553670122082
 30
0.0
 42
0.0483172632918712
  0
VERTEX
  5
2FC
  8
レイヤー_5
  6
DASHDOT
 62
     7
 10
-22.18903880614407
 20
-58.76440139214071
 30
0.0
 42
0.050281770602254
  0
VERTEX
  5
2FD
  8
レイヤー_5
  6
DASHDOT
 62
     7
 10
-22.50235328825396
 20
-58.66758074157008
 30
0.0
 42
0.0498488406106552
  0
VERTEX
  5
2FE
  8
レイヤー_5
  6
DASHDOT
 62
     7
 10
-22.83150580614407
 20
-58.6346823921407
 30
0.0
 42
0.0498767881534919
  0
VERTEX
  5
2FF
  8
レイヤー_5
  6
DASHDOT
 62
     7
 10
-23.16058131191714
 20
-58.66759071655768
 30
0.0
 42
0.0502916066102838
  0
VERTEX
  5
300
  8
レイヤー_5
  6
DASHDOT
 62
     7
 10
-23.47372080614407
 20
-58.76440139214071
 30
0.0
 42
0.147326388069823
  0
VERTEX
  5
301
  8
レイヤー_5
  6
DASHDOT
 62
     7
 10
-24.20609330417388
 20
-59.37241665617867
 30
0.0
 42
0.1473942955043928
  0
VERTEX
  5
302
  8
レイヤー_5
  6
DASHDOT
 62
     7
 10
-24.48136280614407
 20
-60.2859173910565
 30
0.0
  0
SEQEND
  5
303
  8
レイヤー_5
  6
DASHDOT
 62
     7
  0
POLYLINE
  5
304
  8
レイヤー_5
  6
DASHDOT
 62
     7
 66
     1
 10
0.0
 20
0.0
 30
0.0
  0
VERTEX
  5
305
  8
レイヤー_5
  6
DASHDOT
 62
     7
 10
-24.48136280614407
 20
73.21428960785929
 30
0.0
 42
0.0992655976326844
  0
VERTEX
  5
306
  8
レイヤー_5
  6
DASHDOT
 62
     7
 10
-24.35382149337381
 20
72.57819529525938
 30
0.0
 42
0.0977173944176741
  0
VERTEX
  5
307
  8
レイヤー_5
  6
DASHDOT
 62
     7
 10
-23.99814480614407
 20
72.04765060785928
 30
0.0
 42
0.0979005746565867
  0
VERTEX
  5
308
  8
レイヤー_5
  6
DASHDOT
 62
     7
 10
-23.46649463538286
 20
71.69151258574976
 30
0.0
 42
0.0990822323921226
  0
VERTEX
  5
309
  8
レイヤー_5
  6
DASHDOT
 62
     7
 10
-22.83150580614407
 20
71.56443260785929
 30
0.0
 42
0.098593163945331
  0
VERTEX
  5
30A
  8
レイヤー_5
  6
DASHDOT
 62
     7
 10
-22.19897258804175
 20
71.69038383339722
 30
0.0
 42
0.0983353178336295
  0
VERTEX
  5
30B
  8
レイヤー_5
  6
DASHDOT
 62
     7
 10
-21.66439380614408
 20
72.04765060785928
 30
0.0
 42
0.0988123807618758
  0
VERTEX
  5
30C
  8
レイヤー_5
  6
DASHDOT
 62
     7
 10
-21.30583742333296
 20
72.58475572303809
 30
0.0
 42
0.0982252044328444
  0
VERTEX
  5
30D
  8
レイヤー_5
  6
DASHDOT
 62
     7
 10
-21.18096080614407
 20
73.21428960785929
 30
0.0
 42
0.0985612663246015
  0
VERTEX
  5
30E
  8
レイヤー_5
  6
DASHDOT
 62
     7
 10
-21.3067026066627
 20
73.8459794626553
 30
0.0
 42
0.0984399481459312
  0
VERTEX
  5
30F
  8
レイヤー_5
  6
DASHDOT
 62
     7
 10
-21.66439380614406
 20
74.38109960785928
 30
0.0
 42
0.016659931116845
  0
VERTEX
  5
310
  8
レイヤー_5
  6
DASHDOT
 62
     7
 10
-21.74471614831601
 20
74.4562296424184
 30
0.0
 42
0.1816317822111622
  0
VERTEX
  5
311
  8
レイヤー_5
  6
DASHDOT
 62
     7
 10
-22.83150580614407
 20
74.8644896078593
 30
0.0
 42
0.1986294680234744
  0
VERTEX
  5
312
  8
レイヤー_5
  6
DASHDOT
 62
     7
 10
-23.99668716194793
 20
74.38259853283714
 30
0.0
 42
0.1991948921682306
  0
VERTEX
  5
313
  8
レイヤー_5
  6
DASHDOT
 62
     7
 10
-24.48136280614407
 20
73.2142896078594
 30
0.0
  0
SEQEND
  5
314
  8
レイヤー_5
  6
DASHDOT
 62
     7
  0
LINE
  5
315
  8
レイヤー_5
  6
DOT
 62
     7
 10
-148.5812805484306
 20
82.21460163614589
 30
0.0
 11
-148.6811883175028
 21
82.21460163614589
 31
0.0
  0
LINE
  5
316
  8
レイヤー_5
  6
DASHDOT
 62
     7
 10
-148.6811883175028
 20
79.2146124875903
 30
0.0
 11
-148.5812805484306
 21
79.2146124875903
 31
0.0
  0
LINE
  5
317
  8
レイヤー_5
  6
DASHDOT
 62
     7
 10
-29.08159796111798
 20
79.2146124875903
 30
0.0
 11
-28.9813456824972
 21
79.2146124875903
 31
0.0
  0
LINE
  5
318
  8
レイヤー_5
  6
DASHDOT
 62
     7
 10
-28.9813456824972
 20
82.21460163614589
 30
0.0
 11
-29.08159796111798
 21
82.21460163614589
 31
0.0
  0
LINE
  5
319
  8
レイヤー_5
  6
DOT
 62
     7
 10
-147.0812859741528
 20
83.71459621042371
 30
0.0
 11
-147.0812859741528
 21
83.61434393180289
 31
0.0
  0
LINE
  5
31A
  8
レイヤー_5
  6
DOT
 62
     7
 10
-144.0812968255972
 20
83.61434393180289
 30
0.0
 11
-144.0812968255972
 21
83.71459621042371
 31
0.0
  0
LINE
  5
31B
  8
レイヤー_5
  6
DOT
 62
     7
 10
-108.081082533382
 20
83.71459621042371
 30
0.0
 11
-108.081082533382
 21
83.61434393180289
 31
0.0
  0
LINE
  5
31C
  8
レイヤー_5
  6
DOT
 62
     7
 10
-105.081437894375
 20
83.61434393180289
 30
0.0
 11
-105.081437894375
 21
83.71459621042371
 31
0.0
  0
LINE
  5
31D
  8
レイヤー_5
  6
DOT
 62
     7
 10
-72.58109610562505
 20
83.71459621042371
 30
0.0
 11
-72.58109610562505
 21
83.61434393180289
 31
0.0
  0
LINE
  5
31E
  8
レイヤー_5
  6
DOT
 62
     7
 10
-69.58145146661802
 20
83.61434393180289
 30
0.0
 11
-69.58145146661802
 21
83.71459621042371
 31
0.0
  0
LINE
  5
31F
  8
レイヤー_5
  6
DOT
 62
     7
 10
-33.58158168395131
 20
83.71459621042371
 30
0.0
 11
-33.58158168395131
 21
83.61434393180289
 31
0.0
  0
LINE
  5
320
  8
レイヤー_5
  6
DOT
 62
     7
 10
-30.58124802584723
 20
83.61434393180289
 30
0.0
 11
-30.58124802584723
 21
83.71459621042371
 31
0.0
  0
LINE
  5
321
  8
レイヤー_5
  6
DASHDOT
 62
     7
 10
-88.831267
 20
12.21474000000001
 30
0.0
 11
-88.831267
 21
91.723409684984
 31
0.0
  0
LINE
  5
322
  8
レイヤー_5
  6
DASHDOT
 62
     7
 10
-88.831267
 20
12.21474000000001
 30
0.0
 11
-88.831267
 21
-93.97447167050129
 31
0.0
  0
LINE
  5
323
  8
レイヤー_5
  6
DASHDOT
 62
     7
 10
-88.831267
 20
12.21474000000001
 30
0.0
 11
-13.28170104666517
 21
12.21474000000001
 31
0.0
  0
LINE
  5
324
  8
レイヤー_5
  6
DASHDOT
 62
     7
 10
-88.831267
 20
12.21474000000001
 30
0.0
 11
-163.4423889431528
 21
12.21474000000001
 31
0.0
  0
LINE
  5
325
  8
レイヤー_5
  6
DASHDOT
 62
     7
 10
39.04964388382842
 20
12.43350356331339
 30
0.0
 11
125.9790492440404
 21
12.43350356331339
 31
0.0
  0
ARC
  5
326
  8
レイヤー_5
  6
CONTINUOUS
 62
     7
 10
78.9835402008572
 20
-44.06771682785316
 30
0.0
 40
8.00047715451548
 50
89.99558118803284
 51
119.9937548781134
  0
ARC
  5
327
  8
レイヤー_5
  6
CONTINUOUS
 62
     7
 10
78.98328012427108
 20
68.93049253788232
 30
0.0
 40
7.99727929086765
 50
239.9951716877073
 51
270.0062838739485
  0
POLYLINE
  5
328
  8
レイヤー_5
  6
CONTINUOUS
 62
     7
 66
     1
 10
0.0
 20
0.0
 30
0.0
  0
VERTEX
  5
329
  8
レイヤー_5
  6
CONTINUOUS
 62
     7
 10
122.4850331938559
 20
56.97445360785929
 30
0.0
 42
0.0370605945697132
  0
VERTEX
  5
32A
  8
レイヤー_5
  6
CONTINUOUS
 62
     7
 10
122.435764153887
 20
57.28559361396714
 30
0.0
 42
0.0316712685501092
  0
VERTEX
  5
32B
  8
レイヤー_5
  6
CONTINUOUS
 62
     7
 10
122.3288211938559
 20
57.63822560785928
 30
0.0
 42
0.023158840218586
  0
VERTEX
  5
32C
  8
レイヤー_5
  6
CONTINUOUS
 62
     7
 10
122.2063530255813
 20
57.92462449264943
 30
0.0
 42
0.020580529372623
  0
VERTEX
  5
32D
  8
レイヤー_5
  6
CONTINUOUS
 62
     7
 10
122.0409411938559
 20
58.23358760785931
 30
0.0
 42
0.0159592701111609
  0
VERTEX
  5
32E
  8
レイヤー_5
  6
CONTINUOUS
 62
     7
 10
121.880736918586
 20
58.48651239990022
 30
0.0
 42
0.0148168503482887
  0
VERTEX
  5
32F
  8
レイヤー_5
  6
CONTINUOUS
 62
     7
 10
121.6917551938559
 20
58.74780260785928
 30
0.0
 42
0.0236690299842561
  0
VERTEX
  5
330
  8
レイヤー_5
  6
CONTINUOUS
 62
     7
 10
121.3305315462871
 20
59.17394802344845
 30
0.0
 42
0.0223970529933504
  0
VERTEX
  5
331
  8
レイヤー_5
  6
CONTINUOUS
 62
     7
 10
120.9089961938559
 20
59.58726160785929
 30
0.0
 42
0.0167024742903285
  0
VERTEX
  5
332
  8
レイヤー_5
  6
CONTINUOUS
 62
     7
 10
120.5695022525104
 20
59.8716862361654
 30
0.0
 42
0.0170710298565344
  0
VERTEX
  5
333
  8
レイヤー_5
  6
CONTINUOUS
 62
     7
 10
120.2193381938559
 20
60.12690060785928
 30
0.0
 42
0.0135673214737165
  0
VERTEX
  5
334
  8
レイヤー_5
  6
CONTINUOUS
 62
     7
 10
119.9410899169646
 20
60.30467975536408
 30
0.0
 42
0.0142551556266197
  0
VERTEX
  5
335
  8
レイヤー_5
  6
CONTINUOUS
 62
     7
 10
119.6672531938559
 20
60.45889960785928
 30
0.0
 42
0.0239543500790688
  0
VERTEX
  5
336
  8
レイヤー_5
  6
CONTINUOUS
 62
     7
 10
119.2259197405903
 20
60.66478656086232
 30
0.0
 42
0.0269753320529294
  0
VERTEX
  5
337
  8
レイヤー_5
  6
CONTINUOUS
 62
     7
 10
118.8173931938559
 20
60.80684860785928
 30
0.0
 42
0.0325569425382734
  0
VERTEX
  5
338
  8
レイヤー_5
  6
CONTINUOUS
 62
     7
 10
118.3749846081418
 20
60.90375414205499
 30
0.0
 42
0.0376542864448654
  0
VERTEX
  5
339
  8
レイヤー_5
  6
CONTINUOUS
 62
     7
 10
117.9843601938559
 20
60.9332126078593
 30
0.0
  0
SEQEND
  5
33A
  8
レイヤー_5
  6
CONTINUOUS
 62
     7
  0
POLYLINE
  5
33B
  8
レイヤー_5
  6
CONTINUOUS
 62
     7
 66
     1
 10
0.0
 20
0.0
 30
0.0
  0
VERTEX
  5
33C
  8
レイヤー_5
  6
CONTINUOUS
 62
     7
 10
117.9843601938559
 20
-36.0672403921407
 30
0.0
 42
0.0498660652081886
  0
VERTEX
  5
33D
  8
レイヤー_5
  6
CONTINUOUS
 62
     7
 10
118.881540928454
 20
-35.9775395939118
 30
0.0
 42
0.0502813841796299
  0
VERTEX
  5
33E
  8
レイヤー_5
  6
CONTINUOUS
 62
     7
 10
119.7359271938559
 20
-35.71345539214069
 30
0.0
 42
0.0722954744564628
  0
VERTEX
  5
33F
  8
レイヤー_5
  6
CONTINUOUS
 62
     7
 10
120.8425925840787
 20
-35.04315768409047
 30
0.0
 42
0.0720342117502897
  0
VERTEX
  5
340
  8
レイヤー_5
  6
CONTINUOUS
 62
     7
 10
121.7162021938559
 20
-34.08262639214071
 30
0.0
 42
0.0365240129909131
  0
VERTEX
  5
341
  8
レイヤー_5
  6
CONTINUOUS
 62
     7
 10
122.0431569578022
 20
-33.51318270206518
 30
0.0
 42
0.0366500674540071
  0
VERTEX
  5
342
  8
レイヤー_5
  6
CONTINUOUS
 62
     7
 10
122.2826311938559
 20
-32.90466739214071
 30
0.0
 42
0.0379022614525875
  0
VERTEX
  5
343
  8
レイヤー_5
  6
CONTINUOUS
 62
     7
 10
122.4339097761473
 20
-32.24638899860828
 30
0.0
 42
0.03754722287475
  0
VERTEX
  5
344
  8
レイヤー_5
  6
CONTINUOUS
 62
     7
 10
122.4850331938559
 20
-31.5665673914754
 30
0.0
  0
SEQEND
  5
345
  8
レイヤー_5
  6
CONTINUOUS
 62
     7
  0
LINE
  5
346
  8
レイヤー_5
  6
CONTINUOUS
 62
     7
 10
93.48490862716402
 20
60.9332132951121
 30
0.0
 11
78.98415722019892
 21
60.9332132951121
 31
0.0
  0
LINE
  5
347
  8
レイヤー_5
  6
CONTINUOUS
 62
     7
 10
117.9843606609697
 20
60.9332132951121
 30
0.0
 11
110.4836987704837
 21
60.9332132951121
 31
0.0
  0
LINE
  5
348
  8
レイヤー_5
  6
CONTINUOUS
 62
     7
 10
78.98415722019892
 20
-36.06723969713087
 30
0.0
 11
117.9843606609697
 21
-36.06723969713087
 31
0.0
  0
LINE
  5
349
  8
レイヤー_5
  6
CONTINUOUS
 62
     7
 10
41.98520974680973
 20
83.4327873997303
 30
0.0
 11
41.98520974680973
 21
-70.06585351241594
 31
0.0
  0
LINE
  5
34A
  8
レイヤー_5
  6
CONTINUOUS
 62
     7
 10
69.48465092917102
 20
15.33324043324819
 30
0.0
 11
68.18343836439213
 21
15.33324043324819
 31
0.0
  0
LINE
  5
34B
  8
レイヤー_5
  6
CONTINUOUS
 62
     7
 10
68.18343836439213
 20
9.533422183830083
 30
0.0
 11
69.48465092917102
 21
9.533422183830083
 31
0.0
  0
POLYLINE
  5
34C
  8
レイヤー_5
  6
CONTINUOUS
 62
     7
 66
     1
 10
0.0
 20
0.0
 30
0.0
  0
VERTEX
  5
34D
  8
レイヤー_5
  6
CONTINUOUS
 62
     7
 10
67.18470419385592
 20
10.53284360785929
 30
0.0
 42
0.1990714826255077
  0
VERTEX
  5
34E
  8
レイヤー_5
  6
CONTINUOUS
 62
     7
 10
67.47800375631171
 20
9.825368441472193
 30
0.0
 42
0.1987537149842291
  0
VERTEX
  5
34F
  8
レイヤー_5
  6
CONTINUOUS
 62
     7
 10
68.18343819385593
 20
9.533421607859276
 30
0.0
  0
SEQEND
  5
350
  8
レイヤー_5
  6
CONTINUOUS
 62
     7
  0
POLYLINE
  5
351
  8
レイヤー_5
  6
CONTINUOUS
 62
     7
 66
     1
 10
0.0
 20
0.0
 30
0.0
  0
VERTEX
  5
352
  8
レイヤー_5
  6
CONTINUOUS
 62
     7
 10
68.18343819385593
 20
15.3332396078593
 30
0.0
 42
0.1990162444700555
  0
VERTEX
  5
353
  8
レイヤー_5
  6
CONTINUOUS
 62
     7
 10
67.4776334005595
 20
15.04072042584971
 30
0.0
 42
0.1988080338475974
  0
VERTEX
  5
354
  8
レイヤー_5
  6
CONTINUOUS
 62
     7
 10
67.18470419385592
 20
14.333128608236
 30
0.0
  0
SEQEND
  5
355
  8
レイヤー_5
  6
CONTINUOUS
 62
     7
  0
ARC
  5
356
  8
レイヤー_5
  6
CONTINUOUS
 62
     7
 10
72.54333127911879
 20
73.43322549901833
 30
0.0
 40
4.059652845242748
 50
141.0895641570172
 51
218.9104358429828
  0
LINE
  5
357
  8
レイヤー_5
  6
CONTINUOUS
 62
     7
 10
69.38439865055024
 20
70.88333807561068
 30
0.0
 11
69.48465092917102
 21
70.88333807561068
 31
0.0
  0
LINE
  5
358
  8
レイヤー_5
  6
CONTINUOUS
 62
     7
 10
69.48465092917102
 20
75.98311292242599
 30
0.0
 11
69.38439865055024
 21
75.98311292242599
 31
0.0
  0
LINE
  5
359
  8
レイヤー_5
  6
CONTINUOUS
 62
     7
 10
69.38439865055024
 20
-62.61549001601465
 30
0.0
 11
69.48465092917102
 21
-62.61549001601465
 31
0.0
  0
LINE
  5
35A
  8
レイヤー_5
  6
CONTINUOUS
 62
     7
 10
69.48465092917102
 20
-57.51640418829636
 30
0.0
 11
69.38439865055024
 21
-57.51640418829636
 31
0.0
  0
ARC
  5
35B
  8
レイヤー_5
  6
CONTINUOUS
 62
     7
 10
72.54235598405087
 20
-60.0659471021555
 30
0.0
 40
4.058677566624357
 50
141.0847006911988
 51
218.9152993088013
  0
LINE
  5
35C
  8
レイヤー_5
  6
CONTINUOUS
 62
     7
 10
57.41406987750112
 20
-86.63366221053094
 30
0.0
 11
57.66349479063324
 21
-87.0660216939298
 31
0.0
  0
LINE
  5
35D
  8
レイヤー_5
  6
CONTINUOUS
 62
     7
 10
122.4850334029001
 20
56.912442354277
 30
0.0
 11
122.4850334029001
 21
-31.5665669552005
 31
0.0
  0
LINE
  5
35E
  8
レイヤー_5
  6
CONTINUOUS
 62
     7
 10
93.48490862716402
 20
60.8870490156097
 30
0.0
 11
93.48490862716402
 21
60.9332132951121
 31
0.0
  0
POLYLINE
  5
35F
  8
レイヤー_5
  6
CONTINUOUS
 62
     7
 66
     1
 10
0.0
 20
0.0
 30
0.0
  0
VERTEX
  5
360
  8
レイヤー_5
  6
CONTINUOUS
 62
     7
 10
93.48490819385593
 20
60.88704860785927
 30
0.0
 42
0.033377471215031
  0
VERTEX
  5
361
  8
レイヤー_5
  6
CONTINUOUS
 62
     7
 10
93.92088634982427
 20
60.83127830969985
 30
0.0
 42
0.0329219228101497
  0
VERTEX
  5
362
  8
レイヤー_5
  6
CONTINUOUS
 62
     7
 10
94.36650819385592
 20
60.83364960785929
 30
0.0
  0
SEQEND
  5
363
  8
レイヤー_5
  6
CONTINUOUS
 62
     7
  0
POLYLINE
  5
364
  8
レイヤー_5
  6
CONTINUOUS
 62
     7
 66
     1
 10
0.0
 20
0.0
 30
0.0
  0
VERTEX
  5
365
  8
レイヤー_5
  6
CONTINUOUS
 62
     7
 10
109.3664543046172
 20
60.68792249656229
 30
0.0
  0
VERTEX
  5
366
  8
レイヤー_5
  6
CONTINUOUS
 62
     7
 10
101.8723380955532
 20
60.7695712595627
 30
0.0
  0
VERTEX
  5
367
  8
レイヤー_5
  6
CONTINUOUS
 62
     7
 10
94.36650856183944
 20
60.83365003558839
 30
0.0
  0
SEQEND
  5
368
  8
レイヤー_5
  6
CONTINUOUS
 62
     7
  0
LINE
  5
369
  8
レイヤー_5
  6
CONTINUOUS
 62
     7
 10
110.4836987704837
 20
60.6751756432669
 30
0.0
 11
109.3664543046172
 21
60.68792249656229
 31
0.0
  0
LINE
  5
36A
  8
レイヤー_5
  6
CONTINUOUS
 62
     7
 10
110.4836987704837
 20
60.9332132951121
 30
0.0
 11
110.4836987704837
 21
60.6751756432669
 31
0.0
  0
ARC
  5
36B
  8
レイヤー_5
  6
CONTINUOUS
 62
     7
 10
71.9033677073184
 20
70.79343399422001
 30
0.0
 40
13.28481989806352
 50
98.46994700782238
 51
107.9337427584838
  0
LINE
  5
36C
  8
レイヤー_5
  6
CONTINUOUS
 62
     7
 10
74.98405685227532
 20
83.4327873997303
 30
0.0
 11
74.98405685227532
 21
83.93335977373698
 31
0.0
  0
LINE
  5
36D
  8
レイヤー_5
  6
CONTINUOUS
 62
     7
 10
74.98405685227532
 20
83.93335977373698
 30
0.0
 11
69.94663823374303
 21
83.93335977373698
 31
0.0
  0
LINE
  5
36E
  8
レイヤー_5
  6
CONTINUOUS
 62
     7
 10
69.48465092917102
 20
83.4327873997303
 30
0.0
 11
69.48465092917102
 21
-70.06585351241594
 31
0.0
  0
LINE
  5
36F
  8
レイヤー_5
  6
CONTINUOUS
 62
     7
 10
74.98405685227532
 20
83.4327873997303
 30
0.0
 11
74.98405685227532
 21
-70.06585351241594
 31
0.0
  0
LINE
  5
370
  8
レイヤー_5
  6
CONTINUOUS
 62
     7
 10
69.48465092917102
 20
-70.06585351241594
 30
0.0
 11
74.48486251646263
 21
-70.06585351241594
 31
0.0
  0
LINE
  5
371
  8
レイヤー_5
  6
CONTINUOUS
 62
     7
 10
53.98413281238643
 20
83.4327873997303
 30
0.0
 11
53.98413281238643
 21
-70.06585351241594
 31
0.0
  0
LINE
  5
372
  8
レイヤー_5
  6
CONTINUOUS
 62
     7
 10
53.98413281238643
 20
-70.06585351241594
 30
0.0
 11
69.48465092917102
 21
-70.06585351241594
 31
0.0
  0
LINE
  5
373
  8
レイヤー_5
  6
CONTINUOUS
 62
     7
 10
53.98413281238643
 20
83.4327873997303
 30
0.0
 11
69.48465092917102
 21
83.4327873997303
 31
0.0
  0
LINE
  5
374
  8
レイヤー_5
  6
CONTINUOUS
 62
     7
 10
48.61219542223633
 20
-70.06585351241594
 30
0.0
 11
48.61219542223633
 21
83.4327873997303
 31
0.0
  0
LINE
  5
375
  8
レイヤー_5
  6
CONTINUOUS
 62
     7
 10
53.98413281238643
 20
-70.06585351241594
 30
0.0
 11
48.61219542223633
 21
-70.06585351241594
 31
0.0
  0
LINE
  5
376
  8
レイヤー_5
  6
CONTINUOUS
 62
     7
 10
48.61219542223633
 20
83.4327873997303
 30
0.0
 11
53.98413281238643
 21
83.4327873997303
 31
0.0
  0
LINE
  5
377
  8
レイヤー_5
  6
CONTINUOUS
 62
     7
 10
41.98520974680973
 20
-70.06585351241594
 30
0.0
 11
48.61219542223633
 21
-70.06585351241594
 31
0.0
  0
LINE
  5
378
  8
レイヤー_5
  6
CONTINUOUS
 62
     7
 10
41.98520974680973
 20
83.4327873997303
 30
0.0
 11
48.61219542223633
 21
83.4327873997303
 31
0.0
  0
LINE
  5
379
  8
レイヤー_5
  6
CONTINUOUS
 62
     7
 10
67.18470518321824
 20
10.53284438410108
 30
0.0
 11
67.18470518321824
 21
14.33312921388008
 31
0.0
  0
LINE
  5
37A
  8
レイヤー_5
  6
CONTINUOUS
 62
     7
 10
69.38439865055024
 20
75.98311292242599
 30
0.0
 11
69.38439865055024
 21
70.88333807561068
 31
0.0
  0
LINE
  5
37B
  8
レイヤー_5
  6
CONTINUOUS
 62
     7
 10
69.38439865055024
 20
-57.51640418829636
 30
0.0
 11
69.38439865055024
 21
-62.61549001601465
 31
0.0
  0
LINE
  5
37C
  8
レイヤー_5
  6
CONTINUOUS
 62
     7
 10
74.98405685227532
 20
-77.0659430288951
 30
0.0
 11
63.51705652962123
 21
-83.68776106109381
 31
0.0
  0
LINE
  5
37D
  8
レイヤー_5
  6
CONTINUOUS
 62
     7
 10
63.26728710694063
 20
-83.25402353950085
 30
0.0
 11
63.51705652962123
 21
-83.68776106109381
 31
0.0
  0
POLYLINE
  5
37E
  8
レイヤー_5
  6
CONTINUOUS
 62
     7
 66
     1
 10
0.0
 20
0.0
 30
0.0
  0
VERTEX
  5
37F
  8
レイヤー_5
  6
CONTINUOUS
 62
     7
 10
64.99948019385592
 20
-78.2128153921407
 30
0.0
 42
0.0457666811841944
  0
VERTEX
  5
380
  8
レイヤー_5
  6
CONTINUOUS
 62
     7
 10
64.39917062179656
 20
-78.63694715046933
 30
0.0
 42
0.0460494261624645
  0
VERTEX
  5
381
  8
レイヤー_5
  6
CONTINUOUS
 62
     7
 10
63.88953019385592
 20
-79.16021739214071
 30
0.0
 42
0.0667317382629008
  0
VERTEX
  5
382
  8
レイヤー_5
  6
CONTINUOUS
 62
     7
 10
63.33710022007544
 20
-80.06754119996765
 30
0.0
 42
0.0665959308234607
  0
VERTEX
  5
383
  8
レイヤー_5
  6
CONTINUOUS
 62
     7
 10
63.04231319385592
 20
-81.0902103921407
 30
0.0
 42
0.0685547098126122
  0
VERTEX
  5
384
  8
レイヤー_5
  6
CONTINUOUS
 62
     7
 10
63.03063582015794
 20
-82.1760806825329
 30
0.0
 42
0.0683360016697119
  0
VERTEX
  5
385
  8
レイヤー_5
  6
CONTINUOUS
 62
     7
 10
63.31345119385593
 20
-83.22818539214072
 30
0.0
  0
SEQEND
  5
386
  8
レイヤー_5
  6
CONTINUOUS
 62
     7
  0
LINE
  5
387
  8
レイヤー_5
  6
CONTINUOUS
 62
     7
 10
70.98395648435174
 20
-74.75704003468064
 30
0.0
 11
64.99948111692423
 21
-78.21281531593476
 31
0.0
  0
LINE
  5
388
  8
レイヤー_5
  6
CONTINUOUS
 62
     7
 10
70.98395648435174
 20
-73.0658426609715
 30
0.0
 11
70.98395648435174
 21
-74.75704003468064
 31
0.0
  0
POLYLINE
  5
389
  8
レイヤー_5
  6
CONTINUOUS
 62
     7
 66
     1
 10
0.0
 20
0.0
 30
0.0
  0
VERTEX
  5
38A
  8
レイヤー_5
  6
CONTINUOUS
 62
     7
 10
71.98544519385594
 20
-72.0671103921407
 30
0.0
 42
0.1985747381732069
  0
VERTEX
  5
38B
  8
レイヤー_5
  6
CONTINUOUS
 62
     7
 10
71.27682557232639
 20
-72.36009109743839
 30
0.0
 42
0.1992500737579313
  0
VERTEX
  5
38C
  8
レイヤー_5
  6
CONTINUOUS
 62
     7
 10
70.98395619385593
 20
-73.0658433915647
 30
0.0
  0
SEQEND
  5
38D
  8
レイヤー_5
  6
CONTINUOUS
 62
     7
  0
LINE
  5
38E
  8
レイヤー_5
  6
CONTINUOUS
 62
     7
 10
74.98405685227532
 20
-72.06710947979758
 30
0.0
 11
74.48486251646263
 21
-72.06710947979758
 31
0.0
  0
LINE
  5
38F
  8
レイヤー_5
  6
CONTINUOUS
 62
     7
 10
74.98405685227532
 20
-72.06710947979758
 30
0.0
 11
74.98405685227532
 21
-77.0659430288951
 31
0.0
  0
LINE
  5
390
  8
レイヤー_5
  6
CONTINUOUS
 62
     7
 10
63.26728710694063
 20
-83.25402353950085
 30
0.0
 11
63.31345138644302
 21
-83.22818532336149
 31
0.0
  0
LINE
  5
391
  8
レイヤー_5
  6
CONTINUOUS
 62
     7
 10
71.98544574191392
 20
-72.06710947979758
 30
0.0
 11
74.48486251646263
 21
-72.06710947979758
 31
0.0
  0
LINE
  5
392
  8
レイヤー_5
  6
CONTINUOUS
 62
     7
 10
74.48486251646263
 20
-70.06585351241594
 30
0.0
 11
74.98405685227532
 21
-70.06585351241594
 31
0.0
  0
LINE
  5
393
  8
レイヤー_5
  6
CONTINUOUS
 62
     7
 10
74.98405685227532
 20
-70.06585351241594
 30
0.0
 11
74.98405685227532
 21
-72.06710947979758
 31
0.0
  0
LINE
  5
394
  8
レイヤー_5
  6
CONTINUOUS
 62
     7
 10
61.79864290157862
 20
-84.67994856084576
 30
0.0
 11
61.54921798844653
 21
-84.24621103925281
 31
0.0
  0
POLYLINE
  5
395
  8
レイヤー_5
  6
CONTINUOUS
 62
     7
 66
     1
 10
0.0
 20
0.0
 30
0.0
  0
VERTEX
  5
396
  8
レイヤー_5
  6
CONTINUOUS
 62
     7
 10
63.51705652962123
 20
-83.68776106109381
 30
0.0
  0
VERTEX
  5
397
  8
レイヤー_5
  6
CONTINUOUS
 62
     7
 10
63.20665342640022
 20
-83.86793955497237
 30
0.0
  0
VERTEX
  5
398
  8
レイヤー_5
  6
CONTINUOUS
 62
     7
 10
62.90555208098944
 20
-84.04019432923486
 30
0.0
  0
VERTEX
  5
399
  8
レイヤー_5
  6
CONTINUOUS
 62
     7
 10
62.62374327029592
 20
-84.20245832659013
 30
0.0
  0
VERTEX
  5
39A
  8
レイヤー_5
  6
CONTINUOUS
 62
     7
 10
62.37259580942124
 20
-84.34784135606768
 30
0.0
  0
VERTEX
  5
39B
  8
レイヤー_5
  6
CONTINUOUS
 62
     7
 10
62.15796636069022
 20
-84.47255381263372
 30
0.0
  0
VERTEX
  5
39C
  8
レイヤー_5
  6
CONTINUOUS
 62
     7
 10
61.98674511507322
 20
-84.57039452441481
 30
0.0
  0
VERTEX
  5
39D
  8
レイヤー_5
  6
CONTINUOUS
 62
     7
 10
61.86582226354103
 20
-84.63998545321687
 30
0.0
  0
VERTEX
  5
39E
  8
レイヤー_5
  6
CONTINUOUS
 62
     7
 10
61.79864290157862
 20
-84.67994856084576
 30
0.0
  0
SEQEND
  5
39F
  8
レイヤー_5
  6
CONTINUOUS
 62
     7
  0
POLYLINE
  5
3A0
  8
レイヤー_5
  6
CONTINUOUS
 62
     7
 66
     1
 10
0.0
 20
0.0
 30
0.0
  0
VERTEX
  5
3A1
  8
レイヤー_5
  6
CONTINUOUS
 62
     7
 10
61.54921798844653
 20
-84.24621103925281
 30
0.0
  0
VERTEX
  5
3A2
  8
レイヤー_5
  6
CONTINUOUS
 62
     7
 10
61.61605284086043
 20
-84.207625969818
 30
0.0
  0
VERTEX
  5
3A3
  8
レイヤー_5
  6
CONTINUOUS
 62
     7
 10
61.73697569239262
 20
-84.13665700282186
 30
0.0
  0
VERTEX
  5
3A4
  8
レイヤー_5
  6
CONTINUOUS
 62
     7
 10
61.90819693800954
 20
-84.03881629104075
 30
0.0
  0
VERTEX
  5
3A5
  8
レイヤー_5
  6
CONTINUOUS
 62
     7
 10
62.12179285809502
 20
-83.91410383447472
 30
0.0
  0
VERTEX
  5
3A6
  8
レイヤー_5
  6
CONTINUOUS
 62
     7
 10
62.37397384761532
 20
-83.77009884319128
 30
0.0
  0
VERTEX
  5
3A7
  8
レイヤー_5
  6
CONTINUOUS
 62
     7
 10
62.65578265830884
 20
-83.6064568076419
 30
0.0
  0
VERTEX
  5
3A8
  8
レイヤー_5
  6
CONTINUOUS
 62
     7
 10
62.95688400371962
 20
-83.43420203337942
 30
0.0
  0
VERTEX
  5
3A9
  8
レイヤー_5
  6
CONTINUOUS
 62
     7
 10
63.26728710694063
 20
-83.25402353950085
 30
0.0
  0
SEQEND
  5
3AA
  8
レイヤー_5
  6
CONTINUOUS
 62
     7
  0
POLYLINE
  5
3AB
  8
レイヤー_5
  6
CONTINUOUS
 62
     7
 66
     1
 10
0.0
 20
0.0
 30
0.0
  0
VERTEX
  5
3AC
  8
レイヤー_5
  6
CONTINUOUS
 62
     7
 10
61.54921798844653
 20
-84.24621103925281
 30
0.0
  0
VERTEX
  5
3AD
  8
レイヤー_5
  6
CONTINUOUS
 62
     7
 10
60.52085698609942
 20
-84.83945648181282
 30
0.0
  0
VERTEX
  5
3AE
  8
レイヤー_5
  6
CONTINUOUS
 62
     7
 10
59.63925705142402
 20
-85.34898610408128
 30
0.0
  0
VERTEX
  5
3AF
  8
レイヤー_5
  6
CONTINUOUS
 62
     7
 10
58.90304014622613
 20
-85.77376637741258
 30
0.0
  0
VERTEX
  5
3B0
  8
レイヤー_5
  6
CONTINUOUS
 62
     7
 10
58.31496234689403
 20
-86.11345279225822
 30
0.0
  0
VERTEX
  5
3B1
  8
レイヤー_5
  6
CONTINUOUS
 62
     7
 10
57.87330110568492
 20
-86.3683898581667
 30
0.0
  0
VERTEX
  5
3B2
  8
レイヤー_5
  6
CONTINUOUS
 62
     7
 10
57.57977897034162
 20
-86.53719953694394
 30
0.0
  0
VERTEX
  5
3B3
  8
レイヤー_5
  6
CONTINUOUS
 62
     7
 10
57.43198437402454
 20
-86.6219488858811
 30
0.0
  0
VERTEX
  5
3B4
  8
レイヤー_5
  6
CONTINUOUS
 62
     7
 10
57.41406987750112
 20
-86.63366221053094
 30
0.0
  0
SEQEND
  5
3B5
  8
レイヤー_5
  6
CONTINUOUS
 62
     7
  0
LINE
  5
3B6
  8
レイヤー_5
  6
CONTINUOUS
 62
     7
 10
117.9843606609697
 20
-36.06723969713087
 30
0.0
 11
117.9843606609697
 21
60.9332132951121
 31
0.0
  0
LINE
  5
3B7
  8
レイヤー_5
  6
CONTINUOUS
 62
     7
 10
68.18343836439213
 20
15.33324043324819
 30
0.0
 11
68.18343836439213
 21
9.533422183830083
 31
0.0
  0
LINE
  5
3B8
  8
レイヤー_5
  6
DOT
 62
     7
 10
70.98395648435174
 20
83.83310749511628
 30
0.0
 11
73.98532367110143
 21
83.83310749511628
 31
0.0
  0
LINE
  5
3B9
  8
レイヤー_5
  6
DOT
 62
     7
 10
68.18343836439213
 20
12.78386977416329
 30
0.0
 11
67.18470518321824
 21
12.78386977416329
 31
0.0
  0
LINE
  5
3BA
  8
レイヤー_5
  6
DOT
 62
     7
 10
68.18343836439213
 20
12.08279284291498
 30
0.0
 11
68.18343836439213
 21
12.78386977416329
 31
0.0
  0
LINE
  5
3BB
  8
レイヤー_5
  6
DOT
 62
     7
 10
68.18343836439213
 20
12.08279284291498
 30
0.0
 11
67.18470518321824
 21
12.08279284291498
 31
0.0
  0
LINE
  5
3BC
  8
レイヤー_5
  6
DOT
 62
     7
 10
68.18343836439213
 20
12.78386977416329
 30
0.0
 11
68.18343836439213
 21
14.18395657936878
 31
0.0
  0
LINE
  5
3BD
  8
レイヤー_5
  6
DOT
 62
     7
 10
68.18343836439213
 20
14.18395657936878
 30
0.0
 11
67.18470518321824
 21
14.18395657936878
 31
0.0
  0
LINE
  5
3BE
  8
レイヤー_5
  6
DOT
 62
     7
 10
68.18343836439213
 20
10.68339505680649
 30
0.0
 11
68.18343836439213
 21
12.08279284291498
 31
0.0
  0
LINE
  5
3BF
  8
レイヤー_5
  6
DOT
 62
     7
 10
68.18343836439213
 20
10.68339505680649
 30
0.0
 11
67.18470518321824
 21
10.68339505680649
 31
0.0
  0
LINE
  5
3C0
  8
レイヤー_5
  6
DOT
 62
     7
 10
61.54921798844653
 20
-84.24621103925281
 30
0.0
 11
61.79864290157862
 21
-84.67994856084576
 31
0.0
  0
LINE
  5
3C1
  8
レイヤー_5
  6
DASHDOT
 62
     7
 10
67.48477299998352
 20
-45.06582910460345
 30
0.0
 11
67.48477299998352
 21
69.93318074077868
 31
0.0
  0
LINE
  5
3C2
  8
レイヤー_5
  6
DASHDOT
 62
     7
 10
67.98396733579624
 20
69.43364189541748
 30
0.0
 11
67.98396733579624
 21
-44.56663476879075
 31
0.0
  0
LINE
  5
3C3
  8
レイヤー_5
  6
DOT
 62
     7
 10
74.48486251646263
 20
-72.06710947979758
 30
0.0
 11
74.98405685227532
 21
-72.06710947979758
 31
0.0
  0
LINE
  5
3C4
  8
レイヤー_5
  6
DOT
 62
     7
 10
63.51705652962123
 20
-83.68776106109381
 30
0.0
 11
63.26728710694063
 21
-83.25402353950085
 31
0.0
  0
LINE
  5
3C5
  8
レイヤー_5
  6
DOT
 62
     7
 10
70.98395648435174
 20
83.93335977373698
 30
0.0
 11
70.98395648435174
 21
83.83310749511628
 31
0.0
  0
LINE
  5
3C6
  8
レイヤー_5
  6
DOT
 62
     7
 10
73.98532367110143
 20
83.83310749511628
 30
0.0
 11
73.98532367110143
 21
83.93335977373698
 31
0.0
  0
LINE
  5
3C7
  8
レイヤー_5
  6
DASHDOT
 62
     7
 10
69.48465092917102
 20
69.93318074077868
 30
0.0
 11
67.48477299998352
 21
69.93318074077868
 31
0.0
  0
LINE
  5
3C8
  8
レイヤー_5
  6
DASHDOT
 62
     7
 10
67.48477299998352
 20
-45.06582910460345
 30
0.0
 11
69.48465092917102
 21
-45.06582910460345
 31
0.0
  0
LINE
  5
3C9
  8
レイヤー_5
  6
DASHDOT
 62
     7
 10
69.48465092917102
 20
69.43364189541748
 30
0.0
 11
67.98396733579624
 21
69.43364189541748
 31
0.0
  0
LINE
  5
3CA
  8
レイヤー_5
  6
DASHDOT
 62
     7
 10
67.98396733579624
 20
-44.56663476879075
 30
0.0
 11
69.48465092917102
 21
-44.56663476879075
 31
0.0
  0
LINE
  5
3CB
  8
レイヤー_5
  6
DOT
 62
     7
 10
68.18343836439213
 20
14.18395657936878
 30
0.0
 11
68.18343836439213
 21
15.33324043324819
 31
0.0
  0
LINE
  5
3CC
  8
レイヤー_5
  6
DOT
 62
     7
 10
68.18343836439213
 20
9.533422183830083
 30
0.0
 11
68.18343836439213
 21
10.68339505680649
 31
0.0
  0
LINE
  5
3CD
  8
レイヤー_5
  6
DASHDOT
 62
     7
 10
-29.08848815208847
 20
82.940483254888
 30
0.0
 11
-29.08848815208847
 21
82.4409444095268
 31
0.0
  0
LINE
  5
3CE
  8
レイヤー_5
  6
DASHDOT
 62
     7
 10
-148.5072109954977
 20
82.940483254888
 30
0.0
 11
-148.5072109954977
 21
82.4409444095268
 31
0.0
  0
ARC
  5
3CF
  8
レイヤー_5
  6
DASHDOT
 62
     7
 10
-34.09960793323416
 20
66.0471421487232
 30
0.0
 40
0.6521440346098991
 50
41.68616326140537
 51
78.8004810713393
  0
ARC
  5
3D0
  8
レイヤー_5
  6
DASHDOT
 62
     7
 10
-88.79802182856734
 20
-340.6284235595316
 30
0.0
 40
410.8325610602456
 50
82.28036093702103
 51
97.71963906297894
  0
POLYLINE
  5
3D1
  8
レイヤー_5
  6
DASHDOT
 62
     7
 66
     1
 10
0.0
 20
0.0
 30
0.0
  0
VERTEX
  5
3D2
  8
レイヤー_5
  6
DASHDOT
 62
     7
 10
-143.6230988061441
 20
66.68686660785929
 30
0.0
 42
0.0836540587561432
  0
VERTEX
  5
3D3
  8
レイヤー_5
  6
DASHDOT
 62
     7
 10
-143.8197678973685
 20
66.61453773178883
 30
0.0
 42
0.0829498123192377
  0
VERTEX
  5
3D4
  8
レイヤー_5
  6
DASHDOT
 62
     7
 10
-143.9834558061441
 20
66.4808496078593
 30
0.0
  0
SEQEND
  5
3D5
  8
レイヤー_5
  6
DASHDOT
 62
     7
  0
ARC
  5
3D6
  8
レイヤー_5
  6
DASHDOT
 62
     7
 10
-88.79802182856734
 20
-144.1075983376672
 30
0.0
 40
217.8074742275886
 50
75.4210697062986
 51
104.5789302937014
  0
LINE
  5
3D7
  8
レイヤー_5
  6
DASHDOT
 62
     7
 10
-33.9729445310757
 20
66.68686726502779
 30
0.0
 11
-33.9729445310757
 21
67.2429056763471
 31
0.0
  0
LINE
  5
3D8
  8
レイヤー_5
  6
DASHDOT
 62
     7
 10
-143.623099126059
 20
67.2429056763471
 30
0.0
 11
-143.623099126059
 21
66.68686726502779
 31
0.0
  0
ARC
  5
3D9
  8
レイヤー_5
  6
DASHDOT
 62
     7
 10
-88.79802182856734
 20
-143.7041350703471
 30
0.0
 40
217.9551401102149
 50
75.43116562352884
 51
104.5688343764711
  0
LINE
  5
3DA
  8
レイヤー_5
  6
DASHDOT
 62
     7
 10
-143.9834561138161
 20
66.48085055500988
 30
0.0
 11
-144.009638839504
 21
66.406781002077
 31
0.0
  0
LINE
  5
3DB
  8
レイヤー_5
  6
DASHDOT
 62
     7
 10
-144.009638839504
 20
66.406781002077
 30
0.0
 11
-144.009638839504
 21
66.9576517701685
 31
0.0
  0
POLYLINE
  5
3DC
  8
レイヤー_5
  6
DASHDOT
 62
     7
 66
     1
 10
0.0
 20
0.0
 30
0.0
  0
VERTEX
  5
3DD
  8
レイヤー_5
  6
DASHDOT
 62
     7
 10
-143.6230988061441
 20
67.24290560785929
 30
0.0
 42
0.134085003540462
  0
VERTEX
  5
3DE
  8
レイヤー_5
  6
DASHDOT
 62
     7
 10
-143.8547490679094
 20
67.15336659722689
 30
0.0
 42
0.1337392828583957
  0
VERTEX
  5
3DF
  8
レイヤー_5
  6
DASHDOT
 62
     7
 10
-144.0096388061441
 20
66.9576516078593
 30
0.0
  0
SEQEND
  5
3E0
  8
レイヤー_5
  6
DASHDOT
 62
     7
  0
LINE
  5
3E1
  8
レイヤー_5
  6
DASHDOT
 62
     7
 10
-33.58537128898509
 20
66.9576517701685
 30
0.0
 11
-33.58537128898509
 21
66.406781002077
 31
0.0
  0
LINE
  5
3E2
  8
レイヤー_5
  6
DASHDOT
 62
     7
 10
-33.58537128898509
 20
66.406781002077
 30
0.0
 11
-33.61258754331856
 21
66.48085055500988
 31
0.0
  0
POLYLINE
  5
3E3
  8
レイヤー_5
  6
DASHDOT
 62
     7
 66
     1
 10
0.0
 20
0.0
 30
0.0
  0
VERTEX
  5
3E4
  8
レイヤー_5
  6
DASHDOT
 62
     7
 10
-33.58537180614407
 20
66.9576516078593
 30
0.0
 42
0.1410786777741079
  0
VERTEX
  5
3E5
  8
レイヤー_5
  6
DASHDOT
 62
     7
 10
-33.73845462107489
 20
67.1565234239417
 30
0.0
 42
0.1416901309064946
  0
VERTEX
  5
3E6
  8
レイヤー_5
  6
DASHDOT
 62
     7
 10
-33.97294480614407
 20
67.24290560785929
 30
0.0
  0
SEQEND
  5
3E7
  8
レイヤー_5
  6
DASHDOT
 62
     7
  0
LINE
  5
3E8
  8
レイヤー_5
  6
DASHDOT
 62
     7
 10
-33.58537128898509
 20
66.406781002077
 30
0.0
 11
-33.58537128898509
 21
66.21351114535449
 31
0.0
  0
ARC
  5
3E9
  8
レイヤー_5
  6
DASHDOT
 62
     7
 10
-88.79750506424456
 20
-341.9858563164981
 30
0.0
 40
414.1622248552915
 50
82.33906989100902
 51
97.66093010899097
  0
LINE
  5
3EA
  8
レイヤー_5
  6
DASHDOT
 62
     7
 10
-144.009638839504
 20
66.406781002077
 30
0.0
 11
-144.009638839504
 21
66.2011088016076
 31
0.0
  0
ARC
  5
3EB
  8
レイヤー_5
  6
DASHDOT
 62
     7
 10
-88.79750506424456
 20
-341.804288998997
 30
0.0
 40
414.1048532300336
 50
82.33800214532019
 51
97.66199785467984
  0
LINE
  5
3EC
  8
レイヤー_5
  6
DASHDOT
 62
     7
 10
-144.009638839504
 20
67.10165676145189
 30
0.0
 11
-144.009638839504
 21
68.6033738834723
 31
0.0
  0
LINE
  5
3ED
  8
レイヤー_5
  6
DASHDOT
 62
     7
 10
-33.58537128898509
 20
68.6033738834723
 30
0.0
 11
-33.58537128898509
 21
67.10165676145189
 31
0.0
  0
ARC
  5
3EE
  8
レイヤー_5
  6
DASHDOT
 62
     7
 10
-88.79750506424456
 20
-340.7411402198392
 30
0.0
 40
411.39813552215
 50
82.28728576338958
 51
97.71271423661042
  0
LINE
  5
3EF
  8
レイヤー_5
  6
DASHDOT
 62
     7
 10
-144.009638839504
 20
68.6033738834723
 30
0.0
 11
-144.009638839504
 21
73.07131821829279
 31
0.0
  0
LINE
  5
3F0
  8
レイヤー_5
  6
DASHDOT
 62
     7
 10
-33.58537128898509
 20
68.6033738834723
 30
0.0
 11
-33.58537128898509
 21
73.07131821829279
 31
0.0
  0
LINE
  5
3F1
  8
レイヤー_5
  6
DASHDOT
 62
     7
 10
-144.009638839504
 20
68.4796949555519
 30
0.0
 11
-144.009638839504
 21
68.6033738834723
 31
0.0
  0
LINE
  5
3F2
  8
レイヤー_5
  6
DASHDOT
 62
     7
 10
-33.58537128898509
 20
68.4796949555519
 30
0.0
 11
-33.58537128898509
 21
68.6033738834723
 31
0.0
  0
LINE
  5
3F3
  8
レイヤー_5
  6
DASHDOT
 62
     7
 10
-28.58929381627577
 20
73.07131821829279
 30
0.0
 11
-33.58537128898509
 21
73.07131821829279
 31
0.0
  0
LINE
  5
3F4
  8
レイヤー_5
  6
DASHDOT
 62
     7
 10
-144.009638839504
 20
73.07131821829279
 30
0.0
 11
-149.0067498408589
 21
73.07131821829279
 31
0.0
  0
LINE
  5
3F5
  8
レイヤー_5
  6
DASHDOT
 62
     7
 10
-144.009638839504
 20
72.9472947808238
 30
0.0
 11
-148.5072109954977
 21
72.9472947808238
 31
0.0
  0
LINE
  5
3F6
  8
レイヤー_5
  6
DASHDOT
 62
     7
 10
-149.0067498408589
 20
72.9472947808238
 30
0.0
 11
-148.5072109954977
 21
72.9472947808238
 31
0.0
  0
LINE
  5
3F7
  8
レイヤー_5
  6
DASHDOT
 62
     7
 10
-28.58929381627577
 20
72.9472947808238
 30
0.0
 11
-29.08848815208847
 21
72.9472947808238
 31
0.0
  0
LINE
  5
3F8
  8
レイヤー_5
  6
DASHDOT
 62
     7
 10
-29.08848815208847
 20
72.9472947808238
 30
0.0
 11
-33.58537128898509
 21
72.9472947808238
 31
0.0
  0
LINE
  5
3F9
  8
レイヤー_5
  6
DASHDOT
 62
     7
 10
-148.5072109954977
 20
72.9472947808238
 30
0.0
 11
-148.5072109954977
 21
82.4409444095268
 31
0.0
  0
LINE
  5
3FA
  8
レイヤー_5
  6
DASHDOT
 62
     7
 10
-29.08848815208847
 20
72.9472947808238
 30
0.0
 11
-29.08848815208847
 21
82.4409444095268
 31
0.0
  0
LINE
  5
3FB
  8
レイヤー_5
  6
DASHDOT
 62
     7
 10
-149.0067498408589
 20
77.94371676308168
 30
0.0
 11
-148.5072109954977
 21
77.94371676308168
 31
0.0
  0
LINE
  5
3FC
  8
レイヤー_5
  6
DASHDOT
 62
     7
 10
-28.58929381627577
 20
77.94371676308168
 30
0.0
 11
-29.08848815208847
 21
77.94371676308168
 31
0.0
  0
LINE
  5
3FD
  8
レイヤー_5
  6
DASHDOT
 62
     7
 10
-148.5072109954977
 20
73.4471781357336
 30
0.0
 11
-149.0067498408589
 21
73.4471781357336
 31
0.0
  0
LINE
  5
3FE
  8
レイヤー_5
  6
DASHDOT
 62
     7
 10
-149.0067498408589
 20
77.44452242726899
 30
0.0
 11
-148.5072109954977
 21
77.44452242726899
 31
0.0
  0
LINE
  5
3FF
  8
レイヤー_5
  6
DASHDOT
 62
     7
 10
-28.58929381627577
 20
73.4471781357336
 30
0.0
 11
-29.08848815208847
 21
73.4471781357336
 31
0.0
  0
LINE
  5
400
  8
レイヤー_5
  6
DASHDOT
 62
     7
 10
-29.08848815208847
 20
77.44452242726899
 30
0.0
 11
-28.58929381627577
 21
77.44452242726899
 31
0.0
  0
ARC
  5
401
  8
レイヤー_5
  6
DASHDOT
 62
     7
 10
-88.80811166504951
 20
-340.5752502435912
 30
0.0
 40
410.4998183417913
 50
82.26953850728916
 51
97.72795875980407
  0
ARC
  5
402
  8
レイヤー_5
  6
DASHDOT
 62
     7
 10
-88.80876966419531
 20
-340.59109935195
 30
0.0
 40
411.0153786205422
 50
82.27886261541514
 51
97.71791961525234
  0
LINE
  5
403
  8
レイヤー_5
  6
DASHDOT
 62
     7
 10
-144.2600972812817
 20
82.940483254888
 30
0.0
 11
-144.2600972812817
 21
82.8405754858158
 31
0.0
  0
LINE
  5
404
  8
レイヤー_5
  6
DASHDOT
 62
     7
 10
-33.33560186630447
 20
82.8405754858158
 30
0.0
 11
-33.33560186630447
 21
82.940483254888
 31
0.0
  0
LINE
  5
405
  8
レイヤー_5
  6
DASHDOT
 62
     7
 10
74.98405685227532
 20
82.9335930639175
 30
0.0
 11
74.98405685227532
 21
83.4327873997303
 31
0.0
  0
POLYLINE
  5
406
  8
レイヤー_5
  6
DASHDOT
 62
     7
 66
     1
 10
0.0
 20
0.0
 30
0.0
  0
VERTEX
  5
407
  8
レイヤー_5
  6
DASHDOT
 62
     7
 10
69.48465019385593
 20
83.4327866078593
 30
0.0
 42
0.0115480831132397
  0
VERTEX
  5
408
  8
レイヤー_5
  6
DASHDOT
 62
     7
 10
69.23185671906533
 20
83.38929390703632
 30
0.0
 42
0.013412411339657
  0
VERTEX
  5
409
  8
レイヤー_5
  6
DASHDOT
 62
     7
 10
69.01632219385594
 20
83.3410286078593
 30
0.0
 42
0.0091292117690847
  0
VERTEX
  5
40A
  8
レイヤー_5
  6
DASHDOT
 62
     7
 10
68.8773425897278
 20
83.30325545147849
 30
0.0
 42
0.008541442192171
  0
VERTEX
  5
40B
  8
レイヤー_5
  6
DASHDOT
 62
     7
 10
68.73031819385592
 20
83.25765960785932
 30
0.0
 42
0.0044673724892509
  0
VERTEX
  5
40C
  8
レイヤー_5
  6
DASHDOT
 62
     7
 10
68.64179759753354
 20
83.22766114890146
 30
0.0
 42
0.0034490104303439
  0
VERTEX
  5
40D
  8
レイヤー_5
  6
DASHDOT
 62
     7
 10
68.52779419385594
 20
83.18700360785928
 30
0.0
 42
0.0023168991064153
  0
VERTEX
  5
40E
  8
レイヤー_5
  6
DASHDOT
 62
     7
 10
68.36424102182525
 20
83.1265397480015
 30
0.0
 42
-0.0020901861869917
  0
VERTEX
  5
40F
  8
レイヤー_5
  6
DASHDOT
 62
     7
 10
68.20620919385594
 20
83.06803560785929
 30
0.0
 42
-0.0044655556152484
  0
VERTEX
  5
410
  8
レイヤー_5
  6
DASHDOT
 62
     7
 10
67.99936422799793
 20
82.99453041957403
 30
0.0
 42
-0.0051110957181129
  0
VERTEX
  5
411
  8
レイヤー_5
  6
DASHDOT
 62
     7
 10
67.81688019385594
 20
82.93359260785928
 30
0.0
  0
SEQEND
  5
412
  8
レイヤー_5
  6
DASHDOT
 62
     7
  0
LINE
  5
413
  8
レイヤー_5
  6
DASHDOT
 62
     7
 10
59.00604850123513
 20
73.56396687268361
 30
0.0
 11
59.48973990736424
 21
73.43994343521459
 31
0.0
  0
LINE
  5
414
  8
レイヤー_5
  6
DASHDOT
 62
     7
 10
73.98394563290732
 20
73.93948228057579
 30
0.0
 11
73.98394563290732
 21
77.9371710816597
 31
0.0
  0
LINE
  5
415
  8
レイヤー_5
  6
DASHDOT
 62
     7
 10
59.48973990736424
 20
73.43994343521459
 30
0.0
 11
73.48475129709463
 21
73.43994343521459
 31
0.0
  0
POLYLINE
  5
416
  8
レイヤー_5
  6
DASHDOT
 62
     7
 66
     1
 10
0.0
 20
0.0
 30
0.0
  0
VERTEX
  5
417
  8
レイヤー_5
  6
DASHDOT
 62
     7
 10
73.48475119385593
 20
73.43994260785928
 30
0.0
 42
0.1986300809362263
  0
VERTEX
  5
418
  8
レイヤー_5
  6
DASHDOT
 62
     7
 10
73.83717868085013
 20
73.58569865418659
 30
0.0
 42
0.1991951189376285
  0
VERTEX
  5
419
  8
レイヤー_5
  6
DASHDOT
 62
     7
 10
73.98394519385592
 20
73.93948160794608
 30
0.0
  0
SEQEND
  5
41A
  8
レイヤー_5
  6
DASHDOT
 62
     7
  0
ARC
  5
41B
  8
レイヤー_5
  6
DASHDOT
 62
     7
 10
73.48475085804323
 20
77.93717060785929
 30
0.0
 40
0.4991943358126889
 50
0.0
 51
89.99996145656695
  0
LINE
  5
41C
  8
レイヤー_5
  6
DASHDOT
 62
     7
 10
73.48475129709463
 20
78.43636541747239
 30
0.0
 11
69.98797937956603
 21
78.43636541747239
 31
0.0
  0
ARC
  5
41D
  8
レイヤー_5
  6
DASHDOT
 62
     7
 10
71.9116301317644
 20
70.25555498790058
 30
0.0
 40
13.32289857432034
 50
107.8994074378322
 51
165.6215698251914
  0
POLYLINE
  5
41E
  8
レイヤー_5
  6
DASHDOT
 62
     7
 66
     1
 10
0.0
 20
0.0
 30
0.0
  0
VERTEX
  5
41F
  8
レイヤー_5
  6
DASHDOT
 62
     7
 10
69.59661619385592
 20
82.8674466078593
 30
0.0
 42
0.018684802776989
  0
VERTEX
  5
420
  8
レイヤー_5
  6
DASHDOT
 62
     7
 10
68.65835363989656
 20
82.68903551183365
 30
0.0
 42
0.0190548712159446
  0
VERTEX
  5
421
  8
レイヤー_5
  6
DASHDOT
 62
     7
 10
67.75412719385592
 20
82.44521860785929
 30
0.0
 42
0.0332657757266214
  0
VERTEX
  5
422
  8
レイヤー_5
  6
DASHDOT
 62
     7
 10
66.26012601180354
 20
81.86920265754611
 30
0.0
 42
0.0336593195836527
  0
VERTEX
  5
423
  8
レイヤー_5
  6
DASHDOT
 62
     7
 10
64.87279019385592
 20
81.1080696078593
 30
0.0
 42
0.0248200491200649
  0
VERTEX
  5
424
  8
レイヤー_5
  6
DASHDOT
 62
     7
 10
63.92059409420908
 20
80.43013638184252
 30
0.0
 42
0.0246474697868608
  0
VERTEX
  5
425
  8
レイヤー_5
  6
DASHDOT
 62
     7
 10
63.03391919385594
 20
79.6561756078593
 30
0.0
 42
0.0361211478218215
  0
VERTEX
  5
426
  8
レイヤー_5
  6
DASHDOT
 62
     7
 10
61.86416006307492
 20
78.35345237208006
 30
0.0
 42
0.0351442044107545
  0
VERTEX
  5
427
  8
レイヤー_5
  6
DASHDOT
 62
     7
 10
60.86424519385592
 20
76.85747060785928
 30
0.0
 42
0.034149715523988
  0
VERTEX
  5
428
  8
レイヤー_5
  6
DASHDOT
 62
     7
 10
60.07576430122468
 20
75.22797534940901
 30
0.0
 42
0.0328519438939098
  0
VERTEX
  5
429
  8
レイヤー_5
  6
DASHDOT
 62
     7
 10
59.48973919385593
 20
73.43994260785928
 30
0.0
  0
SEQEND
  5
42A
  8
レイヤー_5
  6
DASHDOT
 62
     7
  0
POLYLINE
  5
42B
  8
レイヤー_5
  6
DASHDOT
 62
     7
 66
     1
 10
0.0
 20
0.0
 30
0.0
  0
VERTEX
  5
42C
  8
レイヤー_5
  6
DASHDOT
 62
     7
 10
54.38169683138423
 20
67.4275627943565
 30
0.0
  0
VERTEX
  5
42D
  8
レイヤー_5
  6
DASHDOT
 62
     7
 10
54.72413932261813
 20
68.7663268999246
 30
0.0
  0
VERTEX
  5
42E
  8
レイヤー_5
  6
DASHDOT
 62
     7
 10
54.98906716543382
 20
69.8084682842127
 30
0.0
  0
VERTEX
  5
42F
  8
レイヤー_5
  6
DASHDOT
 62
     7
 10
55.17958094576812
 20
70.55295341857519
 30
0.0
  0
VERTEX
  5
430
  8
レイヤー_5
  6
DASHDOT
 62
     7
 10
55.29430262542692
 20
71.00012681256058
 30
0.0
  0
VERTEX
  5
431
  8
レイヤー_5
  6
DASHDOT
 62
     7
 10
55.33150965666763
 20
71.14929944707188
 30
0.0
  0
VERTEX
  5
432
  8
レイヤー_5
  6
DASHDOT
 62
     7
 10
55.29430262542692
 20
71.00012681256058
 30
0.0
  0
VERTEX
  5
433
  8
レイヤー_5
  6
DASHDOT
 62
     7
 10
55.17958094576812
 20
70.55295341857519
 30
0.0
  0
VERTEX
  5
434
  8
レイヤー_5
  6
DASHDOT
 62
     7
 10
54.98906716543382
 20
69.8084682842127
 30
0.0
  0
VERTEX
  5
435
  8
レイヤー_5
  6
DASHDOT
 62
     7
 10
54.72413932261813
 20
68.7663268999246
 30
0.0
  0
VERTEX
  5
436
  8
レイヤー_5
  6
DASHDOT
 62
     7
 10
54.38169683138423
 20
67.4275627943565
 30
0.0
  0
SEQEND
  5
437
  8
レイヤー_5
  6
DASHDOT
 62
     7
  0
LINE
  5
438
  8
レイヤー_5
  6
DASHDOT
 62
     7
 10
54.33277647549373
 20
67.4503004245592
 30
0.0
 11
54.38169683138423
 21
67.4275627943565
 31
0.0
  0
POLYLINE
  5
439
  8
レイヤー_5
  6
DASHDOT
 62
     7
 66
     1
 10
0.0
 20
0.0
 30
0.0
  0
VERTEX
  5
43A
  8
レイヤー_5
  6
DASHDOT
 62
     7
 10
53.84632819385592
 20
67.73555360785929
 30
0.0
 42
0.0343228453594481
  0
VERTEX
  5
43B
  8
レイヤー_5
  6
DASHDOT
 62
     7
 10
54.0782868769623
 20
67.57720526381846
 30
0.0
 42
0.0339087549784562
  0
VERTEX
  5
43C
  8
レイヤー_5
  6
DASHDOT
 62
     7
 10
54.33277619385593
 20
67.45029960785932
 30
0.0
  0
SEQEND
  5
43D
  8
レイヤー_5
  6
DASHDOT
 62
     7
  0
POLYLINE
  5
43E
  8
レイヤー_5
  6
DASHDOT
 62
     7
 66
     1
 10
0.0
 20
0.0
 30
0.0
  0
VERTEX
  5
43F
  8
レイヤー_5
  6
DASHDOT
 62
     7
 10
47.60726106918902
 20
74.74804619096389
 30
0.0
  0
VERTEX
  5
440
  8
レイヤー_5
  6
DASHDOT
 62
     7
 10
47.60278244505812
 20
74.7532138341918
 30
0.0
  0
VERTEX
  5
441
  8
レイヤー_5
  6
DASHDOT
 62
     7
 10
47.78433897713083
 20
74.54891967191651
 30
0.0
  0
VERTEX
  5
442
  8
レイヤー_5
  6
DASHDOT
 62
     7
 10
48.30558192404912
 20
73.95980834393879
 30
0.0
  0
VERTEX
  5
443
  8
レイヤー_5
  6
DASHDOT
 62
     7
 10
49.16272168077933
 20
72.99414807942318
 30
0.0
  0
VERTEX
  5
444
  8
レイヤー_5
  6
DASHDOT
 62
     7
 10
50.38917567352823
 20
71.6126647898381
 30
0.0
  0
VERTEX
  5
445
  8
レイヤー_5
  6
DASHDOT
 62
     7
 10
51.95531608112283
 20
69.8535990350695
 30
0.0
  0
VERTEX
  5
446
  8
レイヤー_5
  6
DASHDOT
 62
     7
 10
53.84632899297642
 20
67.7355543307379
 30
0.0
  0
SEQEND
  5
447
  8
レイヤー_5
  6
DASHDOT
 62
     7
  0
LINE
  5
448
  8
レイヤー_5
  6
DASHDOT
 62
     7
 10
54.33277647549373
 20
66.8994296564677
 30
0.0
 11
54.17189051633252
 21
66.97349920940059
 31
0.0
  0
POLYLINE
  5
449
  8
レイヤー_5
  6
DASHDOT
 62
     7
 66
     1
 10
0.0
 20
0.0
 30
0.0
  0
VERTEX
  5
44A
  8
レイヤー_5
  6
DASHDOT
 62
     7
 10
54.33277619385593
 20
66.8994296078593
 30
0.0
 42
0.0498359253969571
  0
VERTEX
  5
44B
  8
レイヤー_5
  6
DASHDOT
 62
     7
 10
54.91403341222328
 20
66.7378948128167
 30
0.0
 42
0.050254628783293
  0
VERTEX
  5
44C
  8
レイヤー_5
  6
DASHDOT
 62
     7
 10
55.51075119385594
 20
66.6954256078593
 30
0.0
 42
0.0722782148008448
  0
VERTEX
  5
44D
  8
レイヤー_5
  6
DASHDOT
 62
     7
 10
56.36323186603865
 20
66.84499174485015
 30
0.0
 42
0.072057767932177
  0
VERTEX
  5
44E
  8
レイヤー_5
  6
DASHDOT
 62
     7
 10
57.14075119385593
 20
67.23200860785929
 30
0.0
 42
0.0365337794817316
  0
VERTEX
  5
44F
  8
レイヤー_5
  6
DASHDOT
 62
     7
 10
57.48257185278906
 20
67.50772260910074
 30
0.0
 42
0.0366706410395403
  0
VERTEX
  5
450
  8
レイヤー_5
  6
DASHDOT
 62
     7
 10
57.77939419385594
 20
67.82910060785929
 30
0.0
 42
0.0379148179889383
  0
VERTEX
  5
451
  8
レイヤー_5
  6
DASHDOT
 62
     7
 10
58.03323330423071
 20
68.20285707450367
 30
0.0
 42
0.0375547571347045
  0
VERTEX
  5
452
  8
レイヤー_5
  6
DASHDOT
 62
     7
 10
58.22986819385592
 20
68.6143976078593
 30
0.0
 42
0.0154550225671014
  0
VERTEX
  5
453
  8
レイヤー_5
  6
DASHDOT
 62
     7
 10
58.29501889943434
 20
68.79984523301286
 30
0.0
 42
0.0169955081997755
  0
VERTEX
  5
454
  8
レイヤー_5
  6
DASHDOT
 62
     7
 10
58.34321119385594
 20
68.97199860785929
 30
0.0
  0
SEQEND
  5
455
  8
レイヤー_5
  6
DASHDOT
 62
     7
  0
POLYLINE
  5
456
  8
レイヤー_5
  6
DASHDOT
 62
     7
 66
     1
 10
0.0
 20
0.0
 30
0.0
  0
VERTEX
  5
457
  8
レイヤー_5
  6
DASHDOT
 62
     7
 10
54.17189051633252
 20
66.97349920940059
 30
0.0
  0
VERTEX
  5
458
  8
レイヤー_5
  6
DASHDOT
 62
     7
 10
54.51295496937223
 20
68.31260782451719
 30
0.0
  0
VERTEX
  5
459
  8
レイヤー_5
  6
DASHDOT
 62
     7
 10
54.77822732173652
 20
69.3550937183538
 30
0.0
  0
VERTEX
  5
45A
  8
レイヤー_5
  6
DASHDOT
 62
     7
 10
54.96874110207082
 20
70.0999233622648
 30
0.0
  0
VERTEX
  5
45B
  8
レイヤー_5
  6
DASHDOT
 62
     7
 10
55.08311827218112
 20
70.5474412657988
 30
0.0
  0
VERTEX
  5
45C
  8
レイヤー_5
  6
DASHDOT
 62
     7
 10
55.12032530342182
 20
70.69626939076159
 30
0.0
  0
VERTEX
  5
45D
  8
レイヤー_5
  6
DASHDOT
 62
     7
 10
55.08311827218112
 20
70.5474412657988
 30
0.0
  0
VERTEX
  5
45E
  8
レイヤー_5
  6
DASHDOT
 62
     7
 10
54.96874110207082
 20
70.0999233622648
 30
0.0
  0
VERTEX
  5
45F
  8
レイヤー_5
  6
DASHDOT
 62
     7
 10
54.77822732173652
 20
69.3550937183538
 30
0.0
  0
VERTEX
  5
460
  8
レイヤー_5
  6
DASHDOT
 62
     7
 10
54.51295496937223
 20
68.31260782451719
 30
0.0
  0
VERTEX
  5
461
  8
レイヤー_5
  6
DASHDOT
 62
     7
 10
54.17189051633252
 20
66.97349920940059
 30
0.0
  0
SEQEND
  5
462
  8
レイヤー_5
  6
DASHDOT
 62
     7
  0
ARC
  5
463
  8
レイヤー_5
  6
DASHDOT
 62
     7
 10
54.72536863796394
 20
68.21011193396771
 30
0.0
 40
1.354824365623162
 50
229.5471671535769
 51
245.8878583747858
  0
LINE
  5
464
  8
レイヤー_5
  6
DASHDOT
 62
     7
 10
53.84632899297642
 20
67.17917140986998
 30
0.0
 11
53.84632899297642
 21
67.7355543307379
 31
0.0
  0
LINE
  5
465
  8
レイヤー_5
  6
DASHDOT
 62
     7
 10
54.33277647549373
 20
67.4503004245592
 30
0.0
 11
54.33277647549373
 21
66.8994296564677
 31
0.0
  0
POLYLINE
  5
466
  8
レイヤー_5
  6
DASHDOT
 62
     7
 66
     1
 10
0.0
 20
0.0
 30
0.0
  0
VERTEX
  5
467
  8
レイヤー_5
  6
DASHDOT
 62
     7
 10
54.38169619385593
 20
67.4275626078593
 30
0.0
 42
0.0498748796134563
  0
VERTEX
  5
468
  8
レイヤー_5
  6
DASHDOT
 62
     7
 10
54.85612902295848
 20
67.26381589410175
 30
0.0
 42
0.0502918032145092
  0
VERTEX
  5
469
  8
レイヤー_5
  6
DASHDOT
 62
     7
 10
55.34938619385593
 20
67.19823760785928
 30
0.0
 42
0.0723238520145977
  0
VERTEX
  5
46A
  8
レイヤー_5
  6
DASHDOT
 62
     7
 10
56.06471256948105
 20
67.2792130016943
 30
0.0
 42
0.0720810477877863
  0
VERTEX
  5
46B
  8
レイヤー_5
  6
DASHDOT
 62
     7
 10
56.72973419385592
 20
67.5611876078593
 30
0.0
 42
0.0746022322915209
  0
VERTEX
  5
46C
  8
レイヤー_5
  6
DASHDOT
 62
     7
 10
57.29747758192515
 20
68.0334748581021
 30
0.0
 42
0.0743336358140625
  0
VERTEX
  5
46D
  8
レイヤー_5
  6
DASHDOT
 62
     7
 10
57.70345719385593
 20
68.65367160785928
 30
0.0
 42
0.0236788599144651
  0
VERTEX
  5
46E
  8
レイヤー_5
  6
DASHDOT
 62
     7
 10
57.79345107817177
 20
68.875230787997
 30
0.0
 42
0.0245799802918656
  0
VERTEX
  5
46F
  8
レイヤー_5
  6
DASHDOT
 62
     7
 10
57.85917619385593
 20
69.09602160785929
 30
0.0
  0
SEQEND
  5
470
  8
レイヤー_5
  6
DASHDOT
 62
     7
  0
LINE
  5
471
  8
レイヤー_5
  6
DASHDOT
 62
     7
 10
58.34321212987304
 20
68.97199910039399
 30
0.0
 11
59.48973990736424
 21
73.43994343521459
 31
0.0
  0
LINE
  5
472
  8
レイヤー_5
  6
DASHDOT
 62
     7
 10
57.85917621419541
 20
69.096022537863
 30
0.0
 11
59.00604850123513
 21
73.56396687268361
 31
0.0
  0
POLYLINE
  5
473
  8
レイヤー_5
  6
DASHDOT
 62
     7
 66
     1
 10
0.0
 20
0.0
 30
0.0
  0
VERTEX
  5
474
  8
レイヤー_5
  6
DASHDOT
 62
     7
 10
47.60657205009193
 20
74.19751993242099
 30
0.0
  0
VERTEX
  5
475
  8
レイヤー_5
  6
DASHDOT
 62
     7
 10
47.60278244505812
 20
74.20199855655179
 30
0.0
  0
VERTEX
  5
476
  8
レイヤー_5
  6
DASHDOT
 62
     7
 10
47.78296093893672
 20
73.99804890382498
 30
0.0
  0
VERTEX
  5
477
  8
レイヤー_5
  6
DASHDOT
 62
     7
 10
48.30420388585503
 20
73.4092820853958
 30
0.0
  0
VERTEX
  5
478
  8
レイヤー_5
  6
DASHDOT
 62
     7
 10
49.16134364258522
 20
72.44258829223469
 30
0.0
  0
VERTEX
  5
479
  8
レイヤー_5
  6
DASHDOT
 62
     7
 10
50.38779763533412
 20
71.0604159835525
 30
0.0
  0
VERTEX
  5
47A
  8
レイヤー_5
  6
DASHDOT
 62
     7
 10
51.95428255247722
 20
69.29928317149279
 30
0.0
  0
VERTEX
  5
47B
  8
レイヤー_5
  6
DASHDOT
 62
     7
 10
53.84632899297642
 20
67.17917140986998
 30
0.0
  0
SEQEND
  5
47C
  8
レイヤー_5
  6
DASHDOT
 62
     7
  0
LINE
  5
47D
  8
レイヤー_5
  6
DASHDOT
 62
     7
 10
69.98797937956603
 20
78.43636541747239
 30
0.0
 11
70.48717371537872
 21
78.43636541747239
 31
0.0
  0
LINE
  5
47E
  8
レイヤー_5
  6
DASHDOT
 62
     7
 10
55.33150965666763
 20
71.14929944707188
 30
0.0
 11
47.60278244505812
 21
74.7532138341918
 31
0.0
  0
POLYLINE
  5
47F
  8
レイヤー_5
  6
DASHDOT
 62
     7
 66
     1
 10
0.0
 20
0.0
 30
0.0
  0
VERTEX
  5
480
  8
レイヤー_5
  6
DASHDOT
 62
     7
 10
55.13341619385592
 20
70.6907566078593
 30
0.0
 42
0.0498586595530118
  0
VERTEX
  5
481
  8
レイヤー_5
  6
DASHDOT
 62
     7
 10
55.70114996572796
 20
70.49485632966886
 30
0.0
 42
0.0502769506496693
  0
VERTEX
  5
482
  8
レイヤー_5
  6
DASHDOT
 62
     7
 10
56.29151219385592
 20
70.41637660785929
 30
0.0
 42
0.0723106177265419
  0
VERTEX
  5
483
  8
レイヤー_5
  6
DASHDOT
 62
     7
 10
57.1477715218778
 20
70.51326862238145
 30
0.0
 42
0.0720655642570889
  0
VERTEX
  5
484
  8
レイヤー_5
  6
DASHDOT
 62
     7
 10
57.94386419385593
 20
70.85072460785929
 30
0.0
 42
0.0365406991734273
  0
VERTEX
  5
485
  8
レイヤー_5
  6
DASHDOT
 62
     7
 10
58.30030746683737
 20
71.10404436966684
 30
0.0
 42
0.0366702730294833
  0
VERTEX
  5
486
  8
レイヤー_5
  6
DASHDOT
 62
     7
 10
58.61476919385593
 20
71.40546060785928
 30
0.0
 42
0.0379161412320505
  0
VERTEX
  5
487
  8
レイヤー_5
  6
DASHDOT
 62
     7
 10
58.88971143020292
 20
71.7615718682051
 30
0.0
 42
0.0375531929599673
  0
VERTEX
  5
488
  8
レイヤー_5
  6
DASHDOT
 62
     7
 10
59.11009019385592
 20
72.15871160785929
 30
0.0
 42
0.0231515392286392
  0
VERTEX
  5
489
  8
レイヤー_5
  6
DASHDOT
 62
     7
 10
59.21105617023652
 20
72.40547740707274
 30
0.0
 42
0.0224308222259659
  0
VERTEX
  5
48A
  8
レイヤー_5
  6
DASHDOT
 62
     7
 10
59.29164619385593
 20
72.66858560785928
 30
0.0
  0
SEQEND
  5
48B
  8
レイヤー_5
  6
DASHDOT
 62
     7
  0
POLYLINE
  5
48C
  8
レイヤー_5
  6
DASHDOT
 62
     7
 66
     1
 10
0.0
 20
0.0
 30
0.0
  0
VERTEX
  5
48D
  8
レイヤー_5
  6
DASHDOT
 62
     7
 10
55.34425619385593
 20
71.14378660785928
 30
0.0
 42
0.0498261351158129
  0
VERTEX
  5
48E
  8
レイヤー_5
  6
DASHDOT
 62
     7
 10
55.81769670101379
 20
70.98090404219079
 30
0.0
 42
0.0502734690978435
  0
VERTEX
  5
48F
  8
レイヤー_5
  6
DASHDOT
 62
     7
 10
56.30972219385593
 20
70.91591560785929
 30
0.0
 42
0.0723181726501931
  0
VERTEX
  5
490
  8
レイヤー_5
  6
DASHDOT
 62
     7
 10
57.02301621485326
 20
70.99724011017372
 30
0.0
 42
0.0720932445204192
  0
VERTEX
  5
491
  8
レイヤー_5
  6
DASHDOT
 62
     7
 10
57.68614019385593
 20
71.2790476078593
 30
0.0
 42
0.0745604235430617
  0
VERTEX
  5
492
  8
レイヤー_5
  6
DASHDOT
 62
     7
 10
58.25204272537478
 20
71.75052688755227
 30
0.0
 42
0.0742350300837574
  0
VERTEX
  5
493
  8
レイヤー_5
  6
DASHDOT
 62
     7
 10
58.65706019385594
 20
72.36989660785929
 30
0.0
 42
0.0230607417897486
  0
VERTEX
  5
494
  8
レイヤー_5
  6
DASHDOT
 62
     7
 10
58.74158184981896
 20
72.5768477207487
 30
0.0
 42
0.0227748005996004
  0
VERTEX
  5
495
  8
レイヤー_5
  6
DASHDOT
 62
     7
 10
58.80761019385589
 20
72.7932986078593
 30
0.0
  0
SEQEND
  5
496
  8
レイヤー_5
  6
DASHDOT
 62
     7
  0
LINE
  5
497
  8
レイヤー_5
  6
DASHDOT
 62
     7
 10
55.12032530342182
 20
70.69626939076159
 30
0.0
 11
47.60278244505812
 21
74.20234306610038
 31
0.0
  0
LINE
  5
498
  8
レイヤー_5
  6
DASHDOT
 62
     7
 10
47.60278244505812
 20
74.74804619096389
 30
0.0
 11
47.60278244505812
 21
74.19751993242099
 31
0.0
  0
LINE
  5
499
  8
レイヤー_5
  6
DASHDOT
 62
     7
 10
68.88933842931984
 20
69.43364189541748
 30
0.0
 11
68.88933842931984
 21
-44.56663476879075
 31
0.0
  0
LINE
  5
49A
  8
レイヤー_5
  6
CONTINUOUS
 62
     7
 10
91.50294519449982
 20
64.9305575866475
 30
0.0
 11
91.50294519449982
 21
64.4306742317377
 31
0.0
  0
LINE
  5
49B
  8
レイヤー_5
  6
CONTINUOUS
 62
     7
 10
91.00340634913853
 20
64.4306742317377
 30
0.0
 11
91.00340634913853
 21
64.9305575866475
 31
0.0
  0
LINE
  5
49C
  8
レイヤー_5
  6
CONTINUOUS
 62
     7
 10
91.00340634913853
 20
64.9305575866475
 30
0.0
 11
91.50294519449982
 21
64.9305575866475
 31
0.0
  0
LINE
  5
49D
  8
レイヤー_5
  6
CONTINUOUS
 62
     7
 10
91.50294519449982
 20
64.4306742317377
 30
0.0
 11
91.00340634913853
 21
64.4306742317377
 31
0.0
  0
ARC
  5
49E
  8
レイヤー_5
  6
CONTINUOUS
 62
     7
 10
107.8318207094931
 20
64.43024030599074
 30
0.0
 40
3.497027051432651
 50
201.2362284028585
 51
270.0087257920862
  0
POLYLINE
  5
49F
  8
レイヤー_5
  6
CONTINUOUS
 62
     7
 66
     1
 10
0.0
 20
0.0
 30
0.0
  0
VERTEX
  5
4A0
  8
レイヤー_5
  6
CONTINUOUS
 62
     7
 10
104.5722591938559
 20
63.16356760785931
 30
0.0
 42
0.0498451346467692
  0
VERTEX
  5
4A1
  8
レイヤー_5
  6
CONTINUOUS
 62
     7
 10
103.9653068632734
 20
64.35808831445985
 30
0.0
 42
0.0502767876140359
  0
VERTEX
  5
4A2
  8
レイヤー_5
  6
CONTINUOUS
 62
     7
 10
103.1401971938559
 20
65.39914360785929
 30
0.0
 42
0.0723156599383516
  0
VERTEX
  5
4A3
  8
レイヤー_5
  6
CONTINUOUS
 62
     7
 10
101.616946144138
 20
66.57101627400448
 30
0.0
 42
0.0720643475817876
  0
VERTEX
  5
4A4
  8
レイヤー_5
  6
CONTINUOUS
 62
     7
 10
99.81731419385592
 20
67.26384360785929
 30
0.0
 42
0.0365307677976879
  0
VERTEX
  5
4A5
  8
レイヤー_5
  6
CONTINUOUS
 62
     7
 10
98.85317975262178
 20
67.41013454190343
 30
0.0
 42
0.036657065512269
  0
VERTEX
  5
4A6
  8
レイヤー_5
  6
CONTINUOUS
 62
     7
 10
97.88169719385594
 20
67.41428660785928
 30
0.0
 42
0.0378949986376585
  0
VERTEX
  5
4A7
  8
レイヤー_5
  6
CONTINUOUS
 62
     7
 10
96.888910677194
 20
67.26955846682355
 30
0.0
 42
0.0375330649659784
  0
VERTEX
  5
4A8
  8
レイヤー_5
  6
CONTINUOUS
 62
     7
 10
95.91990119385592
 20
66.97453260785929
 30
0.0
 42
0.0643000569118822
  0
VERTEX
  5
4A9
  8
レイヤー_5
  6
CONTINUOUS
 62
     7
 10
94.41511217096233
 20
66.15422459137937
 30
0.0
 42
0.0643593425556206
  0
VERTEX
  5
4AA
  8
レイヤー_5
  6
CONTINUOUS
 62
     7
 10
93.16933719385592
 20
64.97947760785928
 30
0.0
  0
SEQEND
  5
4AB
  8
レイヤー_5
  6
CONTINUOUS
 62
     7
  0
ARC
  5
4AC
  8
レイヤー_5
  6
CONTINUOUS
 62
     7
 10
92.00989838273809
 20
65.92983062895149
 30
0.0
 40
1.499156488843814
 50
269.9799676065145
 51
320.6597052346825
  0
POLYLINE
  5
4AD
  8
レイヤー_5
  6
CONTINUOUS
 62
     7
 66
     1
 10
0.0
 20
0.0
 30
0.0
  0
VERTEX
  5
4AE
  8
レイヤー_5
  6
CONTINUOUS
 62
     7
 10
92.00937419385592
 20
64.9305566078593
 30
0.0
 42
0.1108939940685588
  0
VERTEX
  5
4AF
  8
レイヤー_5
  6
CONTINUOUS
 62
     7
 10
92.43778491231204
 20
65.02675596871819
 30
0.0
 42
0.1114654257557619
  0
VERTEX
  5
4B0
  8
レイヤー_5
  6
CONTINUOUS
 62
     7
 10
92.78210819385593
 20
65.29608160785929
 30
0.0
  0
SEQEND
  5
4B1
  8
レイヤー_5
  6
CONTINUOUS
 62
     7
  0
POLYLINE
  5
4B2
  8
レイヤー_5
  6
CONTINUOUS
 62
     7
 66
     1
 10
0.0
 20
0.0
 30
0.0
  0
VERTEX
  5
4B3
  8
レイヤー_5
  6
CONTINUOUS
 62
     7
 10
105.0383801938559
 20
63.3451246078593
 30
0.0
 42
0.0498389360691063
  0
VERTEX
  5
4B4
  8
レイヤー_5
  6
CONTINUOUS
 62
     7
 10
104.3860902872699
 20
64.62875618228003
 30
0.0
 42
0.0502716165782213
  0
VERTEX
  5
4B5
  8
レイヤー_5
  6
CONTINUOUS
 62
     7
 10
103.4993541938559
 20
65.74753460785931
 30
0.0
 42
0.0723148559897054
  0
VERTEX
  5
4B6
  8
レイヤー_5
  6
CONTINUOUS
 62
     7
 10
101.8622912049984
 20
67.00695780402779
 30
0.0
 42
0.0720722248597249
  0
VERTEX
  5
4B7
  8
レイヤー_5
  6
CONTINUOUS
 62
     7
 10
99.92804219385592
 20
67.75157260785929
 30
0.0
 42
0.0365350503970941
  0
VERTEX
  5
4B8
  8
レイヤー_5
  6
CONTINUOUS
 62
     7
 10
98.89172185166218
 20
67.90877370055162
 30
0.0
 42
0.0366581447219837
  0
VERTEX
  5
4B9
  8
レイヤー_5
  6
CONTINUOUS
 62
     7
 10
97.84742519385593
 20
67.91318360785928
 30
0.0
 42
0.0378945172400909
  0
VERTEX
  5
4BA
  8
レイヤー_5
  6
CONTINUOUS
 62
     7
 10
96.78015234013891
 20
67.75753917294975
 30
0.0
 42
0.0375244756929047
  0
VERTEX
  5
4BB
  8
レイヤー_5
  6
CONTINUOUS
 62
     7
 10
95.73834519385592
 20
67.44030960785929
 30
0.0
 42
0.0643411817825797
  0
VERTEX
  5
4BC
  8
レイヤー_5
  6
CONTINUOUS
 62
     7
 10
94.12334592495013
 20
66.56017272388144
 30
0.0
 42
0.0642442510139186
  0
VERTEX
  5
4BD
  8
レイヤー_5
  6
CONTINUOUS
 62
     7
 10
92.78210819385593
 20
65.29608160785929
 30
0.0
  0
SEQEND
  5
4BE
  8
レイヤー_5
  6
CONTINUOUS
 62
     7
  0
ARC
  5
4BF
  8
レイヤー_5
  6
CONTINUOUS
 62
     7
 10
107.832674567808
 20
64.42986193041756
 30
0.0
 40
2.997454316711154
 50
201.2160779327621
 51
269.9938587397885
  0
LINE
  5
4C0
  8
レイヤー_5
  6
CONTINUOUS
 62
     7
 10
112.9879386787118
 20
61.43240763092479
 30
0.0
 11
107.8323532850355
 21
61.43240763092479
 31
0.0
  0
LINE
  5
4C1
  8
レイヤー_5
  6
CONTINUOUS
 62
     7
 10
112.9879386787118
 20
60.9332132951121
 30
0.0
 11
112.9879386787118
 21
61.43240763092479
 31
0.0
  0
LINE
  5
4C2
  8
レイヤー_5
  6
CONTINUOUS
 62
     7
 10
107.8323532850355
 20
60.9332132951121
 30
0.0
 11
112.9879386787118
 21
60.9332132951121
 31
0.0
  0
LINE
  5
4C3
  8
レイヤー_5
  6
CONTINUOUS
 62
     7
 10
92.00937423083154
 20
64.9305575866475
 30
0.0
 11
91.50294519449982
 21
64.9305575866475
 31
0.0
  0
LINE
  5
4C4
  8
レイヤー_5
  6
CONTINUOUS
 62
     7
 10
91.50294519449982
 20
64.4306742317377
 30
0.0
 11
92.00937423083154
 21
64.4306742317377
 31
0.0
  0
LINE
  5
4C5
  8
レイヤー_5
  6
CONTINUOUS
 62
     7
 10
113.4874775240731
 20
61.43240763092479
 30
0.0
 11
113.4874775240731
 21
60.9332132951121
 31
0.0
  0
LINE
  5
4C6
  8
レイヤー_5
  6
CONTINUOUS
 62
     7
 10
112.9879386787118
 20
61.43240763092479
 30
0.0
 11
113.4874775240731
 21
61.43240763092479
 31
0.0
  0
LINE
  5
4C7
  8
レイヤー_5
  6
CONTINUOUS
 62
     7
 10
113.4874775240731
 20
60.9332132951121
 30
0.0
 11
112.9879386787118
 21
60.9332132951121
 31
0.0
  0
LINE
  5
4C8
  8
レイヤー_5
  6
CONTINUOUS
 62
     7
 10
105.0383808464978
 20
-17.3000820412324
 30
0.0
 11
105.0383808464978
 21
-8.646346691833301
 31
0.0
  0
POLYLINE
  5
4C9
  8
レイヤー_5
  6
CONTINUOUS
 62
     7
 66
     1
 10
0.0
 20
0.0
 30
0.0
  0
VERTEX
  5
4CA
  8
レイヤー_5
  6
CONTINUOUS
 62
     7
 10
105.0383808464978
 20
-17.3000820412324
 30
0.0
  0
VERTEX
  5
4CB
  8
レイヤー_5
  6
CONTINUOUS
 62
     7
 10
104.537119453394
 20
-17.81856891176251
 30
0.0
  0
VERTEX
  5
4CC
  8
レイヤー_5
  6
CONTINUOUS
 62
     7
 10
103.8760056297746
 20
-18.28985797414471
 30
0.0
  0
VERTEX
  5
4CD
  8
レイヤー_5
  6
CONTINUOUS
 62
     7
 10
103.0743319103569
 20
-18.7029249228261
 30
0.0
  0
VERTEX
  5
4CE
  8
レイヤー_5
  6
CONTINUOUS
 62
     7
 10
102.1503573012129
 20
-19.04502290451141
 30
0.0
  0
VERTEX
  5
4CF
  8
レイヤー_5
  6
CONTINUOUS
 62
     7
 10
101.1281974707393
 20
-19.3102952568757
 30
0.0
  0
VERTEX
  5
4D0
  8
レイヤー_5
  6
CONTINUOUS
 62
     7
 10
100.0357576923665
 20
-19.49047375075421
 30
0.0
  0
VERTEX
  5
4D1
  8
レイヤー_5
  6
CONTINUOUS
 62
     7
 10
98.89922069178262
 20
-19.58176878111331
 30
0.0
  0
VERTEX
  5
4D2
  8
レイヤー_5
  6
CONTINUOUS
 62
     7
 10
97.74752527106362
 20
-19.5807352524678
 30
0.0
  0
VERTEX
  5
4D3
  8
レイヤー_5
  6
CONTINUOUS
 62
     7
 10
96.61236630867383
 20
-19.4866841457205
 30
0.0
  0
VERTEX
  5
4D4
  8
レイヤー_5
  6
CONTINUOUS
 62
     7
 10
95.52096005894664
 20
-19.30374957545371
 30
0.0
  0
VERTEX
  5
4D5
  8
レイヤー_5
  6
CONTINUOUS
 62
     7
 10
94.50155630486124
 20
-19.0360656562498
 30
0.0
  0
VERTEX
  5
4D6
  8
レイヤー_5
  6
CONTINUOUS
 62
     7
 10
93.58137130075103
 20
-18.69121159817631
 30
0.0
  0
VERTEX
  5
4D7
  8
レイヤー_5
  6
CONTINUOUS
 62
     7
 10
92.78210914817303
 20
-18.2767666113007
 30
0.0
  0
SEQEND
  5
4D8
  8
レイヤー_5
  6
CONTINUOUS
 62
     7
  0
LINE
  5
4D9
  8
レイヤー_5
  6
CONTINUOUS
 62
     7
 10
91.50294519449982
 20
-9.189293740308713
 30
0.0
 11
92.00937423083154
 21
-9.189293740308713
 31
0.0
  0
POLYLINE
  5
4DA
  8
レイヤー_5
  6
CONTINUOUS
 62
     7
 66
     1
 10
0.0
 20
0.0
 30
0.0
  0
VERTEX
  5
4DB
  8
レイヤー_5
  6
CONTINUOUS
 62
     7
 10
93.16933719385592
 20
-9.4635233921407
 30
0.0
 42
0.0657919041013359
  0
VERTEX
  5
4DC
  8
レイヤー_5
  6
CONTINUOUS
 62
     7
 10
92.60922600171865
 20
-9.250436413165744
 30
0.0
 42
0.0653711657794791
  0
VERTEX
  5
4DD
  8
レイヤー_5
  6
CONTINUOUS
 62
     7
 10
92.00937419385592
 20
-9.189294392140711
 30
0.0
  0
SEQEND
  5
4DE
  8
レイヤー_5
  6
CONTINUOUS
 62
     7
  0
POLYLINE
  5
4DF
  8
レイヤー_5
  6
CONTINUOUS
 62
     7
 66
     1
 10
0.0
 20
0.0
 30
0.0
  0
VERTEX
  5
4E0
  8
レイヤー_5
  6
CONTINUOUS
 62
     7
 10
93.16933788071513
 20
-9.4635233409346
 30
0.0
  0
VERTEX
  5
4E1
  8
レイヤー_5
  6
CONTINUOUS
 62
     7
 10
93.97893531974883
 20
-9.877968327810109
 30
0.0
  0
VERTEX
  5
4E2
  8
レイヤー_5
  6
CONTINUOUS
 62
     7
 10
94.92116893496474
 20
-10.21765474265581
 30
0.0
  0
VERTEX
  5
4E3
  8
レイヤー_5
  6
CONTINUOUS
 62
     7
 10
95.96503286699532
 20
-10.46983573217611
 30
0.0
  0
VERTEX
  5
4E4
  8
レイヤー_5
  6
CONTINUOUS
 62
     7
 10
97.08055478511922
 20
-10.6283101244976
 30
0.0
  0
VERTEX
  5
4E5
  8
レイヤー_5
  6
CONTINUOUS
 62
     7
 10
98.23500628222654
 20
-10.68722125729531
 30
0.0
  0
VERTEX
  5
4E6
  8
レイヤー_5
  6
CONTINUOUS
 62
     7
 10
99.39221385572192
 20
-10.64622462102081
 30
0.0
  0
VERTEX
  5
4E7
  8
レイヤー_5
  6
CONTINUOUS
 62
     7
 10
100.517726550753
 20
-10.50600923477121
 30
0.0
  0
VERTEX
  5
4E8
  8
レイヤー_5
  6
CONTINUOUS
 62
     7
 10
101.5774379220158
 20
-10.2703647035801
 30
0.0
  0
VERTEX
  5
4E9
  8
レイヤー_5
  6
CONTINUOUS
 62
     7
 10
102.5403421101432
 20
-9.946181218418104
 30
0.0
  0
VERTEX
  5
4EA
  8
レイヤー_5
  6
CONTINUOUS
 62
     7
 10
103.3754332557677
 20
-9.544483084837907
 30
0.0
  0
VERTEX
  5
4EB
  8
レイヤー_5
  6
CONTINUOUS
 62
     7
 10
104.0599737286869
 20
-9.075950098844004
 30
0.0
  0
VERTEX
  5
4EC
  8
レイヤー_5
  6
CONTINUOUS
 62
     7
 10
104.5722594273435
 20
-8.554707151925712
 30
0.0
  0
SEQEND
  5
4ED
  8
レイヤー_5
  6
CONTINUOUS
 62
     7
  0
ARC
  5
4EE
  8
レイヤー_5
  6
CONTINUOUS
 62
     7
 10
107.4810855016519
 20
-11.73813901700416
 30
0.0
 40
4.312250870505189
 50
85.32761743368563
 51
132.4191653625531
  0
LINE
  5
4EF
  8
レイヤー_5
  6
CONTINUOUS
 62
     7
 10
112.9879386787118
 20
-7.440218762447401
 30
0.0
 11
107.8323532850355
 21
-7.440218762447401
 31
0.0
  0
LINE
  5
4F0
  8
レイヤー_5
  6
CONTINUOUS
 62
     7
 10
92.00937423083154
 20
-18.0941765505825
 30
0.0
 11
92.00937423083154
 21
-9.4390631629893
 31
0.0
  0
ARC
  5
4F1
  8
レイヤー_5
  6
CONTINUOUS
 62
     7
 10
92.0598257320609
 20
-19.60709326498267
 30
0.0
 40
1.513757688233999
 50
61.50083234267742
 51
91.90994472719082
  0
LINE
  5
4F2
  8
レイヤー_5
  6
CONTINUOUS
 62
     7
 10
91.00340634913853
 20
-9.871422646388211
 30
0.0
 11
91.00340634913853
 21
-9.621653223707511
 31
0.0
  0
POLYLINE
  5
4F3
  8
レイヤー_5
  6
CONTINUOUS
 62
     7
 66
     1
 10
0.0
 20
0.0
 30
0.0
  0
VERTEX
  5
4F4
  8
レイヤー_5
  6
CONTINUOUS
 62
     7
 10
91.50294519385592
 20
-9.18929439214071
 30
0.0
 42
0.1981941332957561
  0
VERTEX
  5
4F5
  8
レイヤー_5
  6
CONTINUOUS
 62
     7
 10
91.16410154882068
 20
-9.302302324747714
 30
0.0
 42
0.1982216793420739
  0
VERTEX
  5
4F6
  8
レイヤー_5
  6
CONTINUOUS
 62
     7
 10
91.00340619385592
 20
-9.6216533921407
 30
0.0
  0
SEQEND
  5
4F7
  8
レイヤー_5
  6
CONTINUOUS
 62
     7
  0
LINE
  5
4F8
  8
レイヤー_5
  6
CONTINUOUS
 62
     7
 10
92.00937423083154
 20
-18.0941765505825
 30
0.0
 11
91.50294519449982
 21
-18.0941765505825
 31
0.0
  0
POLYLINE
  5
4F9
  8
レイヤー_5
  6
CONTINUOUS
 62
     7
 66
     1
 10
0.0
 20
0.0
 30
0.0
  0
VERTEX
  5
4FA
  8
レイヤー_5
  6
CONTINUOUS
 62
     7
 10
91.00340619385592
 20
-17.6604393921407
 30
0.0
 42
0.1977050926213802
  0
VERTEX
  5
4FB
  8
レイヤー_5
  6
CONTINUOUS
 62
     7
 10
91.16362153941283
 20
-17.97962837994086
 30
0.0
 42
0.1973279526109126
  0
VERTEX
  5
4FC
  8
レイヤー_5
  6
CONTINUOUS
 62
     7
 10
91.50294519385592
 20
-18.0941773921407
 30
0.0
  0
SEQEND
  5
4FD
  8
レイヤー_5
  6
CONTINUOUS
 62
     7
  0
LINE
  5
4FE
  8
レイヤー_5
  6
CONTINUOUS
 62
     7
 10
91.00340634913853
 20
-17.6604390289895
 30
0.0
 11
91.00340634913853
 21
-9.871422646388211
 31
0.0
  0
LINE
  5
4FF
  8
レイヤー_5
  6
CONTINUOUS
 62
     7
 10
107.8323532850355
 20
-7.689988185128001
 30
0.0
 11
107.8323532850355
 21
-16.343723534527
 31
0.0
  0
ARC
  5
500
  8
レイヤー_5
  6
CONTINUOUS
 62
     7
 10
107.5313616053127
 20
-20.02381767106382
 30
0.0
 40
3.692382543160268
 50
85.32423590158673
 51
132.4672444670506
  0
LINE
  5
501
  8
レイヤー_5
  6
CONTINUOUS
 62
     7
 10
113.4874775240731
 20
-15.9113640511282
 30
0.0
 11
113.4874775240731
 21
-8.1223476685268
 31
0.0
  0
POLYLINE
  5
502
  8
レイヤー_5
  6
CONTINUOUS
 62
     7
 66
     1
 10
0.0
 20
0.0
 30
0.0
  0
VERTEX
  5
503
  8
レイヤー_5
  6
CONTINUOUS
 62
     7
 10
112.9879381938559
 20
-16.3437243921407
 30
0.0
 42
0.1978545202778436
  0
VERTEX
  5
504
  8
レイヤー_5
  6
CONTINUOUS
 62
     7
 10
113.326231873724
 20
-16.23121521615701
 30
0.0
 42
0.1986105491920345
  0
VERTEX
  5
505
  8
レイヤー_5
  6
CONTINUOUS
 62
     7
 10
113.4874771938559
 20
-15.91136439214071
 30
0.0
  0
SEQEND
  5
506
  8
レイヤー_5
  6
CONTINUOUS
 62
     7
  0
LINE
  5
507
  8
レイヤー_5
  6
CONTINUOUS
 62
     7
 10
112.9879386787118
 20
-16.343723534527
 30
0.0
 11
107.8323532850355
 21
-16.343723534527
 31
0.0
  0
POLYLINE
  5
508
  8
レイヤー_5
  6
CONTINUOUS
 62
     7
 66
     1
 10
0.0
 20
0.0
 30
0.0
  0
VERTEX
  5
509
  8
レイヤー_5
  6
CONTINUOUS
 62
     7
 10
113.4874771938559
 20
-7.87257839214071
 30
0.0
 42
0.1982046209217508
  0
VERTEX
  5
50A
  8
レイヤー_5
  6
CONTINUOUS
 62
     7
 10
113.3267851454384
 20
-7.553205865657375
 30
0.0
 42
0.1982606423342134
  0
VERTEX
  5
50B
  8
レイヤー_5
  6
CONTINUOUS
 62
     7
 10
112.9879381938559
 20
-7.440219392140703
 30
0.0
  0
SEQEND
  5
50C
  8
レイヤー_5
  6
CONTINUOUS
 62
     7
  0
LINE
  5
50D
  8
レイヤー_5
  6
CONTINUOUS
 62
     7
 10
113.4874775240731
 20
-7.872578245846199
 30
0.0
 11
113.4874775240731
 21
-8.1223476685268
 31
0.0
  0
LINE
  5
50E
  8
レイヤー_5
  6
CONTINUOUS
 62
     7
 10
98.62499109115682
 20
68.40941500765268
 30
0.0
 11
98.49786706775102
 21
67.9267571301693
 31
0.0
  0
LINE
  5
50F
  8
レイヤー_5
  6
CONTINUOUS
 62
     7
 10
96.57481476788463
 20
68.4324971474039
 30
0.0
 11
96.70228330083883
 21
68.91653306308149
 31
0.0
  0
LINE
  5
510
  8
レイヤー_5
  6
CONTINUOUS
 62
     7
 10
98.62499109115682
 20
68.40941500765268
 30
0.0
 11
96.70228330083883
 21
68.91653306308149
 31
0.0
  0
LINE
  5
511
  8
レイヤー_5
  6
CONTINUOUS
 62
     7
 10
98.49786706775102
 20
67.9267571301693
 30
0.0
 11
96.57481476788463
 21
68.4324971474039
 31
0.0
  0
LINE
  5
512
  8
レイヤー_5
  6
CONTINUOUS
 62
     7
 10
96.57481476788463
 20
-15.51758963716411
 30
0.0
 11
96.70228330083883
 21
-15.75943534022871
 31
0.0
  0
LINE
  5
513
  8
レイヤー_5
  6
CONTINUOUS
 62
     7
 10
96.57481476788463
 20
-15.51758963716411
 30
0.0
 11
98.49786706775102
 21
-13.96522961151051
 31
0.0
  0
LINE
  5
514
  8
レイヤー_5
  6
CONTINUOUS
 62
     7
 10
98.62499109115682
 20
-14.2074198241236
 30
0.0
 11
98.49786706775102
 21
-13.96522961151051
 31
0.0
  0
LINE
  5
515
  8
レイヤー_5
  6
CONTINUOUS
 62
     7
 10
98.62499109115682
 20
-16.80329927225941
 30
0.0
 11
98.62499109115682
 21
-14.2074198241236
 31
0.0
  0
LINE
  5
516
  8
レイヤー_5
  6
CONTINUOUS
 62
     7
 10
98.62499109115682
 20
-16.80329927225941
 30
0.0
 11
96.70228330083883
 21
-15.75943534022871
 31
0.0
  0
LINE
  5
517
  8
レイヤー_5
  6
DOT
 62
     7
 10
98.49786706775102
 20
67.42687377525948
 30
0.0
 11
98.49786706775102
 21
67.9267571301693
 31
0.0
  0
LINE
  5
518
  8
レイヤー_5
  6
DOT
 62
     7
 10
96.49902266720913
 20
67.1698696520599
 30
0.0
 11
96.49902266720913
 21
67.6880120130414
 31
0.0
  0
LINE
  5
519
  8
レイヤー_5
  6
DOT
 62
     7
 10
91.50294519449982
 20
64.4306742317377
 30
0.0
 11
91.50294519449982
 21
64.9305575866475
 31
0.0
  0
LINE
  5
51A
  8
レイヤー_5
  6
DOT
 62
     7
 10
112.9879386787118
 20
61.43240763092479
 30
0.0
 11
112.9879386787118
 21
60.9332132951121
 31
0.0
  0
LINE
  5
51B
  8
レイヤー_5
  6
DOT
 62
     7
 10
107.8323532850355
 20
-7.440218762447401
 30
0.0
 11
107.8323532850355
 21
-16.0939541118464
 31
0.0
  0
LINE
  5
51C
  8
レイヤー_5
  6
DOT
 62
     7
 10
107.8323532850355
 20
-16.343723534527
 30
0.0
 11
107.8323532850355
 21
-7.689988185128001
 31
0.0
  0
LINE
  5
51D
  8
レイヤー_5
  6
DOT
 62
     7
 10
105.0383808464978
 20
-8.646346691833301
 30
0.0
 11
105.0383808464978
 21
-17.3000820412324
 31
0.0
  0
LINE
  5
51E
  8
レイヤー_5
  6
DOT
 62
     7
 10
92.00937423083154
 20
-17.84302908970771
 30
0.0
 11
92.00937423083154
 21
-9.189293740308713
 31
0.0
  0
LINE
  5
51F
  8
レイヤー_5
  6
DOT
 62
     7
 10
92.00937423083154
 20
-9.4390631629893
 30
0.0
 11
92.00937423083154
 21
-18.0941765505825
 31
0.0
  0
LINE
  5
520
  8
レイヤー_5
  6
DOT
 62
     7
 10
98.62499109115682
 20
-16.80329927225941
 30
0.0
 11
98.49786706775102
 21
-16.56110905964631
 31
0.0
  0
LINE
  5
521
  8
レイヤー_5
  6
CONTINUOUS
 62
     7
 10
69.56457714442884
 20
-27.57025619231071
 30
0.0
 11
68.40116839905993
 21
-24.46725868874621
 31
0.0
  0
LINE
  5
522
  8
レイヤー_5
  6
CONTINUOUS
 62
     7
 10
69.56457714442884
 20
-27.57025619231071
 30
0.0
 11
68.40116839905993
 21
-24.46725868874621
 31
0.0
  0
LINE
  5
523
  8
レイヤー_5
  6
CONTINUOUS
 62
     7
 10
117.9843606609697
 20
-35.93150293501203
 30
0.0
 11
117.9843606609697
 21
60.9332132951121
 31
0.0
  0
LINE
  5
524
  8
レイヤー_5
  6
DASHDOT
 62
     7
 10
68.46145757005182
 20
-44.20111013780574
 30
0.0
 11
68.46145757005182
 21
69.43364189541748
 31
0.0
  0
POLYLINE
  5
525
  8
レイヤー_5
  6
CONTINUOUS
 62
     7
 66
     1
 10
0.0
 20
0.0
 30
0.0
  0
VERTEX
  5
526
  8
レイヤー_5
  6
CONTINUOUS
 62
     7
 10
57.66349479063324
 20
-87.0660216939298
 30
0.0
  0
VERTEX
  5
527
  8
レイヤー_5
  6
CONTINUOUS
 62
     7
 10
57.68278732535062
 20
-87.05568640747404
 30
0.0
  0
VERTEX
  5
528
  8
レイヤー_5
  6
CONTINUOUS
 62
     7
 10
57.82954839302234
 20
-86.97059254898836
 30
0.0
  0
VERTEX
  5
529
  8
レイヤー_5
  6
CONTINUOUS
 62
     7
 10
58.12307052836552
 20
-86.80074934156556
 30
0.0
  0
VERTEX
  5
52A
  8
レイヤー_5
  6
CONTINUOUS
 62
     7
 10
58.56438726002612
 20
-86.5461567852056
 30
0.0
  0
VERTEX
  5
52B
  8
レイヤー_5
  6
CONTINUOUS
 62
     7
 10
59.15384309755233
 20
-86.20612586081143
 30
0.0
  0
VERTEX
  5
52C
  8
レイヤー_5
  6
CONTINUOUS
 62
     7
 10
59.88868196455614
 20
-85.78169009702866
 30
0.0
  0
VERTEX
  5
52D
  8
レイヤー_5
  6
CONTINUOUS
 62
     7
 10
60.77028189923153
 20
-85.27319400340578
 30
0.0
  0
VERTEX
  5
52E
  8
レイヤー_5
  6
CONTINUOUS
 62
     7
 10
61.79864290157862
 20
-84.67994856084576
 30
0.0
  0
SEQEND
  5
52F
  8
レイヤー_5
  6
CONTINUOUS
 62
     7
  0
ENDBLK
  5
531
  8
0
  0
ENDSEC
  0
SECTION
  2
ENTITIES
  0
INSERT
  5
532
  8
0
  2
0-NONE
 10
0.0
 20
0.0
 30
0.0
  0
ENDSEC
  0
EOF
