  0
SECTION
  2
HEADER
  9
$ACADVER
  1
AC1009
  9
$DWGCODEPAGE
  3
dos932
  9
$INSBASE
 10
0.0
 20
0.0
 30
0.0
  9
$EXTMIN
 10
-207.5533345819573
 20
-84.738039
 30
0.0
  9
$EXTMAX
 10
125.409154
 20
101.735875
 30
0.0
  9
$LIMMIN
 10
0.0
 20
0.0
  9
$LIMMAX
 10
594.0
 20
420.0
  9
$ORTHOMODE
 70
     0
  9
$REGENMODE
 70
     1
  9
$FILLMODE
 70
     1
  9
$QTEXTMODE
 70
     0
  9
$MIRRTEXT
 70
     1
  9
$DRAGMODE
 70
     2
  9
$LTSCALE
 40
1.0
  9
$OSMODE
 70
    37
  9
$ATTMODE
 70
     1
  9
$TEXTSIZE
 40
0.2
  9
$TRACEWID
 40
0.05
  9
$TEXTSTYLE
  7
STANDARD
  9
$CLAYER
  8
0
  9
$CELTYPE
  6
BYLAYER
  9
$CECOLOR
 62
   256
  9
$DIMSCALE
 40
1.0
  9
$DIMASZ
 40
0.18
  9
$DIMEXO
 40
0.0625
  9
$DIMDLI
 40
0.38
  9
$DIMRND
 40
0.0
  9
$DIMDLE
 40
0.0
  9
$DIMEXE
 40
0.18
  9
$DIMTP
 40
0.0
  9
$DIMTM
 40
0.0
  9
$DIMTXT
 40
0.18
  9
$DIMCEN
 40
0.09
  9
$DIMTSZ
 40
0.0
  9
$DIMTOL
 70
     0
  9
$DIMLIM
 70
     0
  9
$DIMTIH
 70
     1
  9
$DIMTOH
 70
     1
  9
$DIMSE1
 70
     0
  9
$DIMSE2
 70
     0
  9
$DIMTAD
 70
     0
  9
$DIMZIN
 70
     0
  9
$DIMBLK
  1

  9
$DIMASO
 70
     1
  9
$DIMSHO
 70
     1
  9
$DIMPOST
  1

  9
$DIMAPOST
  1

  9
$DIMALT
 70
     0
  9
$DIMALTD
 70
     3
  9
$DIMALTF
 40
0.0393700787401575
  9
$DIMLFAC
 40
1.0
  9
$DIMTOFL
 70
     0
  9
$DIMTVP
 40
0.0
  9
$DIMTIX
 70
     0
  9
$DIMSOXD
 70
     0
  9
$DIMSAH
 70
     0
  9
$DIMBLK1
  1

  9
$DIMBLK2
  1

  9
$DIMSTYLE
  2
STANDARD
  9
$DIMCLRD
 70
     0
  9
$DIMCLRE
 70
     0
  9
$DIMCLRT
 70
     0
  9
$DIMTFAC
 40
1.0
  9
$DIMGAP
 40
0.09
  9
$LUNITS
 70
     2
  9
$LUPREC
 70
     4
  9
$SKETCHINC
 40
0.1
  9
$FILLETRAD
 40
0.5
  9
$AUNITS
 70
     0
  9
$AUPREC
 70
     0
  9
$MENU
  1
.
  9
$ELEVATION
 40
0.0
  9
$PELEVATION
 40
0.0
  9
$THICKNESS
 40
0.0
  9
$LIMCHECK
 70
     0
  9
$CHAMFERA
 40
0.0
  9
$CHAMFERB
 40
0.0
  9
$SKPOLY
 70
     0
  9
$TDCREATE
 40
2459117.375500845
  9
$TDUPDATE
 40
2459117.375501204
  9
$TDINDWG
 40
0.0000000116
  9
$TDUSRTIMER
 40
0.0000000116
  9
$USRTIMER
 70
     1
  9
$ANGBASE
 50
0.0
  9
$ANGDIR
 70
     0
  9
$PDMODE
 70
     0
  9
$PDSIZE
 40
0.0
  9
$PLINEWID
 40
0.0
  9
$COORDS
 70
     1
  9
$SPLFRAME
 70
     0
  9
$SPLINETYPE
 70
     6
  9
$SPLINESEGS
 70
     8
  9
$ATTDIA
 70
     0
  9
$ATTREQ
 70
     1
  9
$HANDLING
 70
     1
  9
$HANDSEED
  5
C4E
  9
$SURFTAB1
 70
     6
  9
$SURFTAB2
 70
     6
  9
$SURFTYPE
 70
     6
  9
$SURFU
 70
     6
  9
$SURFV
 70
     6
  9
$UCSNAME
  2

  9
$UCSORG
 10
0.0
 20
0.0
 30
0.0
  9
$UCSXDIR
 10
1.0
 20
0.0
 30
0.0
  9
$UCSYDIR
 10
0.0
 20
1.0
 30
0.0
  9
$PUCSNAME
  2

  9
$PUCSORG
 10
0.0
 20
0.0
 30
0.0
  9
$PUCSXDIR
 10
1.0
 20
0.0
 30
0.0
  9
$PUCSYDIR
 10
0.0
 20
1.0
 30
0.0
  9
$USERI1
 70
     0
  9
$USERI2
 70
     0
  9
$USERI3
 70
     0
  9
$USERI4
 70
     0
  9
$USERI5
 70
     0
  9
$USERR1
 40
0.0
  9
$USERR2
 40
0.0
  9
$USERR3
 40
0.0
  9
$USERR4
 40
0.0
  9
$USERR5
 40
0.0
  9
$WORLDVIEW
 70
     1
  9
$SHADEDGE
 70
     3
  9
$SHADEDIF
 70
    70
  9
$TILEMODE
 70
     1
  9
$MAXACTVP
 70
    64
  9
$PLIMCHECK
 70
     0
  9
$PEXTMIN
 10
1.000000000000000E+20
 20
1.000000000000000E+20
 30
1.000000000000000E+20
  9
$PEXTMAX
 10
-1.000000000000000E+20
 20
-1.000000000000000E+20
 30
-1.000000000000000E+20
  9
$PLIMMIN
 10
0.0
 20
0.0
  9
$PLIMMAX
 10
12.0
 20
9.0
  9
$UNITMODE
 70
     0
  9
$VISRETAIN
 70
     1
  9
$PLINEGEN
 70
     0
  9
$PSLTSCALE
 70
     1
  0
ENDSEC
  0
SECTION
  2
TABLES
  0
TABLE
  2
VPORT
 70
     1
  0
VPORT
  2
*ACTIVE
 70
     0
 10
0.0
 20
0.0
 11
1.0
 21
1.0
 12
10.42990654205607
 22
4.5
 13
0.0
 23
0.0
 14
0.5
 24
0.5
 15
0.5
 25
0.5
 16
0.0
 26
0.0
 36
1.0
 17
0.0
 27
0.0
 37
0.0
 40
9.0
 41
1.972972972850329
 42
50.0
 43
0.0
 44
0.0
 50
0.0
 51
0.0
 71
     0
 72
   100
 73
     1
 74
     3
 75
     0
 76
     0
 77
     0
 78
     0
  0
ENDTAB
  0
TABLE
  2
LTYPE
 70
    25
  0
LTYPE
  2
CONTINUOUS
 70
     0
  3
Solid line
 72
    65
 73
     0
 40
0.0
  0
LTYPE
  2
BORDER
 70
     0
  3
__ __ . __ __ . __ __ . __ __ . __ __ . __ __ .
 72
    65
 73
     6
 40
8.75
 49
2.5
 49
-1.25
 49
2.5
 49
-1.25
 49
0.0
 49
-1.25
  0
LTYPE
  2
CENTER
 70
     0
  3
____ _ ____ _ ____ _ ____ _ ____ _ ____ _ ____ 
 72
    65
 73
     4
 40
10.0
 49
6.25
 49
-1.25
 49
1.25
 49
-1.25
  0
LTYPE
  2
DASHDOT
 70
     0
  3
__ . __ . __ . __ . __ . __ . __ . __ . __ . __
 72
    65
 73
     4
 40
5.0
 49
2.5
 49
-1.25
 49
0.0
 49
-1.25
  0
LTYPE
  2
DASHED
 70
     0
  3
__ __ __ __ __ __ __ __ __ __ __ __ __ __ __ __
 72
    65
 73
     2
 40
3.75
 49
2.5
 49
-1.25
  0
LTYPE
  2
DIVIDE
 70
     0
  3
____ . . ____ . . ____ . . ____ . . ____ . . __
 72
    65
 73
     6
 40
6.25
 49
2.5
 49
-1.25
 49
0.0
 49
-1.25
 49
0.0
 49
-1.25
  0
LTYPE
  2
DOT
 70
     0
  3
. . . . . . . . . . . . . . . . . . . . . . . .
 72
    65
 73
     2
 40
1.25
 49
0.0
 49
-1.25
  0
LTYPE
  2
HIDDEN
 70
     0
  3
__ __ __ __ __ __ __ __ __ __ __ __ __ __ __ __
 72
    65
 73
     2
 40
1.875
 49
1.25
 49
-0.625
  0
LTYPE
  2
PHANTOM
 70
     0
  3
______  __  __  ______  __  __  ______  __  __ 
 72
    65
 73
     6
 40
12.5
 49
6.25
 49
-1.25
 49
1.25
 49
-1.25
 49
1.25
 49
-1.25
  0
LTYPE
  2
BORDER2
 70
     0
  3
__.__.__.__.__.__.__.__.__.__.__.__.__.__.__.__
 72
    65
 73
     2
 40
2.5
 49
2.5
 49
0.0
  0
LTYPE
  2
BORDERX2
 70
     0
  3
____ ____ . ____ ____ . ____ ____ . ____ ____ .
 72
    65
 73
     6
 40
13.75
 49
5.0
 49
-1.25
 49
5.0
 49
-1.25
 49
0.0
 49
-1.25
  0
LTYPE
  2
CENTER2
 70
     0
  3
___ _ ___ _ ___ _ ___ _ ___ _ ___ _ ___ _ ___ _
 72
    65
 73
     4
 40
8.4
 49
4.65
 49
-1.25
 49
1.25
 49
-1.25
  0
LTYPE
  2
CENTERX2
 70
     0
  3
_________ _ _________ _ _________ _ _________ _
 72
    65
 73
     4
 40
16.8
 49
13.05
 49
-1.25
 49
1.25
 49
-1.25
  0
LTYPE
  2
DASHDOT2
 70
     0
  3
_ . _ . _ . _ . _ . _ . _ . _ . _ . _ . _ . _ .
 72
    65
 73
     4
 40
3.75
 49
1.25
 49
-1.25
 49
0.0
 49
-1.25
  0
LTYPE
  2
DASHDOTX2
 70
     0
  3
________ . ________ . ________ . ________ . ___
 72
    65
 73
     4
 40
12.5
 49
10.0
 49
-1.25
 49
0.0
 49
-1.25
  0
LTYPE
  2
DASHED2
 70
     0
  3
_ _ _ _ _ _ _ _ _ _ _ _ _ _ _ _ _ _ _ _ _ _ _ _
 72
    65
 73
     2
 40
2.5
 49
1.25
 49
-1.25
  0
LTYPE
  2
DASHEDX2
 70
     0
  3
____ ____ ____ ____ ____ ____ ____ ____ ____ __
 72
    65
 73
     4
 40
2.5
 49
10.0
 49
-1.25
 49
0.0
 49
-1.25
  0
LTYPE
  2
DIVIDE2
 70
     0
  3
_ _ . . _ _ . . _ _ . . _ _ . . _ _ . . _ _ . .
 72
    65
 73
     8
 40
7.5
 49
1.25
 49
-1.25
 49
1.25
 49
-1.25
 49
0.0
 49
-1.25
 49
0.0
 49
-1.25
  0
LTYPE
  2
DIVIDEX2
 70
     0
  3
________________ . . ________________ . . _____
 72
    65
 73
     7
 40
13.75
 49
0.625
 49
10.0
 49
-1.25
 49
0.0
 49
-1.25
 49
0.0
 49
-1.25
  0
LTYPE
  2
DOT2
 70
     0
  3
...............................................
 72
    65
 73
     2
 40
0.625
 49
0.0
 49
-0.625
  0
LTYPE
  2
DOTX2
 70
     0
  3
.  .  .  .  .  .  .  .  .  .  .  .  .  .  .  . 
 72
    65
 73
     2
 40
2.5
 49
0.0
 49
-2.5
  0
LTYPE
  2
HIDDEN2
 70
     0
  3
_ _ _ _ _ _ _ _ _ _ _ _ _ _ _ _ _ _ _ _ _ _ _ _
 72
    65
 73
     2
 40
1.25
 49
0.625
 49
-0.625
  0
LTYPE
  2
HIDDENX2
 70
     0
  3
____ ____ ____ ____ ____ ____ ____ ____ ____ __
 72
    65
 73
     2
 40
3.125
 49
2.5
 49
-0.625
  0
LTYPE
  2
PHANTOM2
 70
     0
  3
___  __  __  ___  __  __  ___  __  __ ___  __  
 72
    65
 73
     6
 40
9.375
 49
3.125
 49
-1.25
 49
1.25
 49
-1.25
 49
1.25
 49
-1.25
  0
LTYPE
  2
PHANTOMX2
 70
     0
  3
____________  __  __  ____________  __  __  ___
 72
    65
 73
     6
 40
18.75
 49
12.5
 49
-1.25
 49
1.25
 49
-1.25
 49
1.25
 49
-1.25
  0
ENDTAB
  0
TABLE
  2
LAYER
 70
     3
  0
LAYER
  2
0
 70
     0
 62
     7
  6
CONTINUOUS
  0
LAYER
  2
1
 70
     0
 62
     7
  6
CONTINUOUS
  0
LAYER
  2
レイヤー_1
 70
     0
 62
     7
  6
CONTINUOUS
  0
ENDTAB
  0
TABLE
  2
STYLE
 70
     2
  0
STYLE
  2
STANDARD
 70
     0
 40
0.0
 41
1.0
 50
0.0
 71
     0
 42
0.2
  3
txt
  4

  0
STYLE
  2
EXCESS_STANDARD
 70
     0
 40
0.2
 41
1.0
 50
0.0
 71
     0
 42
0.2
  3
txt
  4
BIGFONT
  0
ENDTAB
  0
TABLE
  2
VIEW
 70
     0
  0
ENDTAB
  0
TABLE
  2
UCS
 70
     0
  0
ENDTAB
  0
TABLE
  2
APPID
 70
     1
  0
APPID
  2
ACAD
 70
     0
  0
ENDTAB
  0
TABLE
  2
DIMSTYLE
 70
     2
  0
DIMSTYLE
  2
STANDARD
 70
     0
  3

  4

  5

  6

  7

 40
1.0
 41
0.18
 42
0.0625
 43
0.38
 44
0.18
 45
0.0
 46
0.0
 47
0.0
 48
0.0
140
0.18
141
0.09
142
0.0
143
25.4
144
1.0
145
0.0
146
1.0
147
0.09
 71
     0
 72
     0
 73
     1
 74
     1
 75
     0
 76
     0
 77
     0
 78
     0
170
     0
171
     2
172
     0
173
     0
174
     0
175
     0
176
     0
177
     0
178
     0
  0
DIMSTYLE
  2
ISO-25
 70
     0
  3

  4

  5

  6

  7

 40
1.0
 41
3.5
 42
0.3
 43
9.0
 44
0.18
 45
0.0
 46
0.0
 47
0.0
 48
0.0
140
5.0
141
0.09
142
0.0
143
25.4
144
1.0
145
0.0
146
0.5
147
0.5
 71
     0
 72
     0
 73
     1
 74
     1
 75
     0
 76
     0
 77
     1
 78
     0
170
     0
171
     2
172
     0
173
     0
174
     0
175
     0
176
     0
177
     0
178
     0
  0
ENDTAB
  0
ENDSEC
  0
SECTION
  2
BLOCKS
  0
BLOCK
  8
0
  2
$MODEL_SPACE
 70
     0
 10
0.0
 20
0.0
 30
0.0
  3
$MODEL_SPACE
  1

  0
ENDBLK
  5
21
  8
0
  0
BLOCK
 67
     1
  8
0
  2
$PAPER_SPACE
 70
     0
 10
0.0
 20
0.0
 30
0.0
  3
$PAPER_SPACE
  1

  0
ENDBLK
  5
1D
 67
     1
  8
0
  0
BLOCK
  8
0
  2
0-NONE
 70
     0
 10
0.0
 20
0.0
 30
0.0
  3
0-NONE
  1

  0
CIRCLE
  5
8A
  8
1
  6
CONTINUOUS
 62
     7
 10
-103.393823
 20
1.997947998344898
 30
0.0
 40
71.5
  0
LINE
  5
8B
  8
1
  6
BORDER
 62
     4
 10
-103.393823
 20
-71.7523634277702
 30
0.0
 11
-103.393823
 21
75.74825942446
 31
0.0
  0
LINE
  5
8C
  8
1
  6
BORDER
 62
     4
 10
-177.1436176728165
 20
1.997947998344898
 30
0.0
 11
-29.64402833723673
 21
1.997947998344898
 31
0.0
  0
POLYLINE
  5
8D
  8
1
  6
CONTINUOUS
 62
     7
 66
     1
 10
0.0
 20
0.0
 30
0.0
  0
VERTEX
  5
8E
  8
1
  6
CONTINUOUS
 62
     7
 10
40.42857461530113
 20
-49.5017617334538
 30
0.0
 42
-0.414213562373095
  0
VERTEX
  5
8F
  8
1
  6
CONTINUOUS
 62
     7
 10
43.42857461530113
 20
-46.5017617334538
 30
0.0
  0
VERTEX
  5
90
  8
1
  6
CONTINUOUS
 62
     7
 10
43.43821003121533
 20
-46.5017617334538
 30
0.0
  0
SEQEND
  5
91
  8
1
  6
CONTINUOUS
 62
     7
  0
POLYLINE
  5
92
  8
1
  6
CONTINUOUS
 62
     7
 66
     1
 10
0.0
 20
0.0
 30
0.0
  0
VERTEX
  5
93
  8
1
  6
CONTINUOUS
 62
     7
 10
43.92741359012084
 20
-67.73606891142992
 30
0.0
  0
VERTEX
  5
94
  8
1
  6
CONTINUOUS
 62
     7
 10
40.92857461530113
 20
-67.73606891142992
 30
0.0
 42
-0.414213562373095
  0
VERTEX
  5
95
  8
1
  6
CONTINUOUS
 62
     7
 10
39.92857461530113
 20
-66.73606891142992
 30
0.0
  0
VERTEX
  5
96
  8
1
  6
CONTINUOUS
 62
     7
 10
39.92857461530113
 20
-49.5017617334538
 30
0.0
 42
-0.414213562373095
  0
VERTEX
  5
97
  8
1
  6
CONTINUOUS
 62
     7
 10
43.42857461530113
 20
-46.0017617334538
 30
0.0
  0
VERTEX
  5
98
  8
1
  6
CONTINUOUS
 62
     7
 10
86.93730400130153
 20
-46.0017617334538
 30
0.0
 42
0.414213562373095
  0
VERTEX
  5
99
  8
1
  6
CONTINUOUS
 62
     7
 10
88.93730400130153
 20
-44.0017617334538
 30
0.0
  0
VERTEX
  5
9A
  8
1
  6
CONTINUOUS
 62
     7
 10
88.93730400130153
 20
47.99806407470428
 30
0.0
 42
0.414213562373095
  0
VERTEX
  5
9B
  8
1
  6
CONTINUOUS
 62
     7
 10
86.93730400130153
 20
49.99806407466529
 30
0.0
  0
VERTEX
  5
9C
  8
1
  6
CONTINUOUS
 62
     7
 10
43.37524307910533
 20
49.99806407555349
 30
0.0
  0
SEQEND
  5
9D
  8
1
  6
CONTINUOUS
 62
     7
  0
POLYLINE
  5
9E
  8
1
  6
CONTINUOUS
 62
     7
 66
     1
 10
0.0
 20
0.0
 30
0.0
  0
VERTEX
  5
9F
  8
1
  6
CONTINUOUS
 62
     7
 10
43.43821003121533
 20
50.49765773014354
 30
0.0
  0
VERTEX
  5
A0
  8
1
  6
CONTINUOUS
 62
     7
 10
43.42857461530113
 20
50.49765773014354
 30
0.0
 42
-0.414213562373095
  0
VERTEX
  5
A1
  8
1
  6
CONTINUOUS
 62
     7
 10
40.42857461530113
 20
53.49765773014354
 30
0.0
  0
SEQEND
  5
A2
  8
1
  6
CONTINUOUS
 62
     7
  0
LINE
  5
A3
  8
1
  6
CONTINUOUS
 62
     7
 10
41.73564384166431
 20
69.43259153674654
 30
0.0
 11
41.73564384240493
 21
68.93259153674654
 31
0.0
  0
LINE
  5
A4
  8
1
  6
CONTINUOUS
 62
     7
 10
43.92741359059048
 20
71.7643488056811
 30
0.0
 11
43.92741359059048
 21
71.2643488056811
 31
0.0
  0
POLYLINE
  5
A5
  8
1
  6
CONTINUOUS
 62
     7
 66
     1
 10
0.0
 20
0.0
 30
0.0
  0
VERTEX
  5
A6
  8
1
  6
CONTINUOUS
 62
     7
 10
43.92741359059048
 20
71.7643488056811
 30
0.0
  0
VERTEX
  5
A7
  8
1
  6
CONTINUOUS
 62
     7
 10
40.92857461530113
 20
71.76434880642262
 30
0.0
 42
0.414213562373095
  0
VERTEX
  5
A8
  8
1
  6
CONTINUOUS
 62
     7
 10
39.92857461530113
 20
70.76434880642262
 30
0.0
  0
VERTEX
  5
A9
  8
1
  6
CONTINUOUS
 62
     7
 10
39.92857461530113
 20
69.93259153674654
 30
0.0
 42
0.414213562373095
  0
VERTEX
  5
AA
  8
1
  6
CONTINUOUS
 62
     7
 10
40.92857461530113
 20
68.93259153674654
 30
0.0
  0
VERTEX
  5
AB
  8
1
  6
CONTINUOUS
 62
     7
 10
41.73564384166431
 20
68.93259153674654
 30
0.0
  0
SEQEND
  5
AC
  8
1
  6
CONTINUOUS
 62
     7
  0
POLYLINE
  5
AD
  8
1
  6
CONTINUOUS
 62
     7
 66
     1
 10
0.0
 20
0.0
 30
0.0
  0
VERTEX
  5
AE
  8
1
  6
CONTINUOUS
 62
     7
 10
43.92741359059048
 20
71.2643488056811
 30
0.0
  0
VERTEX
  5
AF
  8
1
  6
CONTINUOUS
 62
     7
 10
40.92857461530113
 20
71.26434880642262
 30
0.0
 42
0.414213562373095
  0
VERTEX
  5
B0
  8
1
  6
CONTINUOUS
 62
     7
 10
40.42857461530113
 20
70.76434880642262
 30
0.0
  0
VERTEX
  5
B1
  8
1
  6
CONTINUOUS
 62
     7
 10
40.42857461530113
 20
69.93259153674654
 30
0.0
 42
0.414213562373095
  0
VERTEX
  5
B2
  8
1
  6
CONTINUOUS
 62
     7
 10
40.92857461530113
 20
69.43259153674654
 30
0.0
  0
VERTEX
  5
B3
  8
1
  6
CONTINUOUS
 62
     7
 10
41.73564384166431
 20
69.43259153674654
 30
0.0
  0
SEQEND
  5
B4
  8
1
  6
CONTINUOUS
 62
     7
  0
LINE
  5
B5
  8
1
  6
CONTINUOUS
 62
     7
 10
43.92741359012084
 20
-67.23606891142992
 30
0.0
 11
43.92741359012084
 21
-67.73606891142992
 31
0.0
  0
LINE
  5
B6
  8
1
  6
CONTINUOUS
 62
     7
 10
41.73564384240493
 20
66.95671805601495
 30
0.0
 11
41.73564384240493
 21
66.45671805601495
 31
0.0
  0
LINE
  5
B7
  8
1
  6
CONTINUOUS
 62
     7
 10
40.38499674575831
 20
72.37904114364653
 30
0.0
 11
47.43730400051319
 21
72.99603807926172
 31
0.0
  0
LINE
  5
B8
  8
1
  6
CONTINUOUS
 62
     7
 10
29.43730400051319
 20
-41.54001492455126
 30
0.0
 11
29.70037581040853
 21
-41.99514713331581
 31
0.0
  0
LINE
  5
B9
  8
1
  6
CONTINUOUS
 62
     7
 10
29.43730400051319
 20
-27.3126060614116
 30
0.0
 11
29.68807709673432
 21
-27.74646065505755
 31
0.0
  0
LINE
  5
BA
  8
1
  6
CONTINUOUS
 62
     7
 10
29.43730400051319
 20
-13.08766033096987
 30
0.0
 11
29.68807590763392
 21
-13.52151286739087
 31
0.0
  0
LINE
  5
BB
  8
1
  6
CONTINUOUS
 62
     7
 10
29.43730400051319
 20
1.13913275061776
 30
0.0
 11
29.6877777936361
 21
0.7057959717853333
 31
0.0
  0
LINE
  5
BC
  8
1
  6
CONTINUOUS
 62
     7
 10
29.43730400051319
 20
15.36500215486126
 30
0.0
 11
29.68794302275464
 21
14.9313795183624
 31
0.0
  0
LINE
  5
BD
  8
1
  6
CONTINUOUS
 62
     7
 10
29.43730400051319
 20
29.59117945043971
 30
0.0
 11
29.68612750042547
 21
29.16069779163842
 31
0.0
  0
LINE
  5
BE
  8
1
  6
CONTINUOUS
 62
     7
 10
29.43730400051319
 20
43.84970403036704
 30
0.0
 11
29.70037581040853
 21
43.39457182160248
 31
0.0
  0
LINE
  5
BF
  8
1
  6
CONTINUOUS
 62
     7
 10
47.39339257302092
 20
73.49794799834484
 30
0.0
 11
47.43730400051319
 21
72.99603807926172
 31
0.0
  0
POLYLINE
  5
C0
  8
1
  6
CONTINUOUS
 62
     7
 66
     1
 10
0.0
 20
0.0
 30
0.0
  0
VERTEX
  5
C1
  8
1
  6
CONTINUOUS
 62
     7
 10
47.39372613015914
 20
73.49413542856922
 30
0.0
  0
VERTEX
  5
C2
  8
1
  6
CONTINUOUS
 62
     7
 10
40.35014825805052
 20
72.87790221355726
 30
0.0
 42
0.3888787318310749
  0
VERTEX
  5
C3
  8
1
  6
CONTINUOUS
 62
     7
 10
39.43730400087404
 20
71.88170751547216
 30
0.0
  0
SEQEND
  5
C4
  8
1
  6
CONTINUOUS
 62
     7
  0
POLYLINE
  5
C5
  8
1
  6
CONTINUOUS
 62
     7
 66
     1
 10
0.0
 20
0.0
 30
0.0
  0
VERTEX
  5
C6
  8
1
  6
CONTINUOUS
 62
     7
 10
39.92857461707064
 20
-67.8850477984397
 30
0.0
 42
0.3888787318885285
  0
VERTEX
  5
C7
  8
1
  6
CONTINUOUS
 62
     7
 10
40.38499674575831
 20
-68.38314514749095
 30
0.0
  0
VERTEX
  5
C8
  8
1
  6
CONTINUOUS
 62
     7
 10
47.43730400051319
 20
-69.00014208310614
 30
0.0
  0
SEQEND
  5
C9
  8
1
  6
CONTINUOUS
 62
     7
  0
LINE
  5
CA
  8
1
  6
CONTINUOUS
 62
     7
 10
47.39339257302092
 20
-69.50205200218926
 30
0.0
 11
47.43730400051319
 21
-69.00014208310614
 31
0.0
  0
POLYLINE
  5
CB
  8
1
  6
CONTINUOUS
 62
     7
 66
     1
 10
0.0
 20
0.0
 30
0.0
  0
VERTEX
  5
CC
  8
1
  6
CONTINUOUS
 62
     7
 10
47.39372613015914
 20
-69.49823943241364
 30
0.0
  0
VERTEX
  5
CD
  8
1
  6
CONTINUOUS
 62
     7
 10
40.35014825805052
 20
-68.88200621740168
 30
0.0
 42
-0.3888787318310748
  0
VERTEX
  5
CE
  8
1
  6
CONTINUOUS
 62
     7
 10
39.43730400087404
 20
-67.88581151931658
 30
0.0
  0
SEQEND
  5
CF
  8
1
  6
CONTINUOUS
 62
     7
  0
LINE
  5
D0
  8
1
  6
BORDER
 62
     4
 10
28.93253146890831
 20
1.997947998344838
 30
0.0
 11
98.43730399999998
 21
1.9979479983449
 31
0.0
  0
LINE
  5
D1
  8
1
  6
CONTINUOUS
 62
     7
 10
39.43730400087404
 20
-58.99540051097932
 30
0.0
 11
39.43730400087404
 21
-67.88581151931658
 31
0.0
  0
LINE
  5
D2
  8
1
  6
CONTINUOUS
 62
     7
 10
39.92857461707064
 20
-59.32165105343256
 30
0.0
 11
39.92857461707064
 21
-67.8850477984397
 31
0.0
  0
LINE
  5
D3
  8
1
  6
CONTINUOUS
 62
     7
 10
39.43730400087404
 20
60.99520818298134
 30
0.0
 11
39.43730400087404
 21
71.88170751547216
 31
0.0
  0
LINE
  5
D4
  8
1
  6
CONTINUOUS
 62
     7
 10
39.92857461707064
 20
61.32249225408003
 30
0.0
 11
39.92857461707064
 21
66.6530884984071
 31
0.0
  0
POLYLINE
  5
D5
  8
1
  6
CONTINUOUS
 62
     7
 66
     1
 10
0.0
 20
0.0
 30
0.0
  0
VERTEX
  5
D6
  8
1
  6
CONTINUOUS
 62
     7
 10
39.92857461707064
 20
69.2369101123445
 30
0.0
  0
VERTEX
  5
D7
  8
1
  6
CONTINUOUS
 62
     7
 10
39.92857461707064
 20
71.88094379459528
 30
0.0
 42
-0.3888787318885285
  0
VERTEX
  5
D8
  8
1
  6
CONTINUOUS
 62
     7
 10
40.38499674575831
 20
72.37904114364653
 30
0.0
  0
SEQEND
  5
D9
  8
1
  6
CONTINUOUS
 62
     7
  0
POLYLINE
  5
DA
  8
1
  6
CONTINUOUS
 62
     7
 66
     1
 10
0.0
 20
0.0
 30
0.0
  0
VERTEX
  5
DB
  8
1
  6
CONTINUOUS
 62
     7
 10
36.92031723935042
 20
59.29505356101055
 30
0.0
  0
VERTEX
  5
DC
  8
1
  6
CONTINUOUS
 62
     7
 10
36.92031723935042
 20
-57.29317883171746
 30
0.0
  0
VERTEX
  5
DD
  8
1
  6
CONTINUOUS
 62
     7
 10
36.95270113691183
 20
-57.58876802435179
 30
0.0
  0
VERTEX
  5
DE
  8
1
  6
CONTINUOUS
 62
     7
 10
37.08361476535131
 20
-57.84921724303672
 30
0.0
  0
VERTEX
  5
DF
  8
1
  6
CONTINUOUS
 62
     7
 10
37.27860716981641
 20
-58.04662121434154
 30
0.0
  0
VERTEX
  5
E0
  8
1
  6
CONTINUOUS
 62
     7
 10
37.54181246488952
 20
-58.2085407021483
 30
0.0
  0
SEQEND
  5
E1
  8
1
  6
CONTINUOUS
 62
     7
  0
POLYLINE
  5
E2
  8
1
  6
CONTINUOUS
 62
     7
 66
     1
 10
0.0
 20
0.0
 30
0.0
  0
VERTEX
  5
E3
  8
1
  6
CONTINUOUS
 62
     7
 10
37.41020981735304
 20
59.29505356101055
 30
0.0
  0
VERTEX
  5
E4
  8
1
  6
CONTINUOUS
 62
     7
 10
37.41020981735304
 20
-57.29317883171746
 30
0.0
  0
VERTEX
  5
E5
  8
1
  6
CONTINUOUS
 62
     7
 10
37.50942856732823
 20
-57.5556951076934
 30
0.0
  0
VERTEX
  5
E6
  8
1
  6
CONTINUOUS
 62
     7
 10
37.73749388845172
 20
-57.75103202170715
 30
0.0
  0
SEQEND
  5
E7
  8
1
  6
CONTINUOUS
 62
     7
  0
POLYLINE
  5
E8
  8
1
  6
CONTINUOUS
 62
     7
 66
     1
 10
0.0
 20
0.0
 30
0.0
  0
VERTEX
  5
E9
  8
1
  6
CONTINUOUS
 62
     7
 10
39.43730400087404
 20
-59.32165105343256
 30
0.0
  0
VERTEX
  5
EA
  8
1
  6
CONTINUOUS
 62
     7
 10
39.34084132728702
 20
-59.06016830610201
 30
0.0
  0
VERTEX
  5
EB
  8
1
  6
CONTINUOUS
 62
     7
 10
39.11139796796934
 20
-58.86379786344287
 30
0.0
  0
SEQEND
  5
EC
  8
1
  6
CONTINUOUS
 62
     7
  0
POLYLINE
  5
ED
  8
1
  6
CONTINUOUS
 62
     7
 66
     1
 10
0.0
 20
0.0
 30
0.0
  0
VERTEX
  5
EE
  8
1
  6
CONTINUOUS
 62
     7
 10
39.92857461707064
 20
-59.32165105343256
 30
0.0
  0
VERTEX
  5
EF
  8
1
  6
CONTINUOUS
 62
     7
 10
39.89550170041221
 20
-59.02709538944362
 30
0.0
  0
VERTEX
  5
F0
  8
1
  6
CONTINUOUS
 62
     7
 10
39.76527709106983
 20
-58.76561264211324
 30
0.0
  0
VERTEX
  5
F1
  8
1
  6
CONTINUOUS
 62
     7
 10
39.56890664841052
 20
-58.56924219945392
 30
0.0
  0
VERTEX
  5
F2
  8
1
  6
CONTINUOUS
 62
     7
 10
39.30776841062863
 20
-58.4062891830016
 30
0.0
  0
SEQEND
  5
F3
  8
1
  6
CONTINUOUS
 62
     7
  0
LINE
  5
F4
  8
1
  6
CONTINUOUS
 62
     7
 10
37.73749388845172
 20
-57.75103202170715
 30
0.0
 11
39.30776841062863
 21
-58.4062891830016
 31
0.0
  0
LINE
  5
F5
  8
1
  6
CONTINUOUS
 62
     7
 10
37.54181246488952
 20
-58.2085407021483
 30
0.0
 11
39.43730400087404
 21
-58.99540051097932
 31
0.0
  0
POLYLINE
  5
F6
  8
1
  6
CONTINUOUS
 62
     7
 66
     1
 10
0.0
 20
0.0
 30
0.0
  0
VERTEX
  5
F7
  8
1
  6
CONTINUOUS
 62
     7
 10
37.54181246488952
 20
60.21041543144139
 30
0.0
  0
VERTEX
  5
F8
  8
1
  6
CONTINUOUS
 62
     7
 10
37.27860716981641
 20
60.07984631255039
 30
0.0
  0
VERTEX
  5
F9
  8
1
  6
CONTINUOUS
 62
     7
 10
37.08361476535131
 20
59.85109197232981
 30
0.0
  0
VERTEX
  5
FA
  8
1
  6
CONTINUOUS
 62
     7
 10
36.95270113691183
 20
59.5889202059023
 30
0.0
  0
VERTEX
  5
FB
  8
1
  6
CONTINUOUS
 62
     7
 10
36.92031723935042
 20
59.29505356101055
 30
0.0
  0
SEQEND
  5
FC
  8
1
  6
CONTINUOUS
 62
     7
  0
POLYLINE
  5
FD
  8
1
  6
CONTINUOUS
 62
     7
 66
     1
 10
0.0
 20
0.0
 30
0.0
  0
VERTEX
  5
FE
  8
1
  6
CONTINUOUS
 62
     7
 10
37.73749388845172
 20
59.75290675100024
 30
0.0
  0
VERTEX
  5
FF
  8
1
  6
CONTINUOUS
 62
     7
 10
37.50805052913412
 20
59.55653630834098
 30
0.0
  0
VERTEX
  5
100
  8
1
  6
CONTINUOUS
 62
     7
 10
37.41020981735304
 20
59.29505356101055
 30
0.0
  0
SEQEND
  5
101
  8
1
  6
CONTINUOUS
 62
     7
  0
POLYLINE
  5
102
  8
1
  6
CONTINUOUS
 62
     7
 66
     1
 10
0.0
 20
0.0
 30
0.0
  0
VERTEX
  5
103
  8
1
  6
CONTINUOUS
 62
     7
 10
39.11139796796934
 20
60.86463906409034
 30
0.0
  0
VERTEX
  5
104
  8
1
  6
CONTINUOUS
 62
     7
 10
39.34084132728702
 20
61.0610095067496
 30
0.0
  0
VERTEX
  5
105
  8
1
  6
CONTINUOUS
 62
     7
 10
39.43730400087404
 20
61.32249225408003
 30
0.0
  0
SEQEND
  5
106
  8
1
  6
CONTINUOUS
 62
     7
  0
POLYLINE
  5
107
  8
1
  6
CONTINUOUS
 62
     7
 66
     1
 10
0.0
 20
0.0
 30
0.0
  0
VERTEX
  5
108
  8
1
  6
CONTINUOUS
 62
     7
 10
39.30776841062863
 20
60.40678587410065
 30
0.0
  0
VERTEX
  5
109
  8
1
  6
CONTINUOUS
 62
     7
 10
39.56890664841052
 20
60.57008340010151
 30
0.0
  0
VERTEX
  5
10A
  8
1
  6
CONTINUOUS
 62
     7
 10
39.76527709106983
 20
60.76645384276071
 30
0.0
  0
VERTEX
  5
10B
  8
1
  6
CONTINUOUS
 62
     7
 10
39.89550170041221
 20
61.0279365900912
 30
0.0
  0
VERTEX
  5
10C
  8
1
  6
CONTINUOUS
 62
     7
 10
39.92857461707064
 20
61.32249225408003
 30
0.0
  0
SEQEND
  5
10D
  8
1
  6
CONTINUOUS
 62
     7
  0
LINE
  5
10E
  8
1
  6
CONTINUOUS
 62
     7
 10
37.73749388845172
 20
59.75290675100024
 30
0.0
 11
39.30776841062863
 21
60.40678587410065
 31
0.0
  0
LINE
  5
10F
  8
1
  6
CONTINUOUS
 62
     7
 10
37.54181246488952
 20
60.21041543144139
 30
0.0
 11
39.43730400087404
 21
60.99520818298134
 31
0.0
  0
LINE
  5
110
  8
1
  6
CONTINUOUS
 62
     7
 10
36.92031723935042
 20
47.58724106393748
 30
0.0
 11
29.7003758098941
 21
43.39457182249248
 31
0.0
  0
LINE
  5
111
  8
1
  6
CONTINUOUS
 62
     7
 10
37.41020981735304
 20
33.62220200492874
 30
0.0
 11
37.60658026001224
 21
33.72038722625831
 31
0.0
  0
LINE
  5
112
  8
1
  6
CONTINUOUS
 62
     7
 10
37.41020981735304
 20
19.39602470813804
 30
0.0
 11
37.60658026001224
 21
19.49420992946767
 31
0.0
  0
LINE
  5
113
  8
1
  6
CONTINUOUS
 62
     7
 10
37.41020981735304
 20
5.170536430444427
 30
0.0
 11
37.60658026001224
 21
5.268032632676976
 31
0.0
  0
LINE
  5
114
  8
1
  6
CONTINUOUS
 62
     7
 10
36.92031723935042
 20
-9.350885549432123
 30
0.0
 11
29.6880759076339
 21
-13.52151286739087
 31
0.0
  0
LINE
  5
115
  8
1
  6
CONTINUOUS
 62
     7
 10
36.92031723935042
 20
-23.57706284622282
 30
0.0
 11
29.68807709673433
 21
-27.74646065505755
 31
0.0
  0
LINE
  5
116
  8
1
  6
CONTINUOUS
 62
     7
 10
39.43730400087404
 20
61.61704791806892
 30
0.0
 11
39.43730400087404
 21
63.80743962759078
 31
0.0
  0
LINE
  5
117
  8
1
  6
CONTINUOUS
 62
     7
 10
36.95270113691183
 20
67.96188027325354
 30
0.0
 11
44.01652491986812
 21
67.96188027325354
 31
0.0
  0
LINE
  5
118
  8
1
  6
CONTINUOUS
 62
     7
 10
43.42879163008442
 20
69.2369101123445
 30
0.0
 11
39.43730400087404
 21
69.2369101123445
 31
0.0
  0
LINE
  5
119
  8
1
  6
CONTINUOUS
 62
     7
 10
43.42879163008442
 20
68.94235444835562
 30
0.0
 11
39.43730400087404
 21
68.94235444835562
 31
0.0
  0
LINE
  5
11A
  8
1
  6
CONTINUOUS
 62
     7
 10
43.42879163008442
 20
66.6530884984071
 30
0.0
 11
39.43730400087404
 21
66.6530884984071
 31
0.0
  0
LINE
  5
11B
  8
1
  6
CONTINUOUS
 62
     7
 10
43.42879163008442
 20
66.94729965284745
 30
0.0
 11
39.43730400087404
 21
66.94729965284745
 31
0.0
  0
LINE
  5
11C
  8
1
  6
CONTINUOUS
 62
     7
 10
43.42879163008442
 20
66.6530884984071
 30
0.0
 11
43.42879163008442
 21
69.2369101123445
 31
0.0
  0
LINE
  5
11D
  8
1
  6
CONTINUOUS
 62
     7
 10
40.90904879217271
 20
66.94729965284745
 30
0.0
 11
41.72622544127401
 21
66.94729965284745
 31
0.0
  0
LINE
  5
11E
  8
1
  6
CONTINUOUS
 62
     7
 10
40.90904879217271
 20
68.94235444835562
 30
0.0
 11
41.72622544127401
 21
68.94235444835562
 31
0.0
  0
POLYLINE
  5
11F
  8
1
  6
CONTINUOUS
 62
     7
 66
     1
 10
0.0
 20
0.0
 30
0.0
  0
VERTEX
  5
120
  8
1
  6
CONTINUOUS
 62
     7
 10
38.42513494730761
 20
70.74103880120458
 30
0.0
  0
VERTEX
  5
121
  8
1
  6
CONTINUOUS
 62
     7
 10
38.03101602379502
 20
70.1522719827754
 30
0.0
  0
VERTEX
  5
122
  8
1
  6
CONTINUOUS
 62
     7
 10
37.73749388845172
 20
69.53146577633339
 30
0.0
  0
VERTEX
  5
123
  8
1
  6
CONTINUOUS
 62
     7
 10
37.54181246488952
 20
68.84416922702604
 30
0.0
  0
VERTEX
  5
124
  8
1
  6
CONTINUOUS
 62
     7
 10
37.44328273401143
 20
68.1568726777187
 30
0.0
  0
SEQEND
  5
125
  8
1
  6
CONTINUOUS
 62
     7
  0
LINE
  5
126
  8
1
  6
CONTINUOUS
 62
     7
 10
39.43730400087404
 20
65.14895980954702
 30
0.0
 11
39.43730400087404
 21
70.74103880120458
 31
0.0
  0
POLYLINE
  5
127
  8
1
  6
CONTINUOUS
 62
     7
 66
     1
 10
0.0
 20
0.0
 30
0.0
  0
VERTEX
  5
128
  8
1
  6
CONTINUOUS
 62
     7
 10
37.73749388845172
 20
69.53146577633339
 30
0.0
  0
VERTEX
  5
129
  8
1
  6
CONTINUOUS
 62
     7
 10
39.43730400087404
 20
67.96188027325354
 30
0.0
  0
VERTEX
  5
12A
  8
1
  6
CONTINUOUS
 62
     7
 10
37.73749388845172
 20
66.35887734396675
 30
0.0
  0
SEQEND
  5
12B
  8
1
  6
CONTINUOUS
 62
     7
  0
POLYLINE
  5
12C
  8
1
  6
CONTINUOUS
 62
     7
 66
     1
 10
0.0
 20
0.0
 30
0.0
  0
VERTEX
  5
12D
  8
1
  6
CONTINUOUS
 62
     7
 10
37.44328273401143
 20
67.73243691393589
 30
0.0
  0
VERTEX
  5
12E
  8
1
  6
CONTINUOUS
 62
     7
 10
37.54181246488952
 20
67.04514036462854
 30
0.0
  0
VERTEX
  5
12F
  8
1
  6
CONTINUOUS
 62
     7
 10
37.73749388845172
 20
66.35887734396675
 30
0.0
  0
VERTEX
  5
130
  8
1
  6
CONTINUOUS
 62
     7
 10
38.03101602379502
 20
65.73738211842772
 30
0.0
  0
VERTEX
  5
131
  8
1
  6
CONTINUOUS
 62
     7
 10
38.42513494730761
 20
65.14895980954702
 30
0.0
  0
SEQEND
  5
132
  8
1
  6
CONTINUOUS
 62
     7
  0
POLYLINE
  5
133
  8
1
  6
CONTINUOUS
 62
     7
 66
     1
 10
0.0
 20
0.0
 30
0.0
  0
VERTEX
  5
134
  8
1
  6
CONTINUOUS
 62
     7
 10
37.44328273401143
 20
67.73243691393589
 30
0.0
  0
VERTEX
  5
135
  8
1
  6
CONTINUOUS
 62
     7
 10
37.60658026001224
 20
67.79720470905858
 30
0.0
  0
VERTEX
  5
136
  8
1
  6
CONTINUOUS
 62
     7
 10
37.67134805513493
 20
67.96188027325354
 30
0.0
  0
VERTEX
  5
137
  8
1
  6
CONTINUOUS
 62
     7
 10
37.60658026001224
 20
68.0917603730474
 30
0.0
  0
VERTEX
  5
138
  8
1
  6
CONTINUOUS
 62
     7
 10
37.44328273401143
 20
68.1568726777187
 30
0.0
  0
SEQEND
  5
139
  8
1
  6
CONTINUOUS
 62
     7
  0
LINE
  5
13A
  8
1
  6
CONTINUOUS
 62
     7
 10
39.43730400087404
 20
65.14895980954702
 30
0.0
 11
38.42513494730761
 21
65.14895980954702
 31
0.0
  0
LINE
  5
13B
  8
1
  6
CONTINUOUS
 62
     7
 10
39.43730400087404
 20
70.74103880120458
 30
0.0
 11
38.42513494730761
 21
70.74103880120458
 31
0.0
  0
LINE
  5
13C
  8
1
  6
CONTINUOUS
 62
     7
 10
39.43730400087404
 20
69.30202241701573
 30
0.0
 11
39.92857461707064
 21
69.30202241701573
 31
0.0
  0
LINE
  5
13D
  8
1
  6
CONTINUOUS
 62
     7
 10
39.43730400087404
 20
66.58728717463885
 30
0.0
 11
39.92857461707064
 21
66.58728717463885
 31
0.0
  0
POLYLINE
  5
13E
  8
1
  6
CONTINUOUS
 62
     7
 66
     1
 10
0.0
 20
0.0
 30
0.0
  0
VERTEX
  5
13F
  8
1
  6
CONTINUOUS
 62
     7
 10
-103.3726364949734
 20
49.32494649435586
 30
0.0
 42
0.0250999052455615
  0
VERTEX
  5
140
  8
1
  6
CONTINUOUS
 62
     7
 10
-108.1727044341715
 20
49.08383209012464
 30
0.0
 42
0.0253273003584423
  0
VERTEX
  5
141
  8
1
  6
CONTINUOUS
 62
     7
 10
-112.8815994949734
 20
48.36722749435587
 30
0.0
 42
0.0217024532813998
  0
VERTEX
  5
142
  8
1
  6
CONTINUOUS
 62
     7
 10
-116.8288560666386
 20
47.3800546601741
 30
0.0
 42
0.0217116970898093
  0
VERTEX
  5
143
  8
1
  6
CONTINUOUS
 62
     7
 10
-120.6733194949734
 20
46.05515449435584
 30
0.0
 42
0.0371272025274135
  0
VERTEX
  5
144
  8
1
  6
CONTINUOUS
 62
     7
 10
-126.9455877464501
 20
43.0290463906755
 30
0.0
 42
0.0369832480911358
  0
VERTEX
  5
145
  8
1
  6
CONTINUOUS
 62
     7
 10
-132.7247774949734
 20
39.09503349435584
 30
0.0
 42
0.0274067300355434
  0
VERTEX
  5
146
  8
1
  6
CONTINUOUS
 62
     7
 10
-136.6097047359292
 20
35.6434380971831
 30
0.0
 42
0.0274195415259633
  0
VERTEX
  5
147
  8
1
  6
CONTINUOUS
 62
     7
 10
-140.0944224949734
 20
31.78671549435587
 30
0.0
 42
0.0416834674195155
  0
VERTEX
  5
148
  8
1
  6
CONTINUOUS
 62
     7
 10
-144.5160504599937
 20
25.2766085176862
 30
0.0
 42
0.0418816180732777
  0
VERTEX
  5
149
  8
1
  6
CONTINUOUS
 62
     7
 10
-147.7781674949734
 20
18.15607149435583
 30
0.0
 42
0.0214807963944458
  0
VERTEX
  5
14A
  8
1
  6
CONTINUOUS
 62
     7
 10
-148.9753183201239
 20
14.32570520745485
 30
0.0
 42
0.021453910850612
  0
VERTEX
  5
14B
  8
1
  6
CONTINUOUS
 62
     7
 10
-149.8405424949734
 20
10.40252949435586
 30
0.0
 42
0.0218653188859392
  0
VERTEX
  5
14C
  8
1
  6
CONTINUOUS
 62
     7
 10
-150.3752544002193
 20
6.326574498139845
 30
0.0
 42
0.0216829837802026
  0
VERTEX
  5
14D
  8
1
  6
CONTINUOUS
 62
     7
 10
-150.5549414949734
 20
2.18501649435587
 30
0.0
 42
0.0251236303097772
  0
VERTEX
  5
14E
  8
1
  6
CONTINUOUS
 62
     7
 10
-150.3136140677483
 20
-2.61474968496622
 30
0.0
 42
0.0253493167189462
  0
VERTEX
  5
14F
  8
1
  6
CONTINUOUS
 62
     7
 10
-149.5963764949734
 20
-7.323408505643998
 30
0.0
 42
0.0217188855601768
  0
VERTEX
  5
150
  8
1
  6
CONTINUOUS
 62
     7
 10
-148.6084100438331
 20
-11.27022197092014
 30
0.0
 42
0.0217280085672375
  0
VERTEX
  5
151
  8
1
  6
CONTINUOUS
 62
     7
 10
-147.2822564949734
 20
-15.11481350564398
 30
0.0
 42
0.0371478614549362
  0
VERTEX
  5
152
  8
1
  6
CONTINUOUS
 62
     7
 10
-144.2536302620572
 20
-21.38661218106095
 30
0.0
 42
0.0369942379815033
  0
VERTEX
  5
153
  8
1
  6
CONTINUOUS
 62
     7
 10
-140.3159474949735
 20
-27.16599650564411
 30
0.0
 42
0.0273963109800103
  0
VERTEX
  5
154
  8
1
  6
CONTINUOUS
 62
     7
 10
-136.8631497243913
 20
-31.04899774365647
 30
0.0
 42
0.0274292643383635
  0
VERTEX
  5
155
  8
1
  6
CONTINUOUS
 62
     7
 10
-133.0010984949734
 20
-34.53560050564417
 30
0.0
 42
0.0416691631866571
  0
VERTEX
  5
156
  8
1
  6
CONTINUOUS
 62
     7
 10
-126.48557966392
 20
-38.95701562850194
 30
0.0
 42
0.0418570698726059
  0
VERTEX
  5
157
  8
1
  6
CONTINUOUS
 62
     7
 10
-119.3581944949734
 20
-42.21941650564413
 30
0.0
 42
0.0214640743229235
  0
VERTEX
  5
158
  8
1
  6
CONTINUOUS
 62
     7
 10
-115.5246203281851
 20
-43.41652381969562
 30
0.0
 42
0.0214377001626937
  0
VERTEX
  5
159
  8
1
  6
CONTINUOUS
 62
     7
 10
-111.5976304949735
 20
-44.28183650564414
 30
0.0
 42
0.0218468935131828
  0
VERTEX
  5
15A
  8
1
  6
CONTINUOUS
 62
     7
 10
-107.5179605885098
 20
-44.81656442479047
 30
0.0
 42
0.0216637926133829
  0
VERTEX
  5
15B
  8
1
  6
CONTINUOUS
 62
     7
 10
-103.3726364949734
 20
-44.99625550564414
 30
0.0
 42
0.0251457269031701
  0
VERTEX
  5
15C
  8
1
  6
CONTINUOUS
 62
     7
 10
-98.57709650655093
 20
-44.75492823477691
 30
0.0
 42
0.025371322157088
  0
VERTEX
  5
15D
  8
1
  6
CONTINUOUS
 62
     7
 10
-93.87244749497344
 20
-44.03766450564418
 30
0.0
 42
0.0217397886107388
  0
VERTEX
  5
15E
  8
1
  6
CONTINUOUS
 62
     7
 10
-89.92851967516887
 20
-43.04950605287758
 30
0.0
 42
0.021739891755112
  0
VERTEX
  5
15F
  8
1
  6
CONTINUOUS
 62
     7
 10
-86.08788049497339
 20
-41.72349650564416
 30
0.0
 42
0.0371678872671632
  0
VERTEX
  5
160
  8
1
  6
CONTINUOUS
 62
     7
 10
-79.82211112125219
 20
-38.69509850570164
 30
0.0
 42
0.0370070269806924
  0
VERTEX
  5
161
  8
1
  6
CONTINUOUS
 62
     7
 10
-74.04742449497343
 20
-34.7571255056442
 30
0.0
 42
0.0274191539317752
  0
VERTEX
  5
162
  8
1
  6
CONTINUOUS
 62
     7
 10
-70.16538650557072
 20
-31.30181797074601
 30
0.0
 42
0.0274063059277809
  0
VERTEX
  5
163
  8
1
  6
CONTINUOUS
 62
     7
 10
-66.68447149497345
 20
-27.44231450564422
 30
0.0
 42
0.0416547407618871
  0
VERTEX
  5
164
  8
1
  6
CONTINUOUS
 62
     7
 10
-62.26732387452651
 20
-20.92734959422969
 30
0.0
 42
0.0418323753502506
  0
VERTEX
  5
165
  8
1
  6
CONTINUOUS
 62
     7
 10
-59.00767049497342
 20
-13.79973350564427
 30
0.0
 42
0.0214486400591237
  0
VERTEX
  5
166
  8
1
  6
CONTINUOUS
 62
     7
 10
-57.81166241606434
 20
-9.966300369946362
 30
0.0
 42
0.0214200838545854
  0
VERTEX
  5
167
  8
1
  6
CONTINUOUS
 62
     7
 10
-56.9471524949734
 20
-6.03950150564425
 30
0.0
 42
0.021828164880735
  0
VERTEX
  5
168
  8
1
  6
CONTINUOUS
 62
     7
 10
-56.41292295740292
 20
-1.960096721889431
 30
0.0
 42
0.021645115002313
  0
VERTEX
  5
169
  8
1
  6
CONTINUOUS
 62
     7
 10
-56.2333944949734
 20
2.185016494355864
 30
0.0
 42
0.0251224392509285
  0
VERTEX
  5
16A
  8
1
  6
CONTINUOUS
 62
     7
 10
-56.47450566114428
 20
6.980709094049923
 30
0.0
 42
0.025348543826833
  0
VERTEX
  5
16B
  8
1
  6
CONTINUOUS
 62
     7
 10
-57.1910984949734
 20
11.6853344943558
 30
0.0
 42
0.021720521109571
  0
VERTEX
  5
16C
  8
1
  6
CONTINUOUS
 62
     7
 10
-58.17829275722197
 20
15.62914195201711
 30
0.0
 42
0.0217256311732935
  0
VERTEX
  5
16D
  8
1
  6
CONTINUOUS
 62
     7
 10
-59.50313549497341
 20
19.47001049435585
 30
0.0
 42
0.0371474406346383
  0
VERTEX
  5
16E
  8
1
  6
CONTINUOUS
 62
     7
 10
-62.52901509340991
 20
25.7363160425346
 30
0.0
 42
0.0369946164068969
  0
VERTEX
  5
16F
  8
1
  6
CONTINUOUS
 62
     7
 10
-66.46314749497341
 20
31.5106414943558
 30
0.0
 42
0.0273950963858033
  0
VERTEX
  5
170
  8
1
  6
CONTINUOUS
 62
     7
 10
-69.91261751854077
 20
35.39000754312377
 30
0.0
 42
0.0274311036530794
  0
VERTEX
  5
171
  8
1
  6
CONTINUOUS
 62
     7
 10
-73.77135549497338
 20
38.87370649435584
 30
0.0
 42
0.0416687318248475
  0
VERTEX
  5
172
  8
1
  6
CONTINUOUS
 62
     7
 10
-80.28077447704814
 20
43.29107375873801
 30
0.0
 42
0.0418586530288603
  0
VERTEX
  5
173
  8
1
  6
CONTINUOUS
 62
     7
 10
-87.40179949497337
 20
46.55062649435584
 30
0.0
 42
0.0214623552695959
  0
VERTEX
  5
174
  8
1
  6
CONTINUOUS
 62
     7
 10
-91.23149619817507
 20
47.74655511946165
 30
0.0
 42
0.0214399394653276
  0
VERTEX
  5
175
  8
1
  6
CONTINUOUS
 62
     7
 10
-95.1552344949734
 20
48.61117849435585
 30
0.0
 42
0.0218470676583815
  0
VERTEX
  5
176
  8
1
  6
CONTINUOUS
 62
     7
 10
-99.23112789941774
 20
49.14541866210706
 30
0.0
 42
0.0216642333905269
  0
VERTEX
  5
177
  8
1
  6
CONTINUOUS
 62
     7
 10
-103.3726364949734
 20
49.32494649435588
 30
0.0
  0
SEQEND
  5
178
  8
1
  6
CONTINUOUS
 62
     7
  0
POLYLINE
  5
179
  8
1
  6
CONTINUOUS
 62
     7
 66
     1
 10
0.0
 20
0.0
 30
0.0
  0
VERTEX
  5
17A
  8
1
  6
CONTINUOUS
 62
     7
 10
-103.3726364949734
 20
49.32494649435586
 30
0.0
 42
0.0250999052455615
  0
VERTEX
  5
17B
  8
1
  6
CONTINUOUS
 62
     7
 10
-108.1727044341715
 20
49.08383209012464
 30
0.0
 42
0.0253273003584423
  0
VERTEX
  5
17C
  8
1
  6
CONTINUOUS
 62
     7
 10
-112.8815994949734
 20
48.36722749435587
 30
0.0
 42
0.0217024532813998
  0
VERTEX
  5
17D
  8
1
  6
CONTINUOUS
 62
     7
 10
-116.8288560666386
 20
47.3800546601741
 30
0.0
 42
0.0217116970898093
  0
VERTEX
  5
17E
  8
1
  6
CONTINUOUS
 62
     7
 10
-120.6733194949734
 20
46.05515449435584
 30
0.0
 42
0.0371272025274135
  0
VERTEX
  5
17F
  8
1
  6
CONTINUOUS
 62
     7
 10
-126.9455877464501
 20
43.0290463906755
 30
0.0
 42
0.0369832480911358
  0
VERTEX
  5
180
  8
1
  6
CONTINUOUS
 62
     7
 10
-132.7247774949734
 20
39.09503349435584
 30
0.0
 42
0.0274067300355434
  0
VERTEX
  5
181
  8
1
  6
CONTINUOUS
 62
     7
 10
-136.6097047359292
 20
35.6434380971831
 30
0.0
 42
0.0274195415259633
  0
VERTEX
  5
182
  8
1
  6
CONTINUOUS
 62
     7
 10
-140.0944224949734
 20
31.78671549435587
 30
0.0
 42
0.0416834674195155
  0
VERTEX
  5
183
  8
1
  6
CONTINUOUS
 62
     7
 10
-144.5160504599937
 20
25.2766085176862
 30
0.0
 42
0.0418816180732777
  0
VERTEX
  5
184
  8
1
  6
CONTINUOUS
 62
     7
 10
-147.7781674949734
 20
18.15607149435583
 30
0.0
 42
0.0214807963944458
  0
VERTEX
  5
185
  8
1
  6
CONTINUOUS
 62
     7
 10
-148.9753183201239
 20
14.32570520745485
 30
0.0
 42
0.021453910850612
  0
VERTEX
  5
186
  8
1
  6
CONTINUOUS
 62
     7
 10
-149.8405424949734
 20
10.40252949435586
 30
0.0
 42
0.0218653188859392
  0
VERTEX
  5
187
  8
1
  6
CONTINUOUS
 62
     7
 10
-150.3752544002193
 20
6.326574498139845
 30
0.0
 42
0.0216829837802026
  0
VERTEX
  5
188
  8
1
  6
CONTINUOUS
 62
     7
 10
-150.5549414949734
 20
2.18501649435587
 30
0.0
 42
0.0251236303097772
  0
VERTEX
  5
189
  8
1
  6
CONTINUOUS
 62
     7
 10
-150.3136140677483
 20
-2.61474968496622
 30
0.0
 42
0.0253493167189462
  0
VERTEX
  5
18A
  8
1
  6
CONTINUOUS
 62
     7
 10
-149.5963764949734
 20
-7.323408505643998
 30
0.0
 42
0.0217188855601768
  0
VERTEX
  5
18B
  8
1
  6
CONTINUOUS
 62
     7
 10
-148.6084100438331
 20
-11.27022197092014
 30
0.0
 42
0.0217280085672375
  0
VERTEX
  5
18C
  8
1
  6
CONTINUOUS
 62
     7
 10
-147.2822564949734
 20
-15.11481350564398
 30
0.0
 42
0.0371478614549362
  0
VERTEX
  5
18D
  8
1
  6
CONTINUOUS
 62
     7
 10
-144.2536302620572
 20
-21.38661218106095
 30
0.0
 42
0.0369942379815033
  0
VERTEX
  5
18E
  8
1
  6
CONTINUOUS
 62
     7
 10
-140.3159474949735
 20
-27.16599650564411
 30
0.0
 42
0.0273963109800103
  0
VERTEX
  5
18F
  8
1
  6
CONTINUOUS
 62
     7
 10
-136.8631497243913
 20
-31.04899774365647
 30
0.0
 42
0.0274292643383635
  0
VERTEX
  5
190
  8
1
  6
CONTINUOUS
 62
     7
 10
-133.0010984949734
 20
-34.53560050564417
 30
0.0
 42
0.0416691631866571
  0
VERTEX
  5
191
  8
1
  6
CONTINUOUS
 62
     7
 10
-126.48557966392
 20
-38.95701562850194
 30
0.0
 42
0.0418570698726059
  0
VERTEX
  5
192
  8
1
  6
CONTINUOUS
 62
     7
 10
-119.3581944949734
 20
-42.21941650564413
 30
0.0
 42
0.0214640743229235
  0
VERTEX
  5
193
  8
1
  6
CONTINUOUS
 62
     7
 10
-115.5246203281851
 20
-43.41652381969562
 30
0.0
 42
0.0214377001626937
  0
VERTEX
  5
194
  8
1
  6
CONTINUOUS
 62
     7
 10
-111.5976304949735
 20
-44.28183650564414
 30
0.0
 42
0.0218468935131828
  0
VERTEX
  5
195
  8
1
  6
CONTINUOUS
 62
     7
 10
-107.5179605885098
 20
-44.81656442479047
 30
0.0
 42
0.0216637926133829
  0
VERTEX
  5
196
  8
1
  6
CONTINUOUS
 62
     7
 10
-103.3726364949734
 20
-44.99625550564414
 30
0.0
 42
0.0251457269031701
  0
VERTEX
  5
197
  8
1
  6
CONTINUOUS
 62
     7
 10
-98.57709650655093
 20
-44.75492823477691
 30
0.0
 42
0.025371322157088
  0
VERTEX
  5
198
  8
1
  6
CONTINUOUS
 62
     7
 10
-93.87244749497344
 20
-44.03766450564418
 30
0.0
 42
0.0217397886107388
  0
VERTEX
  5
199
  8
1
  6
CONTINUOUS
 62
     7
 10
-89.92851967516887
 20
-43.04950605287758
 30
0.0
 42
0.021739891755112
  0
VERTEX
  5
19A
  8
1
  6
CONTINUOUS
 62
     7
 10
-86.08788049497339
 20
-41.72349650564416
 30
0.0
 42
0.0371678872671632
  0
VERTEX
  5
19B
  8
1
  6
CONTINUOUS
 62
     7
 10
-79.82211112125219
 20
-38.69509850570164
 30
0.0
 42
0.0370070269806924
  0
VERTEX
  5
19C
  8
1
  6
CONTINUOUS
 62
     7
 10
-74.04742449497343
 20
-34.7571255056442
 30
0.0
 42
0.0274191539317752
  0
VERTEX
  5
19D
  8
1
  6
CONTINUOUS
 62
     7
 10
-70.16538650557072
 20
-31.30181797074601
 30
0.0
 42
0.0274063059277809
  0
VERTEX
  5
19E
  8
1
  6
CONTINUOUS
 62
     7
 10
-66.68447149497345
 20
-27.44231450564422
 30
0.0
 42
0.0416547407618871
  0
VERTEX
  5
19F
  8
1
  6
CONTINUOUS
 62
     7
 10
-62.26732387452651
 20
-20.92734959422969
 30
0.0
 42
0.0418323753502506
  0
VERTEX
  5
1A0
  8
1
  6
CONTINUOUS
 62
     7
 10
-59.00767049497342
 20
-13.79973350564427
 30
0.0
 42
0.0214486400591237
  0
VERTEX
  5
1A1
  8
1
  6
CONTINUOUS
 62
     7
 10
-57.81166241606434
 20
-9.966300369946362
 30
0.0
 42
0.0214200838545854
  0
VERTEX
  5
1A2
  8
1
  6
CONTINUOUS
 62
     7
 10
-56.9471524949734
 20
-6.03950150564425
 30
0.0
 42
0.021828164880735
  0
VERTEX
  5
1A3
  8
1
  6
CONTINUOUS
 62
     7
 10
-56.41292295740292
 20
-1.960096721889431
 30
0.0
 42
0.021645115002313
  0
VERTEX
  5
1A4
  8
1
  6
CONTINUOUS
 62
     7
 10
-56.2333944949734
 20
2.185016494355864
 30
0.0
 42
0.0251224392509285
  0
VERTEX
  5
1A5
  8
1
  6
CONTINUOUS
 62
     7
 10
-56.47450566114428
 20
6.980709094049923
 30
0.0
 42
0.025348543826833
  0
VERTEX
  5
1A6
  8
1
  6
CONTINUOUS
 62
     7
 10
-57.1910984949734
 20
11.6853344943558
 30
0.0
 42
0.021720521109571
  0
VERTEX
  5
1A7
  8
1
  6
CONTINUOUS
 62
     7
 10
-58.17829275722197
 20
15.62914195201711
 30
0.0
 42
0.0217256311732935
  0
VERTEX
  5
1A8
  8
1
  6
CONTINUOUS
 62
     7
 10
-59.50313549497341
 20
19.47001049435585
 30
0.0
 42
0.0371474406346383
  0
VERTEX
  5
1A9
  8
1
  6
CONTINUOUS
 62
     7
 10
-62.52901509340991
 20
25.7363160425346
 30
0.0
 42
0.0369946164068969
  0
VERTEX
  5
1AA
  8
1
  6
CONTINUOUS
 62
     7
 10
-66.46314749497341
 20
31.5106414943558
 30
0.0
 42
0.0273950963858033
  0
VERTEX
  5
1AB
  8
1
  6
CONTINUOUS
 62
     7
 10
-69.91261751854077
 20
35.39000754312377
 30
0.0
 42
0.0274311036530794
  0
VERTEX
  5
1AC
  8
1
  6
CONTINUOUS
 62
     7
 10
-73.77135549497338
 20
38.87370649435584
 30
0.0
 42
0.0416687318248475
  0
VERTEX
  5
1AD
  8
1
  6
CONTINUOUS
 62
     7
 10
-80.28077447704814
 20
43.29107375873801
 30
0.0
 42
0.0418586530288603
  0
VERTEX
  5
1AE
  8
1
  6
CONTINUOUS
 62
     7
 10
-87.40179949497337
 20
46.55062649435584
 30
0.0
 42
0.0214623552695959
  0
VERTEX
  5
1AF
  8
1
  6
CONTINUOUS
 62
     7
 10
-91.23149619817507
 20
47.74655511946165
 30
0.0
 42
0.0214399394653276
  0
VERTEX
  5
1B0
  8
1
  6
CONTINUOUS
 62
     7
 10
-95.1552344949734
 20
48.61117849435585
 30
0.0
 42
0.0218470676583815
  0
VERTEX
  5
1B1
  8
1
  6
CONTINUOUS
 62
     7
 10
-99.23112789941774
 20
49.14541866210706
 30
0.0
 42
0.0216642333905269
  0
VERTEX
  5
1B2
  8
1
  6
CONTINUOUS
 62
     7
 10
-103.3726364949734
 20
49.32494649435588
 30
0.0
  0
SEQEND
  5
1B3
  8
1
  6
CONTINUOUS
 62
     7
  0
POLYLINE
  5
1B4
  8
1
  6
CONTINUOUS
 62
     7
 66
     1
 10
0.0
 20
0.0
 30
0.0
  0
VERTEX
  5
1B5
  8
1
  6
CONTINUOUS
 62
     7
 10
-56.19205349497336
 20
2.018273494355856
 30
0.0
 42
-0.0248452894714629
  0
VERTEX
  5
1B6
  8
1
  6
CONTINUOUS
 62
     7
 10
-56.42808899681135
 20
-2.728900011703098
 30
0.0
 42
-0.0256285636913478
  0
VERTEX
  5
1B7
  8
1
  6
CONTINUOUS
 62
     7
 10
-57.15062949497339
 20
-7.490106505644208
 30
0.0
 42
-0.0175448259797158
  0
VERTEX
  5
1B8
  8
1
  6
CONTINUOUS
 62
     7
 10
-57.92228402975984
 20
-10.68570477470059
 30
0.0
 42
-0.0259034829230594
  0
VERTEX
  5
1B9
  8
1
  6
CONTINUOUS
 62
     7
 10
-59.46476049497335
 20
-15.28141250564409
 30
0.0
 42
-0.0362711523362841
  0
VERTEX
  5
1BA
  8
1
  6
CONTINUOUS
 62
     7
 10
-62.41104456034163
 20
-21.40998385165671
 30
0.0
 42
-0.0378710831672516
  0
VERTEX
  5
1BB
  8
1
  6
CONTINUOUS
 62
     7
 10
-66.4310224949734
 20
-27.33233650564419
 30
0.0
 42
-0.0113522428067832
  0
VERTEX
  5
1BC
  8
1
  6
CONTINUOUS
 62
     7
 10
-67.81013792117453
 20
-28.98722960513849
 30
0.0
 42
-0.0434866204106116
  0
VERTEX
  5
1BD
  8
1
  6
CONTINUOUS
 62
     7
 10
-73.74572249497339
 20
-34.7017205056442
 30
0.0
 42
-0.0407656495554862
  0
VERTEX
  5
1BE
  8
1
  6
CONTINUOUS
 62
     7
 10
-80.11319996998114
 20
-39.03944153009801
 30
0.0
 42
-0.0427592825112868
  0
VERTEX
  5
1BF
  8
1
  6
CONTINUOUS
 62
     7
 10
-87.38810549497339
 20
-42.38524850564416
 30
0.0
 42
-0.0198554136437496
  0
VERTEX
  5
1C0
  8
1
  6
CONTINUOUS
 62
     7
 10
-90.93051300721955
 20
-43.50395917831833
 30
0.0
 42
-0.0230463718204624
  0
VERTEX
  5
1C1
  8
1
  6
CONTINUOUS
 62
     7
 10
-95.14822949497336
 20
-44.44757850564412
 30
0.0
 42
-0.0215908249292539
  0
VERTEX
  5
1C2
  8
1
  6
CONTINUOUS
 62
     7
 10
-99.17914537429394
 20
-44.97802790562648
 30
0.0
 42
-0.0219205983600769
  0
VERTEX
  5
1C3
  8
1
  6
CONTINUOUS
 62
     7
 10
-103.3726364949734
 20
-45.16196450564414
 30
0.0
 42
-0.0248434148186736
  0
VERTEX
  5
1C4
  8
1
  6
CONTINUOUS
 62
     7
 10
-108.1202061878772
 20
-44.92592713797693
 30
0.0
 42
-0.0256262307978638
  0
VERTEX
  5
1C5
  8
1
  6
CONTINUOUS
 62
     7
 10
-112.8815994949734
 20
-44.20341750564414
 30
0.0
 42
-0.0176665424667623
  0
VERTEX
  5
1C6
  8
1
  6
CONTINUOUS
 62
     7
 10
-116.0995396148437
 20
-43.42559641442399
 30
0.0
 42
-0.0257794791093234
  0
VERTEX
  5
1C7
  8
1
  6
CONTINUOUS
 62
     7
 10
-120.6733194949734
 20
-41.88934950564416
 30
0.0
 42
-0.0362647796860602
  0
VERTEX
  5
1C8
  8
1
  6
CONTINUOUS
 62
     7
 10
-126.8012976092125
 20
-38.94363942395756
 30
0.0
 42
-0.0378768812319071
  0
VERTEX
  5
1C9
  8
1
  6
CONTINUOUS
 62
     7
 10
-132.7247774949734
 20
-34.92323750564412
 30
0.0
 42
-0.0102314428952581
  0
VERTEX
  5
1CA
  8
1
  6
CONTINUOUS
 62
     7
 10
-134.2191268911067
 20
-33.68364722792388
 30
0.0
 42
-0.0446110939039445
  0
VERTEX
  5
1CB
  8
1
  6
CONTINUOUS
 62
     7
 10
-140.0944224949734
 20
-27.60864750564415
 30
0.0
 42
-0.0407674769342675
  0
VERTEX
  5
1CC
  8
1
  6
CONTINUOUS
 62
     7
 10
-144.4322866671694
 20
-21.24120541954237
 30
0.0
 42
-0.0427608431228043
  0
VERTEX
  5
1CD
  8
1
  6
CONTINUOUS
 62
     7
 10
-147.7781674949734
 20
-13.96635350564411
 30
0.0
 42
-0.0198638268514409
  0
VERTEX
  5
1CE
  8
1
  6
CONTINUOUS
 62
     7
 10
-148.8972822799411
 20
-10.42255464800269
 30
0.0
 42
-0.023039288052335
  0
VERTEX
  5
1CF
  8
1
  6
CONTINUOUS
 62
     7
 10
-149.8405424949734
 20
-6.206211505644077
 30
0.0
 42
-0.021591368215208
  0
VERTEX
  5
1D0
  8
1
  6
CONTINUOUS
 62
     7
 10
-150.3710034598501
 20
-2.175247867637879
 30
0.0
 42
-0.0219206877971696
  0
VERTEX
  5
1D1
  8
1
  6
CONTINUOUS
 62
     7
 10
-150.5549414949734
 20
2.018273494355873
 30
0.0
 42
-0.0248442591638154
  0
VERTEX
  5
1D2
  8
1
  6
CONTINUOUS
 62
     7
 10
-150.3188922600897
 20
6.765920324078364
 30
0.0
 42
-0.0256263586923841
  0
VERTEX
  5
1D3
  8
1
  6
CONTINUOUS
 62
     7
 10
-149.5963764949734
 20
11.52723749435575
 30
0.0
 42
-0.0176619626934589
  0
VERTEX
  5
1D4
  8
1
  6
CONTINUOUS
 62
     7
 10
-148.8187910546103
 20
14.74427538466175
 30
0.0
 42
-0.0257851624917696
  0
VERTEX
  5
1D5
  8
1
  6
CONTINUOUS
 62
     7
 10
-147.2822564949734
 20
19.31895649435577
 30
0.0
 42
-0.0362661855621099
  0
VERTEX
  5
1D6
  8
1
  6
CONTINUOUS
 62
     7
 10
-144.3364293680113
 20
25.44700446807327
 30
0.0
 42
-0.0378772673493174
  0
VERTEX
  5
1D7
  8
1
  6
CONTINUOUS
 62
     7
 10
-140.3159474949735
 20
31.37041549435579
 30
0.0
 42
-0.0110352420822662
  0
VERTEX
  5
1D8
  8
1
  6
CONTINUOUS
 62
     7
 10
-138.9763891825287
 20
32.97995502263011
 30
0.0
 42
-0.04380667272557
  0
VERTEX
  5
1D9
  8
1
  6
CONTINUOUS
 62
     7
 10
-133.0010984949734
 20
38.74006049435582
 30
0.0
 42
-0.0407638346158977
  0
VERTEX
  5
1DA
  8
1
  6
CONTINUOUS
 62
     7
 10
-126.6340239663419
 20
43.07756569348153
 30
0.0
 42
-0.042763802110446
  0
VERTEX
  5
1DB
  8
1
  6
CONTINUOUS
 62
     7
 10
-119.3581944949734
 20
46.42380549435585
 30
0.0
 42
-0.0198759635678796
  0
VERTEX
  5
1DC
  8
1
  6
CONTINUOUS
 62
     7
 10
-115.8119149008136
 20
47.54354596069134
 30
0.0
 42
-0.0230256962511085
  0
VERTEX
  5
1DD
  8
1
  6
CONTINUOUS
 62
     7
 10
-111.5976304949734
 20
48.48617949435586
 30
0.0
 42
-0.0215907751171827
  0
VERTEX
  5
1DE
  8
1
  6
CONTINUOUS
 62
     7
 10
-107.5663359584285
 20
49.01664835378721
 30
0.0
 42
-0.0219188007242484
  0
VERTEX
  5
1DF
  8
1
  6
CONTINUOUS
 62
     7
 10
-103.3726364949734
 20
49.20057849435588
 30
0.0
 42
-0.0248451593594294
  0
VERTEX
  5
1E0
  8
1
  6
CONTINUOUS
 62
     7
 10
-98.62552545206034
 20
48.96454733586742
 30
0.0
 42
-0.0256283731618611
  0
VERTEX
  5
1E1
  8
1
  6
CONTINUOUS
 62
     7
 10
-93.86434049497342
 20
48.24201449435589
 30
0.0
 42
-0.0175408297329254
  0
VERTEX
  5
1E2
  8
1
  6
CONTINUOUS
 62
     7
 10
-90.66946418975698
 20
47.47056390735496
 30
0.0
 42
-0.0259074589416679
  0
VERTEX
  5
1E3
  8
1
  6
CONTINUOUS
 62
     7
 10
-86.07304449497349
 20
45.92789349435586
 30
0.0
 42
-0.0362708124216225
  0
VERTEX
  5
1E4
  8
1
  6
CONTINUOUS
 62
     7
 10
-79.94452242193327
 20
42.9816462719752
 30
0.0
 42
-0.0378719130057809
  0
VERTEX
  5
1E5
  8
1
  6
CONTINUOUS
 62
     7
 10
-74.02203649497342
 20
38.96158449435584
 30
0.0
 42
-0.0115864559426191
  0
VERTEX
  5
1E6
  8
1
  6
CONTINUOUS
 62
     7
 10
-72.33366984420144
 20
37.5532305567277
 30
0.0
 42
-0.0432528336287367
  0
VERTEX
  5
1E7
  8
1
  6
CONTINUOUS
 62
     7
 10
-66.65254349497343
 20
31.64673649435587
 30
0.0
 42
-0.0407636669257242
  0
VERTEX
  5
1E8
  8
1
  6
CONTINUOUS
 62
     7
 10
-62.31498867021644
 20
25.27949960142587
 30
0.0
 42
-0.0427620541218537
  0
VERTEX
  5
1E9
  8
1
  6
CONTINUOUS
 62
     7
 10
-58.96884749497342
 20
18.0038324943559
 30
0.0
 42
-0.0198702004054495
  0
VERTEX
  5
1EA
  8
1
  6
CONTINUOUS
 62
     7
 10
-57.84937663020463
 20
14.45855892207317
 30
0.0
 42
-0.0230312310306805
  0
VERTEX
  5
1EB
  8
1
  6
CONTINUOUS
 62
     7
 10
-56.90646149497342
 20
10.2432684943559
 30
0.0
 42
-0.0215904386527243
  0
VERTEX
  5
1EC
  8
1
  6
CONTINUOUS
 62
     7
 10
-56.37599399916809
 20
6.212056957737332
 30
0.0
 42
-0.0219195078081142
  0
VERTEX
  5
1ED
  8
1
  6
CONTINUOUS
 62
     7
 10
-56.19205349497339
 20
2.018273508567404
 30
0.0
  0
SEQEND
  5
1EE
  8
1
  6
CONTINUOUS
 62
     7
  0
POLYLINE
  5
1EF
  8
1
  6
CONTINUOUS
 62
     7
 66
     1
 10
0.0
 20
0.0
 30
0.0
  0
VERTEX
  5
1F0
  8
1
  6
CONTINUOUS
 62
     7
 10
-57.6479504949734
 20
2.082352494355848
 30
0.0
 42
-0.0248437027142731
  0
VERTEX
  5
1F1
  8
1
  6
CONTINUOUS
 62
     7
 10
-57.87661248657167
 20
-2.516818206127273
 30
0.0
 42
-0.0256256903674701
  0
VERTEX
  5
1F2
  8
1
  6
CONTINUOUS
 62
     7
 10
-58.5764994949734
 20
-7.129124505644201
 30
0.0
 42
-0.0177192569209083
  0
VERTEX
  5
1F3
  8
1
  6
CONTINUOUS
 62
     7
 10
-59.33254659101619
 20
-10.25555295297448
 30
0.0
 42
-0.0257275494773125
  0
VERTEX
  5
1F4
  8
1
  6
CONTINUOUS
 62
     7
 10
-60.81815549497336
 20
-14.67701750564417
 30
0.0
 42
-0.036264460093807
  0
VERTEX
  5
1F5
  8
1
  6
CONTINUOUS
 62
     7
 10
-63.67157357581757
 20
-20.6129792160948
 30
0.0
 42
-0.0378795671001982
  0
VERTEX
  5
1F6
  8
1
  6
CONTINUOUS
 62
     7
 10
-67.56631649497339
 20
-26.35124350564417
 30
0.0
 42
-0.0109395112150405
  0
VERTEX
  5
1F7
  8
1
  6
CONTINUOUS
 62
     7
 10
-68.85235731768101
 20
-27.89709414466121
 30
0.0
 42
-0.0439032688341496
  0
VERTEX
  5
1F8
  8
1
  6
CONTINUOUS
 62
     7
 10
-74.65209449497341
 20
-33.49014150564421
 30
0.0
 42
-0.0407640993921407
  0
VERTEX
  5
1F9
  8
1
  6
CONTINUOUS
 62
     7
 10
-80.81974023471868
 20
-37.69179411536027
 30
0.0
 42
-0.042764231066642
  0
VERTEX
  5
1FA
  8
1
  6
CONTINUOUS
 62
     7
 10
-87.86774449497344
 20
-40.93324850564413
 30
0.0
 42
-0.0198770905974681
  0
VERTEX
  5
1FB
  8
1
  6
CONTINUOUS
 62
     7
 10
-91.303154616364
 20
-42.01796766917344
 30
0.0
 42
-0.0230244159937326
  0
VERTEX
  5
1FC
  8
1
  6
CONTINUOUS
 62
     7
 10
-95.38526149497342
 20
-42.93102150564417
 30
0.0
 42
-0.021590705300061
  0
VERTEX
  5
1FD
  8
1
  6
CONTINUOUS
 62
     7
 10
-99.29030815516148
 20
-43.44487318771525
 30
0.0
 42
-0.0219185300707311
  0
VERTEX
  5
1FE
  8
1
  6
CONTINUOUS
 62
     7
 10
-103.3526544949734
 20
-43.62304050564414
 30
0.0
 42
-0.0248443416725531
  0
VERTEX
  5
1FF
  8
1
  6
CONTINUOUS
 62
     7
 10
-107.9513226877505
 20
-43.39439761016298
 30
0.0
 42
-0.0256272389756531
  0
VERTEX
  5
200
  8
1
  6
CONTINUOUS
 62
     7
 10
-112.5634934949734
 20
-42.69450450564415
 30
0.0
 42
-0.0176057751093506
  0
VERTEX
  5
201
  8
1
  6
CONTINUOUS
 62
     7
 10
-115.6698607917267
 20
-41.94402564170682
 30
0.0
 42
-0.0258415121363931
  0
VERTEX
  5
202
  8
1
  6
CONTINUOUS
 62
     7
 10
-120.1110294949735
 20
-40.45286950564413
 30
0.0
 42
-0.0362682497968722
  0
VERTEX
  5
203
  8
1
  6
CONTINUOUS
 62
     7
 10
-126.0474533808267
 20
-37.59909829892059
 30
0.0
 42
-0.0378744671839404
  0
VERTEX
  5
204
  8
1
  6
CONTINUOUS
 62
     7
 10
-131.7849774949734
 20
-33.70472950564417
 30
0.0
 42
-0.0111652187289594
  0
VERTEX
  5
205
  8
1
  6
CONTINUOUS
 62
     7
 10
-133.3621503092992
 20
-32.39141151704062
 30
0.0
 42
-0.0436759383816383
  0
VERTEX
  5
206
  8
1
  6
CONTINUOUS
 62
     7
 10
-138.9238704949734
 20
-26.61891350564415
 30
0.0
 42
-0.0407633169279575
  0
VERTEX
  5
207
  8
1
  6
CONTINUOUS
 62
     7
 10
-143.1255672080431
 20
-20.45121864569785
 30
0.0
 42
-0.0427642554880684
  0
VERTEX
  5
208
  8
1
  6
CONTINUOUS
 62
     7
 10
-146.3671194949734
 20
-13.4030515056441
 30
0.0
 42
-0.0198771468709765
  0
VERTEX
  5
209
  8
1
  6
CONTINUOUS
 62
     7
 10
-147.4518747551554
 20
-9.967556832792175
 30
0.0
 42
-0.0230245584104887
  0
VERTEX
  5
20A
  8
1
  6
CONTINUOUS
 62
     7
 10
-148.3649644949734
 20
-5.885329505644101
 30
0.0
 42
-0.0215907339908761
  0
VERTEX
  5
20B
  8
1
  6
CONTINUOUS
 62
     7
 10
-148.878835565818
 20
-1.980183826696798
 30
0.0
 42
-0.0219190221020961
  0
VERTEX
  5
20C
  8
1
  6
CONTINUOUS
 62
     7
 10
-149.0570134949734
 20
2.082352494355865
 30
0.0
 42
-0.0248452647080365
  0
VERTEX
  5
20D
  8
1
  6
CONTINUOUS
 62
     7
 10
-148.8283703213029
 20
6.680855224275207
 30
0.0
 42
-0.02562877672009
  0
VERTEX
  5
20E
  8
1
  6
CONTINUOUS
 62
     7
 10
-148.1284374949734
 20
11.29307749435577
 30
0.0
 42
-0.0175109576047033
  0
VERTEX
  5
20F
  8
1
  6
CONTINUOUS
 62
     7
 10
-147.3825801858192
 20
14.38274605748603
 30
0.0
 42
-0.0259370836568992
  0
VERTEX
  5
210
  8
1
  6
CONTINUOUS
 62
     7
 10
-145.8867264949734
 20
18.84053749435576
 30
0.0
 42
-0.0362713918382977
  0
VERTEX
  5
211
  8
1
  6
CONTINUOUS
 62
     7
 10
-143.0325841746702
 20
24.7774376055241
 30
0.0
 42
-0.0378699024308663
  0
VERTEX
  5
212
  8
1
  6
CONTINUOUS
 62
     7
 10
-139.1384604949734
 20
30.51439549435577
 30
0.0
 42
-0.0111896083645036
  0
VERTEX
  5
213
  8
1
  6
CONTINUOUS
 62
     7
 10
-137.822132001509
 20
32.09500313243466
 30
0.0
 42
-0.0436490538088751
  0
VERTEX
  5
214
  8
1
  6
CONTINUOUS
 62
     7
 10
-132.0526454949734
 20
37.65325149435581
 30
0.0
 42
-0.0407669318648714
  0
VERTEX
  5
215
  8
1
  6
CONTINUOUS
 62
     7
 10
-125.8841765565658
 20
41.85543084784556
 30
0.0
 42
-0.0427581209913491
  0
VERTEX
  5
216
  8
1
  6
CONTINUOUS
 62
     7
 10
-118.8371124949734
 20
45.09647649435587
 30
0.0
 42
-0.019853959231942
  0
VERTEX
  5
217
  8
1
  6
CONTINUOUS
 62
     7
 10
-115.4058246141095
 20
46.18012547763881
 30
0.0
 42
-0.0230483197252468
  0
VERTEX
  5
218
  8
1
  6
CONTINUOUS
 62
     7
 10
-111.3197714949734
 20
47.09431849435582
 30
0.0
 42
-0.0215910427694272
  0
VERTEX
  5
219
  8
1
  6
CONTINUOUS
 62
     7
 10
-107.4149836536594
 20
47.60818016892297
 30
0.0
 42
-0.0219211880768633
  0
VERTEX
  5
21A
  8
1
  6
CONTINUOUS
 62
     7
 10
-103.3526544949734
 20
47.78636749435585
 30
0.0
 42
-0.0248445793960595
  0
VERTEX
  5
21B
  8
1
  6
CONTINUOUS
 62
     7
 10
-98.75381598972649
 20
47.55771394048857
 30
0.0
 42
-0.0256276109831884
  0
VERTEX
  5
21C
  8
1
  6
CONTINUOUS
 62
     7
 10
-94.14150449497345
 20
46.85779149435584
 30
0.0
 42
-0.0176065497547426
  0
VERTEX
  5
21D
  8
1
  6
CONTINUOUS
 62
     7
 10
-91.03495893122282
 20
46.10725695261684
 30
0.0
 42
-0.0258410238498698
  0
VERTEX
  5
21E
  8
1
  6
CONTINUOUS
 62
     7
 10
-86.59380649497336
 20
44.61608449435584
 30
0.0
 42
-0.0362679151497193
  0
VERTEX
  5
21F
  8
1
  6
CONTINUOUS
 62
     7
 10
-80.6573659672582
 20
41.76228249321743
 30
0.0
 42
-0.0378744554172945
  0
VERTEX
  5
220
  8
1
  6
CONTINUOUS
 62
     7
 10
-74.91976249497338
 20
37.86783949435585
 30
0.0
 42
-0.0110273973074021
  0
VERTEX
  5
221
  8
1
  6
CONTINUOUS
 62
     7
 10
-73.36167113866375
 20
36.57113206686674
 30
0.0
 42
-0.0438128160812004
  0
VERTEX
  5
222
  8
1
  6
CONTINUOUS
 62
     7
 10
-67.78090349497342
 20
30.78206149435585
 30
0.0
 42
-0.040765891965957
  0
VERTEX
  5
223
  8
1
  6
CONTINUOUS
 62
     7
 10
-63.57892569825426
 20
24.6139196520392
 30
0.0
 42
-0.0427601091741802
  0
VERTEX
  5
224
  8
1
  6
CONTINUOUS
 62
     7
 10
-60.33777349497341
 20
17.56663249435586
 30
0.0
 42
-0.0198578464795677
  0
VERTEX
  5
225
  8
1
  6
CONTINUOUS
 62
     7
 10
-59.25396254263674
 20
14.13469549219894
 30
0.0
 42
-0.0230442424805346
  0
VERTEX
  5
226
  8
1
  6
CONTINUOUS
 62
     7
 10
-58.33997949497338
 20
10.04936949435592
 30
0.0
 42
-0.0215908734304292
  0
VERTEX
  5
227
  8
1
  6
CONTINUOUS
 62
     7
 10
-57.82613098821182
 20
6.144609218448292
 30
0.0
 42
-0.0219206053611269
  0
VERTEX
  5
228
  8
1
  6
CONTINUOUS
 62
     7
 10
-57.64795049497343
 20
2.082352471766342
 30
0.0
  0
SEQEND
  5
229
  8
1
  6
CONTINUOUS
 62
     7
  0
POLYLINE
  5
22A
  8
1
  6
CONTINUOUS
 62
     7
 66
     1
 10
0.0
 20
0.0
 30
0.0
  0
VERTEX
  5
22B
  8
1
  6
CONTINUOUS
 62
     7
 10
-47.2885484949734
 20
2.018273494355853
 30
0.0
 42
-0.0248445346758096
  0
VERTEX
  5
22C
  8
1
  6
CONTINUOUS
 62
     7
 10
-47.56892219963954
 20
-3.620806637350376
 30
0.0
 42
-0.0256270869047108
  0
VERTEX
  5
22D
  8
1
  6
CONTINUOUS
 62
     7
 10
-48.4271304949734
 20
-9.276228505644214
 30
0.0
 42
-0.0176454491982728
  0
VERTEX
  5
22E
  8
1
  6
CONTINUOUS
 62
     7
 10
-49.34973844339922
 20
-13.09374454735027
 30
0.0
 42
-0.0258022992219893
  0
VERTEX
  5
22F
  8
1
  6
CONTINUOUS
 62
     7
 10
-51.17583749497341
 20
-18.53104250564412
 30
0.0
 42
-0.0362681633948481
  0
VERTEX
  5
230
  8
1
  6
CONTINUOUS
 62
     7
 10
-54.67505974699705
 20
-25.81009824477522
 30
0.0
 42
-0.0378758458164784
  0
VERTEX
  5
231
  8
1
  6
CONTINUOUS
 62
     7
 10
-59.45040649497339
 20
-32.84548650564423
 30
0.0
 42
-0.0114371032289781
  0
VERTEX
  5
232
  8
1
  6
CONTINUOUS
 62
     7
 10
-61.10104927541299
 20
-34.8255356350228
 30
0.0
 42
-0.0434039730485739
  0
VERTEX
  5
233
  8
1
  6
CONTINUOUS
 62
     7
 10
-68.13897249497342
 20
-41.59899150564421
 30
0.0
 42
-0.0407625189860846
  0
VERTEX
  5
234
  8
1
  6
CONTINUOUS
 62
     7
 10
-75.70156466914078
 20
-46.75087005543933
 30
0.0
 42
-0.042764382170779
  0
VERTEX
  5
235
  8
1
  6
CONTINUOUS
 62
     7
 10
-84.34399949497342
 20
-50.72558550564415
 30
0.0
 42
-0.0198760955279854
  0
VERTEX
  5
236
  8
1
  6
CONTINUOUS
 62
     7
 10
-88.55635151066089
 20
-52.05561401328279
 30
0.0
 42
-0.0230249385340599
  0
VERTEX
  5
237
  8
1
  6
CONTINUOUS
 62
     7
 10
-93.56199349497342
 20
-53.17523350564415
 30
0.0
 42
-0.021590399667953
  0
VERTEX
  5
238
  8
1
  6
CONTINUOUS
 62
     7
 10
-98.35035264250048
 20
-53.80531333472914
 30
0.0
 42
-0.0219184592917919
  0
VERTEX
  5
239
  8
1
  6
CONTINUOUS
 62
     7
 10
-103.3316394949734
 20
-54.02378350564416
 30
0.0
 42
-0.0248610488777319
  0
VERTEX
  5
23A
  8
1
  6
CONTINUOUS
 62
     7
 10
-108.9663843011375
 20
-53.74343890048393
 30
0.0
 42
-0.0256451443426567
  0
VERTEX
  5
23B
  8
1
  6
CONTINUOUS
 62
     7
 10
-114.6179954949735
 20
-52.88521850564414
 30
0.0
 42
-0.0170456311904298
  0
VERTEX
  5
23C
  8
1
  6
CONTINUOUS
 62
     7
 10
-118.3019404936692
 20
-51.99902667206823
 30
0.0
 42
-0.0264276139592676
  0
VERTEX
  5
23D
  8
1
  6
CONTINUOUS
 62
     7
 10
-123.8661694949734
 20
-50.13655150564416
 30
0.0
 42
-0.0363194628502347
  0
VERTEX
  5
23E
  8
1
  6
CONTINUOUS
 62
     7
 10
-131.1466388116762
 20
-46.63358613003657
 30
0.0
 42
-0.0378493910591634
  0
VERTEX
  5
23F
  8
1
  6
CONTINUOUS
 62
     7
 10
-138.1704034949734
 20
-41.86211250564417
 30
0.0
 42
-0.0189268940473911
  0
VERTEX
  5
240
  8
1
  6
CONTINUOUS
 62
     7
 10
-141.4025166818874
 20
-39.08271356833188
 30
0.0
 42
-0.0359038846319241
  0
VERTEX
  5
241
  8
1
  6
CONTINUOUS
 62
     7
 10
-146.9176994949734
 20
-33.1736945056441
 30
0.0
 42
-0.0407128270788349
  0
VERTEX
  5
242
  8
1
  6
CONTINUOUS
 62
     7
 10
-152.0614117630071
 20
-25.6192224658895
 30
0.0
 42
-0.0427841712313896
  0
VERTEX
  5
243
  8
1
  6
CONTINUOUS
 62
     7
 10
-156.0378524949734
 20
-16.96896850564415
 30
0.0
 42
-0.0199297338413012
  0
VERTEX
  5
244
  8
1
  6
CONTINUOUS
 62
     7
 10
-157.3707222563132
 20
-12.74283062433654
 30
0.0
 42
-0.0229457974103945
  0
VERTEX
  5
245
  8
1
  6
CONTINUOUS
 62
     7
 10
-158.4857784949734
 20
-7.751162505644098
 30
0.0
 42
-0.0215766120681519
  0
VERTEX
  5
246
  8
1
  6
CONTINUOUS
 62
     7
 10
-159.1154236380748
 20
-2.962827950102332
 30
0.0
 42
-0.0219032942502085
  0
VERTEX
  5
247
  8
1
  6
CONTINUOUS
 62
     7
 10
-159.3337324949734
 20
2.018273494355874
 30
0.0
 42
-0.0248440652535211
  0
VERTEX
  5
248
  8
1
  6
CONTINUOUS
 62
     7
 10
-159.05355659541
 20
7.653481831116943
 30
0.0
 42
-0.0256263767073093
  0
VERTEX
  5
249
  8
1
  6
CONTINUOUS
 62
     7
 10
-158.1959664949734
 20
13.30495549435575
 30
0.0
 42
-0.0176732035615094
  0
VERTEX
  5
24A
  8
1
  6
CONTINUOUS
 62
     7
 10
-157.2723393949758
 20
17.1258320999052
 30
0.0
 42
-0.0257737531462764
  0
VERTEX
  5
24B
  8
1
  6
CONTINUOUS
 62
     7
 10
-155.4492334949734
 20
22.55332549435576
 30
0.0
 42
-0.0362664432720859
  0
VERTEX
  5
24C
  8
1
  6
CONTINUOUS
 62
     7
 10
-151.9526664564198
 20
29.82705517118289
 30
0.0
 42
-0.0378768424396346
  0
VERTEX
  5
24D
  8
1
  6
CONTINUOUS
 62
     7
 10
-147.1806354949734
 20
36.85774049435577
 30
0.0
 42
-0.0108881213471669
  0
VERTEX
  5
24E
  8
1
  6
CONTINUOUS
 62
     7
 10
-145.612404001568
 20
38.74317550730724
 30
0.0
 42
-0.0439538368793673
  0
VERTEX
  5
24F
  8
1
  6
CONTINUOUS
 62
     7
 10
-138.4983774949735
 20
45.60507649435585
 30
0.0
 42
-0.0407643941129762
  0
VERTEX
  5
250
  8
1
  6
CONTINUOUS
 62
     7
 10
-130.9409543955389
 20
50.75351027282353
 30
0.0
 42
-0.0427631092752043
  0
VERTEX
  5
251
  8
1
  6
CONTINUOUS
 62
     7
 10
-122.3052144949734
 20
54.72520649435583
 30
0.0
 42
-0.0198715510276253
  0
VERTEX
  5
252
  8
1
  6
CONTINUOUS
 62
     7
 10
-118.0970075631752
 20
56.05400573542225
 30
0.0
 42
-0.0230302296276799
  0
VERTEX
  5
253
  8
1
  6
CONTINUOUS
 62
     7
 10
-113.0940264949734
 20
57.17311249435581
 30
0.0
 42
-0.0215905821956673
  0
VERTEX
  5
254
  8
1
  6
CONTINUOUS
 62
     7
 10
-108.3092948450026
 20
57.80273658305831
 30
0.0
 42
-0.0219195913237513
  0
VERTEX
  5
255
  8
1
  6
CONTINUOUS
 62
     7
 10
-103.3316394949734
 20
58.02105649435586
 30
0.0
 42
-0.0248269680489883
  0
VERTEX
  5
256
  8
1
  6
CONTINUOUS
 62
     7
 10
-97.69218459389816
 20
57.74086265565656
 30
0.0
 42
-0.0256078262935337
  0
VERTEX
  5
257
  8
1
  6
CONTINUOUS
 62
     7
 10
-92.03689549497341
 20
56.88330349435586
 30
0.0
 42
-0.0181224100854661
  0
VERTEX
  5
258
  8
1
  6
CONTINUOUS
 62
     7
 10
-88.1144806294206
 20
55.93199346938472
 30
0.0
 42
-0.025298388016114
  0
VERTEX
  5
259
  8
1
  6
CONTINUOUS
 62
     7
 10
-82.78189549497341
 20
54.13659049435582
 30
0.0
 42
-0.0362096601446361
  0
VERTEX
  5
25A
  8
1
  6
CONTINUOUS
 62
     7
 10
-75.51048770753947
 20
50.6443653994829
 30
0.0
 42
-0.0379076334004792
  0
VERTEX
  5
25B
  8
1
  6
CONTINUOUS
 62
     7
 10
-68.46718649497339
 20
45.86801249435585
 30
0.0
 42
-0.012952776521745
  0
VERTEX
  5
25C
  8
1
  6
CONTINUOUS
 62
     7
 10
-66.22979613218855
 20
43.99269244994211
 30
0.0
 42
-0.0418858435676661
  0
VERTEX
  5
25D
  8
1
  6
CONTINUOUS
 62
     7
 10
-59.71353249497346
 20
37.18571849435589
 30
0.0
 42
-0.0408128299955587
  0
VERTEX
  5
25E
  8
1
  6
CONTINUOUS
 62
     7
 10
-54.5570309224047
 20
29.62056961613995
 30
0.0
 42
-0.0427458949410211
  0
VERTEX
  5
25F
  8
1
  6
CONTINUOUS
 62
     7
 10
-50.5867944949734
 20
20.99234149435585
 30
0.0
 42
-0.0198164075546697
  0
VERTEX
  5
260
  8
1
  6
CONTINUOUS
 62
     7
 10
-49.26092314408882
 20
16.79830969429724
 30
0.0
 42
-0.0231118771882017
  0
VERTEX
  5
261
  8
1
  6
CONTINUOUS
 62
     7
 10
-48.13711049497342
 20
11.78094849435581
 30
0.0
 42
-0.0216048552517495
  0
VERTEX
  5
262
  8
1
  6
CONTINUOUS
 62
     7
 10
-47.50703569643703
 20
6.996161360817156
 30
0.0
 42
-0.0219351299287254
  0
VERTEX
  5
263
  8
1
  6
CONTINUOUS
 62
     7
 10
-47.28854849497338
 20
2.018273455631288
 30
0.0
  0
SEQEND
  5
264
  8
1
  6
CONTINUOUS
 62
     7
  0
POLYLINE
  5
265
  8
1
  6
CONTINUOUS
 62
     7
 66
     1
 10
0.0
 20
0.0
 30
0.0
  0
VERTEX
  5
266
  8
1
  6
CONTINUOUS
 62
     7
 10
-160.3741514949734
 20
2.144364494355848
 30
0.0
 42
0.0251041035623235
  0
VERTEX
  5
267
  8
1
  6
CONTINUOUS
 62
     7
 10
-160.0825941569973
 20
-3.658941589624303
 30
0.0
 42
0.0253307177716027
  0
VERTEX
  5
268
  8
1
  6
CONTINUOUS
 62
     7
 10
-159.2160924949734
 20
-9.351924505643968
 30
0.0
 42
0.0217007731524656
  0
VERTEX
  5
269
  8
1
  6
CONTINUOUS
 62
     7
 10
-158.0227206503675
 20
-14.12312494724044
 30
0.0
 42
0.0217189692188545
  0
VERTEX
  5
26A
  8
1
  6
CONTINUOUS
 62
     7
 10
-156.4203644949734
 20
-18.77210250564415
 30
0.0
 42
0.0371305881034446
  0
VERTEX
  5
26B
  8
1
  6
CONTINUOUS
 62
     7
 10
-152.7612854270499
 20
-26.35518557746433
 30
0.0
 42
0.0369854553275144
  0
VERTEX
  5
26C
  8
1
  6
CONTINUOUS
 62
     7
 10
-148.0042564949735
 20
-33.34234850564405
 30
0.0
 42
0.0274223529732133
  0
VERTEX
  5
26D
  8
1
  6
CONTINUOUS
 62
     7
 10
-143.8282098131888
 20
-38.04167132155896
 30
0.0
 42
0.0274040260178291
  0
VERTEX
  5
26E
  8
1
  6
CONTINUOUS
 62
     7
 10
-139.1670844949734
 20
-42.25229950564411
 30
0.0
 42
0.0416808772655804
  0
VERTEX
  5
26F
  8
1
  6
CONTINUOUS
 62
     7
 10
-131.2952376533379
 20
-47.59800270703343
 30
0.0
 42
0.0418777528241266
  0
VERTEX
  5
270
  8
1
  6
CONTINUOUS
 62
     7
 10
-122.6849294949734
 20
-51.54202550564413
 30
0.0
 42
0.021478333323276
  0
VERTEX
  5
271
  8
1
  6
CONTINUOUS
 62
     7
 10
-118.0532024025667
 20
-52.98940615113257
 30
0.0
 42
0.0214506660705237
  0
VERTEX
  5
272
  8
1
  6
CONTINUOUS
 62
     7
 10
-113.3093174949734
 20
-54.03546350564416
 30
0.0
 42
0.0218619655681997
  0
VERTEX
  5
273
  8
1
  6
CONTINUOUS
 62
     7
 10
-108.3806614307667
 20
-54.68193660176035
 30
0.0
 42
0.0216795497469667
  0
VERTEX
  5
274
  8
1
  6
CONTINUOUS
 62
     7
 10
-103.3726364949734
 20
-54.89918250564415
 30
0.0
 42
0.0251239317232469
  0
VERTEX
  5
275
  8
1
  6
CONTINUOUS
 62
     7
 10
-97.56979492024728
 20
-54.60741794932255
 30
0.0
 42
0.0253499886444065
  0
VERTEX
  5
276
  8
1
  6
CONTINUOUS
 62
     7
 10
-91.8770304949734
 20
-53.74026350564414
 30
0.0
 42
0.0217209992358581
  0
VERTEX
  5
277
  8
1
  6
CONTINUOUS
 62
     7
 10
-87.10500566504518
 20
-52.54568931391731
 30
0.0
 42
0.0217266757169597
  0
VERTEX
  5
278
  8
1
  6
CONTINUOUS
 62
     7
 10
-82.45730849497343
 20
-50.94246250564415
 30
0.0
 42
0.0371476779885552
  0
VERTEX
  5
279
  8
1
  6
CONTINUOUS
 62
     7
 10
-74.87492961368268
 20
-47.28090184085737
 30
0.0
 42
0.0369951470804811
  0
VERTEX
  5
27A
  8
1
  6
CONTINUOUS
 62
     7
 10
-67.88759849497349
 20
-42.52012450564427
 30
0.0
 42
0.0274183554233498
  0
VERTEX
  5
27B
  8
1
  6
CONTINUOUS
 62
     7
 10
-63.18953850819857
 20
-38.34211608836507
 30
0.0
 42
0.0274071471855013
  0
VERTEX
  5
27C
  8
1
  6
CONTINUOUS
 62
     7
 10
-58.97787449497341
 20
-33.67642250564416
 30
0.0
 42
0.0416681691888284
  0
VERTEX
  5
27D
  8
1
  6
CONTINUOUS
 62
     7
 10
-53.6325404257199
 20
-25.79926282093964
 30
0.0
 42
0.0418570679080066
  0
VERTEX
  5
27E
  8
1
  6
CONTINUOUS
 62
     7
 10
-49.68829349497342
 20
-17.18211750564416
 30
0.0
 42
0.0214628551475437
  0
VERTEX
  5
27F
  8
1
  6
CONTINUOUS
 62
     7
 10
-48.24106716194049
 20
-12.54752032356125
 30
0.0
 42
0.0214382722534231
  0
VERTEX
  5
280
  8
1
  6
CONTINUOUS
 62
     7
 10
-47.19487349497337
 20
-7.799609505644192
 30
0.0
 42
0.0218463641482254
  0
VERTEX
  5
281
  8
1
  6
CONTINUOUS
 62
     7
 10
-46.54840296282621
 20
-2.867344638262902
 30
0.0
 42
0.0216635649369375
  0
VERTEX
  5
282
  8
1
  6
CONTINUOUS
 62
     7
 10
-46.33115649497343
 20
2.144364494355841
 30
0.0
 42
0.025142225911459
  0
VERTEX
  5
283
  8
1
  6
CONTINUOUS
 62
     7
 10
-46.62291819310198
 20
7.942921618704358
 30
0.0
 42
0.0253674230836258
  0
VERTEX
  5
284
  8
1
  6
CONTINUOUS
 62
     7
 10
-47.49007149497339
 20
13.63155249435584
 30
0.0
 42
0.0217329981406665
  0
VERTEX
  5
285
  8
1
  6
CONTINUOUS
 62
     7
 10
-48.68450206569403
 20
18.39962714232696
 30
0.0
 42
0.0217406008037076
  0
VERTEX
  5
286
  8
1
  6
CONTINUOUS
 62
     7
 10
-50.28785049497342
 20
23.04438249435588
 30
0.0
 42
0.0371637606782211
  0
VERTEX
  5
287
  8
1
  6
CONTINUOUS
 62
     7
 10
-53.9491761267783
 20
30.62088934691815
 30
0.0
 42
0.0370040402598943
  0
VERTEX
  5
288
  8
1
  6
CONTINUOUS
 62
     7
 10
-58.71005549497339
 20
37.60344449435582
 30
0.0
 42
0.0274255101935623
  0
VERTEX
  5
289
  8
1
  6
CONTINUOUS
 62
     7
 10
-62.88868107973646
 20
42.29879099899007
 30
0.0
 42
0.027399055703271
  0
VERTEX
  5
28A
  8
1
  6
CONTINUOUS
 62
     7
 10
-67.5535344949734
 20
46.50666349435586
 30
0.0
 42
0.0416571802062599
  0
VERTEX
  5
28B
  8
1
  6
CONTINUOUS
 62
     7
 10
-75.43016650821751
 20
51.84795344351527
 30
0.0
 42
0.0418368894844904
  0
VERTEX
  5
28C
  8
1
  6
CONTINUOUS
 62
     7
 10
-84.04722349497341
 20
55.78946849435588
 30
0.0
 42
0.0214517384220915
  0
VERTEX
  5
28D
  8
1
  6
CONTINUOUS
 62
     7
 10
-88.68181065043086
 20
57.23569642403212
 30
0.0
 42
0.0214235585671113
  0
VERTEX
  5
28E
  8
1
  6
CONTINUOUS
 62
     7
 10
-93.42926049497339
 20
58.28107149435584
 30
0.0
 42
0.0218319874082151
  0
VERTEX
  5
28F
  8
1
  6
CONTINUOUS
 62
     7
 10
-98.36121872549461
 20
58.92706953920389
 30
0.0
 42
0.0216492698117019
  0
VERTEX
  5
290
  8
1
  6
CONTINUOUS
 62
     7
 10
-103.3726364949734
 20
59.14415849435584
 30
0.0
 42
0.0251224830293125
  0
VERTEX
  5
291
  8
1
  6
CONTINUOUS
 62
     7
 10
-109.1715967262744
 20
58.8526059241164
 30
0.0
 42
0.0253488836162587
  0
VERTEX
  5
292
  8
1
  6
CONTINUOUS
 62
     7
 10
-114.8604914949734
 20
57.98608749435584
 30
0.0
 42
0.0217169958745401
  0
VERTEX
  5
293
  8
1
  6
CONTINUOUS
 62
     7
 10
-119.6285755654739
 20
56.79259295482954
 30
0.0
 42
0.0217292357291856
  0
VERTEX
  5
294
  8
1
  6
CONTINUOUS
 62
     7
 10
-124.2737454949734
 20
55.19034849435582
 30
0.0
 42
0.0371470503848947
  0
VERTEX
  5
295
  8
1
  6
CONTINUOUS
 62
     7
 10
-131.8509008917625
 20
51.53147365175349
 30
0.0
 42
0.0369946453567735
  0
VERTEX
  5
296
  8
1
  6
CONTINUOUS
 62
     7
 10
-138.8332574949734
 20
46.77428749435585
 30
0.0
 42
0.0274068596712152
  0
VERTEX
  5
297
  8
1
  6
CONTINUOUS
 62
     7
 10
-143.5261300231338
 20
42.60125905039207
 30
0.0
 42
0.0274187107319636
  0
VERTEX
  5
298
  8
1
  6
CONTINUOUS
 62
     7
 10
-147.7366294949734
 20
37.93726349435586
 30
0.0
 42
0.0416687430064082
  0
VERTEX
  5
299
  8
1
  6
CONTINUOUS
 62
     7
 10
-153.0781342646173
 20
30.0660728023102
 30
0.0
 42
0.0418579353102629
  0
VERTEX
  5
29A
  8
1
  6
CONTINUOUS
 62
     7
 10
-157.0194834949734
 20
21.45563049435581
 30
0.0
 42
0.0214638977330208
  0
VERTEX
  5
29B
  8
1
  6
CONTINUOUS
 62
     7
 10
-158.465674014942
 20
16.82455340067283
 30
0.0
 42
0.021438800260585
  0
VERTEX
  5
29C
  8
1
  6
CONTINUOUS
 62
     7
 10
-159.5110734949734
 20
12.08045749435587
 30
0.0
 42
0.0218475353350352
  0
VERTEX
  5
29D
  8
1
  6
CONTINUOUS
 62
     7
 10
-160.1570715385651
 20
7.152034373978724
 30
0.0
 42
0.0216646362623641
  0
VERTEX
  5
29E
  8
1
  6
CONTINUOUS
 62
     7
 10
-160.3741514949734
 20
2.144364475995608
 30
0.0
  0
SEQEND
  5
29F
  8
1
  6
CONTINUOUS
 62
     7
  0
POLYLINE
  5
2A0
  8
1
  6
CONTINUOUS
 62
     7
 66
     1
 10
0.0
 20
0.0
 30
0.0
  0
VERTEX
  5
2A1
  8
1
  6
CONTINUOUS
 62
     7
 10
-79.36686649497341
 20
46.82897549435587
 30
0.0
 42
-0.0319345151377609
  0
VERTEX
  5
2A2
  8
1
  6
CONTINUOUS
 62
     7
 10
-79.00278758741604
 20
46.80569838928605
 30
0.0
 42
-0.0308913412671231
  0
VERTEX
  5
2A3
  8
1
  6
CONTINUOUS
 62
     7
 10
-78.62853949497338
 20
46.73393349435584
 30
0.0
 42
-0.0296872553558691
  0
VERTEX
  5
2A4
  8
1
  6
CONTINUOUS
 62
     7
 10
-78.26762593975012
 20
46.61809386288056
 30
0.0
 42
-0.0290956552119807
  0
VERTEX
  5
2A5
  8
1
  6
CONTINUOUS
 62
     7
 10
-77.91062449497343
 20
46.45518249435586
 30
0.0
 42
-0.0259435788217938
  0
VERTEX
  5
2A6
  8
1
  6
CONTINUOUS
 62
     7
 10
-73.426350152493
 20
43.54280181357577
 30
0.0
 42
-0.0333987030654879
  0
VERTEX
  5
2A7
  8
1
  6
CONTINUOUS
 62
     7
 10
-68.13275449497341
 20
39.13228749435585
 30
0.0
 42
-0.0377467117598683
  0
VERTEX
  5
2A8
  8
1
  6
CONTINUOUS
 62
     7
 10
-67.80603148022607
 20
38.77288086125992
 30
0.0
 42
-0.0397477847422786
  0
VERTEX
  5
2A9
  8
1
  6
CONTINUOUS
 62
     7
 10
-67.54996349497341
 20
38.38448949435586
 30
0.0
 42
-0.0651041898906701
  0
VERTEX
  5
2AA
  8
1
  6
CONTINUOUS
 62
     7
 10
-67.28096901081824
 20
37.6979146130426
 30
0.0
 42
-0.0680413987321803
  0
VERTEX
  5
2AB
  8
1
  6
CONTINUOUS
 62
     7
 10
-67.19763749497339
 20
36.92581449435585
 30
0.0
 42
-0.0462890867129584
  0
VERTEX
  5
2AC
  8
1
  6
CONTINUOUS
 62
     7
 10
-67.26312755732647
 20
36.3866460204373
 30
0.0
 42
-0.0465559546625499
  0
VERTEX
  5
2AD
  8
1
  6
CONTINUOUS
 62
     7
 10
-67.43172149497342
 20
35.85378749435586
 30
0.0
 42
-0.0697991630062092
  0
VERTEX
  5
2AE
  8
1
  6
CONTINUOUS
 62
     7
 10
-67.8598116940591
 20
35.13775489192586
 30
0.0
 42
-0.0718732807013593
  0
VERTEX
  5
2AF
  8
1
  6
CONTINUOUS
 62
     7
 10
-68.46583549497339
 20
34.57422949435584
 30
0.0
 42
-0.0374424821880738
  0
VERTEX
  5
2B0
  8
1
  6
CONTINUOUS
 62
     7
 10
-68.83427738278672
 20
34.35799386922218
 30
0.0
 42
-0.0382417689057952
  0
VERTEX
  5
2B1
  8
1
  6
CONTINUOUS
 62
     7
 10
-69.24525649497338
 20
34.19411549435584
 30
0.0
 42
-0.0386771059531909
  0
VERTEX
  5
2B2
  8
1
  6
CONTINUOUS
 62
     7
 10
-69.69167544300961
 20
34.09162668209935
 30
0.0
 42
-0.03710575422456
  0
VERTEX
  5
2B3
  8
1
  6
CONTINUOUS
 62
     7
 10
-70.17190608408197
 20
34.05593870578491
 30
0.0
  0
VERTEX
  5
2B4
  8
1
  6
CONTINUOUS
 62
     7
 10
-136.5330584949734
 20
34.05593949435584
 30
0.0
 42
-0.037525375171608
  0
VERTEX
  5
2B5
  8
1
  6
CONTINUOUS
 62
     7
 10
-137.0186084764152
 20
34.0924317715303
 30
0.0
 42
-0.0394742240192098
  0
VERTEX
  5
2B6
  8
1
  6
CONTINUOUS
 62
     7
 10
-137.4733414949734
 20
34.19839549435583
 30
0.0
 42
-0.0639323023500576
  0
VERTEX
  5
2B7
  8
1
  6
CONTINUOUS
 62
     7
 10
-138.1373012675967
 20
34.50736475353559
 30
0.0
 42
-0.0683266225049467
  0
VERTEX
  5
2B8
  8
1
  6
CONTINUOUS
 62
     7
 10
-138.7390774949734
 20
35.01389649435585
 30
0.0
 42
-0.0460087088644189
  0
VERTEX
  5
2B9
  8
1
  6
CONTINUOUS
 62
     7
 10
-139.0646190914968
 20
35.44864848259716
 30
0.0
 42
-0.0466123713125492
  0
VERTEX
  5
2BA
  8
1
  6
CONTINUOUS
 62
     7
 10
-139.3120914949734
 20
35.95114049435586
 30
0.0
 42
-0.07000438855235
  0
VERTEX
  5
2BB
  8
1
  6
CONTINUOUS
 62
     7
 10
-139.4980312482151
 20
36.76472339149973
 30
0.0
 42
-0.0722109840278947
  0
VERTEX
  5
2BC
  8
1
  6
CONTINUOUS
 62
     7
 10
-139.4492304949734
 20
37.58716349435588
 30
0.0
 42
-0.0376858684383798
  0
VERTEX
  5
2BD
  8
1
  6
CONTINUOUS
 62
     7
 10
-139.332132862489
 20
37.99626951931543
 30
0.0
 42
-0.0385289892044469
  0
VERTEX
  5
2BE
  8
1
  6
CONTINUOUS
 62
     7
 10
-139.1478474949734
 20
38.39689849435582
 30
0.0
 42
-0.0389364421730331
  0
VERTEX
  5
2BF
  8
1
  6
CONTINUOUS
 62
     7
 10
-138.8954736222262
 20
38.77711914708084
 30
0.0
 42
-0.0373104181606572
  0
VERTEX
  5
2C0
  8
1
  6
CONTINUOUS
 62
     7
 10
-138.5722104949735
 20
39.13228749435577
 30
0.0
 42
-0.0279621004635589
  0
VERTEX
  5
2C1
  8
1
  6
CONTINUOUS
 62
     7
 10
-134.1715340461348
 20
42.87968882274555
 30
0.0
 42
-0.0313504025094418
  0
VERTEX
  5
2C2
  8
1
  6
CONTINUOUS
 62
     7
 10
-128.7943404949734
 20
46.45518249435585
 30
0.0
 42
-0.065012235746637
  0
VERTEX
  5
2C3
  8
1
  6
CONTINUOUS
 62
     7
 10
-128.1055412755243
 20
46.73179424161592
 30
0.0
 42
-0.0630910313226322
  0
VERTEX
  5
2C4
  8
1
  6
CONTINUOUS
 62
     7
 10
-127.3384425281237
 20
46.82897472689717
 30
0.0
  0
VERTEX
  5
2C5
  8
1
  6
CONTINUOUS
 62
     7
 10
-79.36686593421382
 20
46.82897472689717
 30
0.0
  0
SEQEND
  5
2C6
  8
1
  6
CONTINUOUS
 62
     7
  0
POLYLINE
  5
2C7
  8
1
  6
CONTINUOUS
 62
     7
 66
     1
 10
0.0
 20
0.0
 30
0.0
  0
VERTEX
  5
2C8
  8
1
  6
CONTINUOUS
 62
     7
 10
-82.44505949497339
 20
48.78475549435588
 30
0.0
 42
-0.0442439759198556
  0
VERTEX
  5
2C9
  8
1
  6
CONTINUOUS
 62
     7
 10
-82.36326801232441
 20
48.73797807845265
 30
0.0
 42
-0.0472568718802213
  0
VERTEX
  5
2CA
  8
1
  6
CONTINUOUS
 62
     7
 10
-82.29548849497336
 20
48.68061149435585
 30
0.0
 42
-0.148685430112314
  0
VERTEX
  5
2CB
  8
1
  6
CONTINUOUS
 62
     7
 10
-82.1702209998395
 20
48.43925661298829
 30
0.0
 42
-0.1374953501712181
  0
VERTEX
  5
2CC
  8
1
  6
CONTINUOUS
 62
     7
 10
-82.19661849497341
 20
48.14588949435586
 30
0.0
 42
-0.0689412881995634
  0
VERTEX
  5
2CD
  8
1
  6
CONTINUOUS
 62
     7
 10
-82.26658064008048
 20
48.01803269102079
 30
0.0
 42
-0.0731860885735076
  0
VERTEX
  5
2CE
  8
1
  6
CONTINUOUS
 62
     7
 10
-82.36428349497339
 20
47.92014649435583
 30
0.0
 42
-0.0825866766904057
  0
VERTEX
  5
2CF
  8
1
  6
CONTINUOUS
 62
     7
 10
-82.49673164128781
 20
47.85196118077138
 30
0.0
 42
-0.0778126897304859
  0
VERTEX
  5
2D0
  8
1
  6
CONTINUOUS
 62
     7
 10
-82.65383153669063
 20
47.82736339852261
 30
0.0
  0
VERTEX
  5
2D1
  8
1
  6
CONTINUOUS
 62
     7
 10
-124.0514774949734
 20
47.82736349435584
 30
0.0
 42
-0.044284577479506
  0
VERTEX
  5
2D2
  8
1
  6
CONTINUOUS
 62
     7
 10
-124.1453668999516
 20
47.835695539787
 30
0.0
 42
-0.0473507744138418
  0
VERTEX
  5
2D3
  8
1
  6
CONTINUOUS
 62
     7
 10
-124.2308304949734
 20
47.85950049435582
 30
0.0
 42
-0.1490969909020468
  0
VERTEX
  5
2D4
  8
1
  6
CONTINUOUS
 62
     7
 10
-124.4448827884945
 20
48.02641685081836
 30
0.0
 42
-0.1376071483382417
  0
VERTEX
  5
2D5
  8
1
  6
CONTINUOUS
 62
     7
 10
-124.5428334949734
 20
48.30421249435585
 30
0.0
 42
-0.0687851178369026
  0
VERTEX
  5
2D6
  8
1
  6
CONTINUOUS
 62
     7
 10
-124.5323663996292
 20
48.44961669791933
 30
0.0
 42
-0.0729639363325804
  0
VERTEX
  5
2D7
  8
1
  6
CONTINUOUS
 62
     7
 10
-124.4842494949734
 20
48.57946049435584
 30
0.0
 42
-0.0823449977776541
  0
VERTEX
  5
2D8
  8
1
  6
CONTINUOUS
 62
     7
 10
-124.3922511981668
 20
48.696815467528
 30
0.0
 42
-0.0777204898313827
  0
VERTEX
  5
2D9
  8
1
  6
CONTINUOUS
 62
     7
 10
-124.2599054949734
 20
48.78475549435586
 30
0.0
 42
-0.0449464810388875
  0
VERTEX
  5
2DA
  8
1
  6
CONTINUOUS
 62
     7
 10
-115.5594026402858
 20
51.76315738651459
 30
0.0
 42
-0.0600692803243876
  0
VERTEX
  5
2DB
  8
1
  6
CONTINUOUS
 62
     7
 10
-103.3620424949734
 20
53.23383849435584
 30
0.0
 42
-0.0147034592224318
  0
VERTEX
  5
2DC
  8
1
  6
CONTINUOUS
 62
     7
 10
-100.342531848013
 20
53.14502479023042
 30
0.0
 42
-0.0374241782493311
  0
VERTEX
  5
2DD
  8
1
  6
CONTINUOUS
 62
     7
 10
-92.7288844949734
 20
52.12156749435585
 30
0.0
 42
-0.0243696331892394
  0
VERTEX
  5
2DE
  8
1
  6
CONTINUOUS
 62
     7
 10
-87.88739491982201
 20
50.84830769212879
 30
0.0
 42
-0.028269027869711
  0
VERTEX
  5
2DF
  8
1
  6
CONTINUOUS
 62
     7
 10
-82.44505949497342
 20
48.78475549435583
 30
0.0
  0
SEQEND
  5
2E0
  8
1
  6
CONTINUOUS
 62
     7
  0
POLYLINE
  5
2E1
  8
1
  6
CONTINUOUS
 62
     7
 66
     1
 10
0.0
 20
0.0
 30
0.0
  0
VERTEX
  5
2E2
  8
1
  6
CONTINUOUS
 62
     7
 10
-57.44021149497341
 20
24.52818349435585
 30
0.0
 42
-0.0324222059597337
  0
VERTEX
  5
2E3
  8
1
  6
CONTINUOUS
 62
     7
 10
-57.28858157499274
 20
24.16425166568331
 30
0.0
 42
-0.0335186994926431
  0
VERTEX
  5
2E4
  8
1
  6
CONTINUOUS
 62
     7
 10
-57.1879064949734
 20
23.79023049435585
 30
0.0
 42
-0.1099435783430556
  0
VERTEX
  5
2E5
  8
1
  6
CONTINUOUS
 62
     7
 10
-57.21652868259992
 20
22.55025296803217
 30
0.0
 42
-0.1095998111294338
  0
VERTEX
  5
2E6
  8
1
  6
CONTINUOUS
 62
     7
 10
-57.78311649497338
 20
21.40785849435587
 30
0.0
 42
-0.0536455271123411
  0
VERTEX
  5
2E7
  8
1
  6
CONTINUOUS
 62
     7
 10
-58.22747222595255
 20
20.96397627310917
 30
0.0
 42
-0.05527361140544
  0
VERTEX
  5
2E8
  8
1
  6
CONTINUOUS
 62
     7
 10
-58.76249849497339
 20
20.62311949435583
 30
0.0
 42
-0.0279530257890099
  0
VERTEX
  5
2E9
  8
1
  6
CONTINUOUS
 62
     7
 10
-59.05744981632925
 20
20.49809672071599
 30
0.0
 42
-0.0289082123205648
  0
VERTEX
  5
2EA
  8
1
  6
CONTINUOUS
 62
     7
 10
-59.3783974949734
 20
20.40329049435583
 30
0.0
 42
-0.0289021939473964
  0
VERTEX
  5
2EB
  8
1
  6
CONTINUOUS
 62
     7
 10
-59.71228258861748
 20
20.34541545560964
 30
0.0
 42
-0.0284696500129651
  0
VERTEX
  5
2EC
  8
1
  6
CONTINUOUS
 62
     7
 10
-60.06158436351927
 20
20.32551064932164
 30
0.0
  0
VERTEX
  5
2ED
  8
1
  6
CONTINUOUS
 62
     7
 10
-146.6437244949734
 20
20.32551149435584
 30
0.0
 42
-0.0322509116306511
  0
VERTEX
  5
2EE
  8
1
  6
CONTINUOUS
 62
     7
 10
-147.0380694556318
 20
20.35097394735195
 30
0.0
 42
-0.0333316486670871
  0
VERTEX
  5
2EF
  8
1
  6
CONTINUOUS
 62
     7
 10
-147.4191134949734
 20
20.42647049435583
 30
0.0
 42
-0.1091810668738492
  0
VERTEX
  5
2F0
  8
1
  6
CONTINUOUS
 62
     7
 10
-148.5210000637453
 20
20.99975963522146
 30
0.0
 42
-0.1096790525387605
  0
VERTEX
  5
2F1
  8
1
  6
CONTINUOUS
 62
     7
 10
-149.2991034949734
 20
22.01260149435586
 30
0.0
 42
-0.0538770237255113
  0
VERTEX
  5
2F2
  8
1
  6
CONTINUOUS
 62
     7
 10
-149.5021888216253
 20
22.60756986831113
 30
0.0
 42
-0.0554364434896356
  0
VERTEX
  5
2F3
  8
1
  6
CONTINUOUS
 62
     7
 10
-149.5718514949734
 20
23.23527349435631
 30
0.0
 42
-0.028070959554707
  0
VERTEX
  5
2F4
  8
1
  6
CONTINUOUS
 62
     7
 10
-149.5538806442917
 20
23.55379678465221
 30
0.0
 42
-0.0291250019616181
  0
VERTEX
  5
2F5
  8
1
  6
CONTINUOUS
 62
     7
 10
-149.4971124949734
 20
23.88308149435584
 30
0.0
 42
-0.0290780339713781
  0
VERTEX
  5
2F6
  8
1
  6
CONTINUOUS
 62
     7
 10
-149.4014382817588
 20
24.20712128936776
 30
0.0
 42
-0.0286322890580758
  0
VERTEX
  5
2F7
  8
1
  6
CONTINUOUS
 62
     7
 10
-149.2647534949734
 20
24.52818349435574
 30
0.0
 42
-0.0206304756038211
  0
VERTEX
  5
2F8
  8
1
  6
CONTINUOUS
 62
     7
 10
-147.2507318772664
 20
28.28669038411453
 30
0.0
 42
-0.0212250245687859
  0
VERTEX
  5
2F9
  8
1
  6
CONTINUOUS
 62
     7
 10
-144.9377134949734
 20
31.85107849435585
 30
0.0
 42
-0.0481589083353604
  0
VERTEX
  5
2FA
  8
1
  6
CONTINUOUS
 62
     7
 10
-144.5736693209532
 20
32.27702012153588
 30
0.0
 42
-0.072682295242707
  0
VERTEX
  5
2FB
  8
1
  6
CONTINUOUS
 62
     7
 10
-143.8879924949734
 20
32.76885149435588
 30
0.0
 42
-0.059434031066001
  0
VERTEX
  5
2FC
  8
1
  6
CONTINUOUS
 62
     7
 10
-143.2365023801565
 20
33.01288615814191
 30
0.0
 42
-0.0599899342652984
  0
VERTEX
  5
2FD
  8
1
  6
CONTINUOUS
 62
     7
 10
-142.525112446202
 20
33.09854667043396
 30
0.0
  0
VERTEX
  5
2FE
  8
1
  6
CONTINUOUS
 62
     7
 10
-64.18019649497342
 20
33.09854749435586
 30
0.0
 42
-0.05986322318226
  0
VERTEX
  5
2FF
  8
1
  6
CONTINUOUS
 62
     7
 10
-63.49817025691174
 20
33.01659723916097
 30
0.0
 42
-0.0595398629488802
  0
VERTEX
  5
300
  8
1
  6
CONTINUOUS
 62
     7
 10
-62.8361784949734
 20
32.76885149435584
 30
0.0
 42
-0.0577383937323135
  0
VERTEX
  5
301
  8
1
  6
CONTINUOUS
 62
     7
 10
-62.25599545665197
 20
32.37837187260079
 30
0.0
 42
-0.0575011997108522
  0
VERTEX
  5
302
  8
1
  6
CONTINUOUS
 62
     7
 10
-61.76656249497341
 20
31.85107849435587
 30
0.0
 42
-0.0208984359984472
  0
VERTEX
  5
303
  8
1
  6
CONTINUOUS
 62
     7
 10
-59.48075879163531
 20
28.33212595200775
 30
0.0
 42
-0.0209614794975184
  0
VERTEX
  5
304
  8
1
  6
CONTINUOUS
 62
     7
 10
-57.44021149497341
 20
24.52818349435585
 30
0.0
  0
SEQEND
  5
305
  8
1
  6
CONTINUOUS
 62
     7
  0
POLYLINE
  5
306
  8
1
  6
CONTINUOUS
 62
     7
 66
     1
 10
0.0
 20
0.0
 30
0.0
  0
VERTEX
  5
307
  8
1
  6
CONTINUOUS
 62
     7
 10
-153.4253954949734
 20
12.46173649435575
 30
0.0
 42
-0.0160548959802667
  0
VERTEX
  5
308
  8
1
  6
CONTINUOUS
 62
     7
 10
-152.5905368184008
 20
15.8251354381954
 30
0.0
 42
-0.0171414376568762
  0
VERTEX
  5
309
  8
1
  6
CONTINUOUS
 62
     7
 10
-151.4699583641047
 20
19.32712197769627
 30
0.0
  0
VERTEX
  5
30A
  8
1
  6
CONTINUOUS
 62
     7
 10
-55.2343174949734
 20
19.32712249435588
 30
0.0
 42
-0.0173456200192046
  0
VERTEX
  5
30B
  8
1
  6
CONTINUOUS
 62
     7
 10
-54.18463227527024
 20
16.03743065820197
 30
0.0
 42
-0.0185871866489112
  0
VERTEX
  5
30C
  8
1
  6
CONTINUOUS
 62
     7
 10
-53.32091149497339
 20
12.46173649435582
 30
0.0
 42
-0.0283427929340829
  0
VERTEX
  5
30D
  8
1
  6
CONTINUOUS
 62
     7
 10
-53.23533319949119
 20
11.90121039681901
 30
0.0
 42
-0.0291507139914926
  0
VERTEX
  5
30E
  8
1
  6
CONTINUOUS
 62
     7
 10
-53.2146144949734
 20
11.33459849435587
 30
0.0
 42
-0.0956158693014384
  0
VERTEX
  5
30F
  8
1
  6
CONTINUOUS
 62
     7
 10
-53.60169452379247
 20
9.53957514626347
 30
0.0
 42
-0.096475902339424
  0
VERTEX
  5
310
  8
1
  6
CONTINUOUS
 62
     7
 10
-54.66187849497339
 20
7.974498494355819
 30
0.0
 42
-0.0471024303003814
  0
VERTEX
  5
311
  8
1
  6
CONTINUOUS
 62
     7
 10
-55.3763738820817
 20
7.386111483992714
 30
0.0
 42
-0.0486466330132632
  0
VERTEX
  5
312
  8
1
  6
CONTINUOUS
 62
     7
 10
-56.20262049497342
 20
6.937350494355832
 30
0.0
 42
-0.0501013338042654
  0
VERTEX
  5
313
  8
1
  6
CONTINUOUS
 62
     7
 10
-57.12144582793547
 20
6.652902509150292
 30
0.0
 42
-0.0500670439126555
  0
VERTEX
  5
314
  8
1
  6
CONTINUOUS
 62
     7
 10
-58.10580365654295
 20
6.554085956583947
 30
0.0
  0
VERTEX
  5
315
  8
1
  6
CONTINUOUS
 62
     7
 10
-148.5991604949734
 20
6.554086494355829
 30
0.0
 42
-0.0283459929341356
  0
VERTEX
  5
316
  8
1
  6
CONTINUOUS
 62
     7
 10
-149.1645041116581
 20
6.586162719780527
 30
0.0
 42
-0.0291584045781411
  0
VERTEX
  5
317
  8
1
  6
CONTINUOUS
 62
     7
 10
-149.7241014949734
 20
6.68317449435583
 30
0.0
 42
-0.0954700821879399
  0
VERTEX
  5
318
  8
1
  6
CONTINUOUS
 62
     7
 10
-151.4061277273092
 20
7.434962801039981
 30
0.0
 42
-0.0956646778492419
  0
VERTEX
  5
319
  8
1
  6
CONTINUOUS
 62
     7
 10
-152.7239314949734
 20
8.795712494355818
 30
0.0
 42
-0.0468739510332199
  0
VERTEX
  5
31A
  8
1
  6
CONTINUOUS
 62
     7
 10
-153.1576086861489
 20
9.618779539804455
 30
0.0
 42
-0.0483134809693972
  0
VERTEX
  5
31B
  8
1
  6
CONTINUOUS
 62
     7
 10
-153.4308734949734
 20
10.51902049435586
 30
0.0
 42
-0.0498640962721368
  0
VERTEX
  5
31C
  8
1
  6
CONTINUOUS
 62
     7
 10
-153.5255161587622
 20
11.47666796217942
 30
0.0
 42
-0.0501184962730082
  0
VERTEX
  5
31D
  8
1
  6
CONTINUOUS
 62
     7
 10
-153.4253954949734
 20
12.46173649435582
 30
0.0
  0
SEQEND
  5
31E
  8
1
  6
CONTINUOUS
 62
     7
  0
POLYLINE
  5
31F
  8
1
  6
CONTINUOUS
 62
     7
 66
     1
 10
0.0
 20
0.0
 30
0.0
  0
VERTEX
  5
320
  8
1
  6
CONTINUOUS
 62
     7
 10
-146.5606974949734
 20
-7.217338505644122
 30
0.0
 42
-0.0481885705534158
  0
VERTEX
  5
321
  8
1
  6
CONTINUOUS
 62
     7
 10
-148.0789931632479
 20
-7.070668922720325
 30
0.0
 42
-0.0497424199603339
  0
VERTEX
  5
322
  8
1
  6
CONTINUOUS
 62
     7
 10
-149.5613974949734
 20
-6.625056505644138
 30
0.0
 42
-0.0687488242478701
  0
VERTEX
  5
323
  8
1
  6
CONTINUOUS
 62
     7
 10
-151.4177130605855
 20
-5.540667047353333
 30
0.0
 42
-0.0728282355953073
  0
VERTEX
  5
324
  8
1
  6
CONTINUOUS
 62
     7
 10
-152.9947634949734
 20
-3.879481505644129
 30
0.0
 42
-0.0345599291046566
  0
VERTEX
  5
325
  8
1
  6
CONTINUOUS
 62
     7
 10
-153.5576873935904
 20
-2.950795913140791
 30
0.0
 42
-0.0371053506512865
  0
VERTEX
  5
326
  8
1
  6
CONTINUOUS
 62
     7
 10
-154.0108714949734
 20
-1.883859505644178
 30
0.0
 42
-0.0366367478105298
  0
VERTEX
  5
327
  8
1
  6
CONTINUOUS
 62
     7
 10
-154.2986251754675
 20
-0.7765516152513721
 30
0.0
 42
-0.0370584987707096
  0
VERTEX
  5
328
  8
1
  6
CONTINUOUS
 62
     7
 10
-154.4244724949734
 20
0.3959784943559912
 30
0.0
 42
-0.0117698813293625
  0
VERTEX
  5
329
  8
1
  6
CONTINUOUS
 62
     7
 10
-154.4455176711167
 20
2.925190303182658
 30
0.0
 42
-0.0123591155526774
  0
VERTEX
  5
32A
  8
1
  6
CONTINUOUS
 62
     7
 10
-154.3404119224149
 20
5.555697284958569
 30
0.0
  0
VERTEX
  5
32B
  8
1
  6
CONTINUOUS
 62
     7
 10
-52.36386349497341
 20
5.555697494355798
 30
0.0
 42
-0.0087996629701721
  0
VERTEX
  5
32C
  8
1
  6
CONTINUOUS
 62
     7
 10
-52.27590297564441
 20
3.679728473589599
 30
0.0
 42
-0.0153798426059744
  0
VERTEX
  5
32D
  8
1
  6
CONTINUOUS
 62
     7
 10
-52.2808364949734
 20
0.3959784943558542
 30
0.0
 42
-0.0481627503803526
  0
VERTEX
  5
32E
  8
1
  6
CONTINUOUS
 62
     7
 10
-52.47729094459004
 20
-1.118376210828386
 30
0.0
 42
-0.0496916569237569
  0
VERTEX
  5
32F
  8
1
  6
CONTINUOUS
 62
     7
 10
-52.97091649497342
 20
-2.585498505644163
 30
0.0
 42
-0.0683384355564628
  0
VERTEX
  5
330
  8
1
  6
CONTINUOUS
 62
     7
 10
-54.10735320588434
 20
-4.396830224085774
 30
0.0
 42
-0.0732393357958556
  0
VERTEX
  5
331
  8
1
  6
CONTINUOUS
 62
     7
 10
-55.82636849497341
 20
-5.928372505644157
 30
0.0
 42
-0.0346384787595337
  0
VERTEX
  5
332
  8
1
  6
CONTINUOUS
 62
     7
 10
-56.77433855707644
 20
-6.461520105574391
 30
0.0
 42
-0.037067827209014
  0
VERTEX
  5
333
  8
1
  6
CONTINUOUS
 62
     7
 10
-57.85327449497338
 20
-6.878721505644177
 30
0.0
 42
-0.0366601750119731
  0
VERTEX
  5
334
  8
1
  6
CONTINUOUS
 62
     7
 10
-58.96877416590858
 20
-7.13002015646508
 30
0.0
 42
-0.0370901582009265
  0
VERTEX
  5
335
  8
1
  6
CONTINUOUS
 62
     7
 10
-60.14426665516527
 20
-7.217338736153749
 30
0.0
  0
VERTEX
  5
336
  8
1
  6
CONTINUOUS
 62
     7
 10
-146.5606972976237
 20
-7.217338736153749
 30
0.0
  0
SEQEND
  5
337
  8
1
  6
CONTINUOUS
 62
     7
  0
POLYLINE
  5
338
  8
1
  6
CONTINUOUS
 62
     7
 66
     1
 10
0.0
 20
0.0
 30
0.0
  0
VERTEX
  5
339
  8
1
  6
CONTINUOUS
 62
     7
 10
-53.6120214949734
 20
-9.630283505644174
 30
0.0
 42
-0.0412370925319319
  0
VERTEX
  5
33A
  8
1
  6
CONTINUOUS
 62
     7
 10
-54.35779648318662
 20
-11.93671267919087
 30
0.0
 42
-0.0439619865255257
  0
VERTEX
  5
33B
  8
1
  6
CONTINUOUS
 62
     7
 10
-55.55015649497338
 20
-14.21017650564414
 30
0.0
 42
-0.0600589944529747
  0
VERTEX
  5
33C
  8
1
  6
CONTINUOUS
 62
     7
 10
-57.79493628356546
 20
-16.92519048090584
 30
0.0
 42
-0.0637558344051632
  0
VERTEX
  5
33D
  8
1
  6
CONTINUOUS
 62
     7
 10
-60.82811749497341
 20
-19.14888350564417
 30
0.0
 42
-0.0297131794240747
  0
VERTEX
  5
33E
  8
1
  6
CONTINUOUS
 62
     7
 10
-62.41005721158751
 20
-19.90499297319965
 30
0.0
 42
-0.0327112317645669
  0
VERTEX
  5
33F
  8
1
  6
CONTINUOUS
 62
     7
 10
-64.2339334949734
 20
-20.51154350564417
 30
0.0
 42
-0.0313678198461419
  0
VERTEX
  5
340
  8
1
  6
CONTINUOUS
 62
     7
 10
-66.04104475933173
 20
-20.86460110588912
 30
0.0
 42
-0.0325681551757321
  0
VERTEX
  5
341
  8
1
  6
CONTINUOUS
 62
     7
 10
-67.96635595442504
 20
-20.99014146708555
 30
0.0
  0
VERTEX
  5
342
  8
1
  6
CONTINUOUS
 62
     7
 10
-138.7379194949734
 20
-20.99014050564418
 30
0.0
 42
-0.0413481321804173
  0
VERTEX
  5
343
  8
1
  6
CONTINUOUS
 62
     7
 10
-141.1745643322807
 20
-20.78829398948815
 30
0.0
 42
-0.0435739484581378
  0
VERTEX
  5
344
  8
1
  6
CONTINUOUS
 62
     7
 10
-143.6490964949734
 20
-20.15013550564415
 30
0.0
 42
-0.0571843647490498
  0
VERTEX
  5
345
  8
1
  6
CONTINUOUS
 62
     7
 10
-146.6735331704173
 20
-18.67523168236092
 30
0.0
 42
-0.0665557369902869
  0
VERTEX
  5
346
  8
1
  6
CONTINUOUS
 62
     7
 10
-149.6704584949734
 20
-16.14640050564412
 30
0.0
 42
-0.0301655998132113
  0
VERTEX
  5
347
  8
1
  6
CONTINUOUS
 62
     7
 10
-150.7825713635968
 20
-14.76177081959668
 30
0.0
 42
-0.0323815370792882
  0
VERTEX
  5
348
  8
1
  6
CONTINUOUS
 62
     7
 10
-151.7758804949734
 20
-13.14753950564413
 30
0.0
 42
-0.0313818145854445
  0
VERTEX
  5
349
  8
1
  6
CONTINUOUS
 62
     7
 10
-152.5305108390983
 20
-11.47634258078403
 30
0.0
 42
-0.0327600520080714
  0
VERTEX
  5
34A
  8
1
  6
CONTINUOUS
 62
     7
 10
-153.0932873567544
 20
-9.630283614022744
 30
0.0
  0
VERTEX
  5
34B
  8
1
  6
CONTINUOUS
 62
     7
 10
-153.4253945615325
 20
-8.216760936424748
 30
0.0
  0
VERTEX
  5
34C
  8
1
  6
CONTINUOUS
 62
     7
 10
-53.32091149497343
 20
-8.216760505644189
 30
0.0
 42
-0.006791742098222
  0
VERTEX
  5
34D
  8
1
  6
CONTINUOUS
 62
     7
 10
-53.45128600553247
 20
-8.900016150703319
 30
0.0
 42
-0.0072601432936699
  0
VERTEX
  5
34E
  8
1
  6
CONTINUOUS
 62
     7
 10
-53.61202149497339
 20
-9.630283505644172
 30
0.0
  0
SEQEND
  5
34F
  8
1
  6
CONTINUOUS
 62
     7
  0
POLYLINE
  5
350
  8
1
  6
CONTINUOUS
 62
     7
 66
     1
 10
0.0
 20
0.0
 30
0.0
  0
VERTEX
  5
351
  8
1
  6
CONTINUOUS
 62
     7
 10
-124.5927014949734
 20
-34.71850150564416
 30
0.0
 42
-0.027319426414837
  0
VERTEX
  5
352
  8
1
  6
CONTINUOUS
 62
     7
 10
-128.2230581692992
 20
-34.51999482592569
 30
0.0
 42
-0.0461234519653888
  0
VERTEX
  5
353
  8
1
  6
CONTINUOUS
 62
     7
 10
-134.2252314949734
 20
-33.29434250564414
 30
0.0
 42
-0.0350089277175425
  0
VERTEX
  5
354
  8
1
  6
CONTINUOUS
 62
     7
 10
-138.5697182846383
 20
-31.64116963351215
 30
0.0
 42
-0.0386180844040859
  0
VERTEX
  5
355
  8
1
  6
CONTINUOUS
 62
     7
 10
-143.0239624949734
 20
-29.14502650564418
 30
0.0
 42
-0.047022452906665
  0
VERTEX
  5
356
  8
1
  6
CONTINUOUS
 62
     7
 10
-144.5090684772703
 20
-27.93738414505644
 30
0.0
 42
-0.0484261113657596
  0
VERTEX
  5
357
  8
1
  6
CONTINUOUS
 62
     7
 10
-145.7280184949734
 20
-26.48231250564413
 30
0.0
 42
-0.0113801215398058
  0
VERTEX
  5
358
  8
1
  6
CONTINUOUS
 62
     7
 10
-147.1109092379641
 20
-24.28126384715997
 30
0.0
 42
-0.0115491863226068
  0
VERTEX
  5
359
  8
1
  6
CONTINUOUS
 62
     7
 10
-148.4327621843084
 20
-21.94615546424234
 30
0.0
  0
VERTEX
  5
35A
  8
1
  6
CONTINUOUS
 62
     7
 10
-58.27220249497342
 20
-21.94615450564412
 30
0.0
 42
-0.0112405886575249
  0
VERTEX
  5
35B
  8
1
  6
CONTINUOUS
 62
     7
 10
-59.54149518827478
 20
-24.19345112982456
 30
0.0
 42
-0.0116522855094163
  0
VERTEX
  5
35C
  8
1
  6
CONTINUOUS
 62
     7
 10
-60.97625749497337
 20
-26.48231250564415
 30
0.0
 42
-0.0433759429387675
  0
VERTEX
  5
35D
  8
1
  6
CONTINUOUS
 62
     7
 10
-62.20447058970812
 20
-27.92640827021076
 30
0.0
 42
-0.0446884291614891
  0
VERTEX
  5
35E
  8
1
  6
CONTINUOUS
 62
     7
 10
-63.68100249497343
 20
-29.14502650564421
 30
0.0
 42
-0.0342155816588561
  0
VERTEX
  5
35F
  8
1
  6
CONTINUOUS
 62
     7
 10
-67.66630494665476
 20
-31.41252363833042
 30
0.0
 42
-0.0388376259284669
  0
VERTEX
  5
360
  8
1
  6
CONTINUOUS
 62
     7
 10
-72.50018849497344
 20
-33.29434250564414
 30
0.0
 42
-0.0357200234080833
  0
VERTEX
  5
361
  8
1
  6
CONTINUOUS
 62
     7
 10
-77.14172531845617
 20
-34.34300896354
 30
0.0
 42
-0.0377155528195775
  0
VERTEX
  5
362
  8
1
  6
CONTINUOUS
 62
     7
 10
-82.11260703595792
 20
-34.71850246625763
 30
0.0
  0
VERTEX
  5
363
  8
1
  6
CONTINUOUS
 62
     7
 10
-124.5927014263796
 20
-34.71850246625763
 30
0.0
  0
SEQEND
  5
364
  8
1
  6
CONTINUOUS
 62
     7
  0
POLYLINE
  5
365
  8
1
  6
CONTINUOUS
 62
     7
 66
     1
 10
0.0
 20
0.0
 30
0.0
  0
VERTEX
  5
366
  8
1
  6
CONTINUOUS
 62
     7
 10
-92.68009292741328
 20
-48.49164970673797
 30
0.0
  0
VERTEX
  5
367
  8
1
  6
CONTINUOUS
 62
     7
 10
-114.0241824949734
 20
-48.49164950564413
 30
0.0
 42
-0.0349514573546619
  0
VERTEX
  5
368
  8
1
  6
CONTINUOUS
 62
     7
 10
-120.1990830578123
 20
-46.80781490761781
 30
0.0
 42
-0.0396935486458979
  0
VERTEX
  5
369
  8
1
  6
CONTINUOUS
 62
     7
 10
-126.8273634949734
 20
-43.88400650564409
 30
0.0
 42
-0.0285862798044463
  0
VERTEX
  5
36A
  8
1
  6
CONTINUOUS
 62
     7
 10
-131.2689446536767
 20
-41.14898090434529
 30
0.0
 42
-0.0462145564503892
  0
VERTEX
  5
36B
  8
1
  6
CONTINUOUS
 62
     7
 10
-137.69784465227
 20
-35.71792466652857
 30
0.0
  0
VERTEX
  5
36C
  8
1
  6
CONTINUOUS
 62
     7
 10
-103.352137466846
 20
-35.71792466652857
 30
0.0
  0
VERTEX
  5
36D
  8
1
  6
CONTINUOUS
 62
     7
 10
-69.00643049497342
 20
-35.7179245056442
 30
0.0
 42
-0.0248775056099795
  0
VERTEX
  5
36E
  8
1
  6
CONTINUOUS
 62
     7
 10
-72.34568004414021
 20
-38.79153222149222
 30
0.0
 42
-0.0499079683508518
  0
VERTEX
  5
36F
  8
1
  6
CONTINUOUS
 62
     7
 10
-79.87755849497343
 20
-43.88400650564415
 30
0.0
 42
-0.0348666533673083
  0
VERTEX
  5
370
  8
1
  6
CONTINUOUS
 62
     7
 10
-85.67620351086698
 20
-46.50895078880418
 30
0.0
 42
-0.0397758600883047
  0
VERTEX
  5
371
  8
1
  6
CONTINUOUS
 62
     7
 10
-92.6800934949734
 20
-48.49164950564417
 30
0.0
  0
SEQEND
  5
372
  8
1
  6
CONTINUOUS
 62
     7
  0
POLYLINE
  5
373
  8
1
  6
CONTINUOUS
 62
     7
 66
     1
 10
0.0
 20
0.0
 30
0.0
  0
VERTEX
  5
374
  8
1
  6
CONTINUOUS
 62
     7
 10
-79.36686649497341
 20
46.82897549435587
 30
0.0
 42
-0.0319345151377609
  0
VERTEX
  5
375
  8
1
  6
CONTINUOUS
 62
     7
 10
-79.00278758741604
 20
46.80569838928605
 30
0.0
 42
-0.0308913412671231
  0
VERTEX
  5
376
  8
1
  6
CONTINUOUS
 62
     7
 10
-78.62853949497338
 20
46.73393349435584
 30
0.0
 42
-0.0296872553558691
  0
VERTEX
  5
377
  8
1
  6
CONTINUOUS
 62
     7
 10
-78.26762593975012
 20
46.61809386288056
 30
0.0
 42
-0.0290956552119807
  0
VERTEX
  5
378
  8
1
  6
CONTINUOUS
 62
     7
 10
-77.91062449497343
 20
46.45518249435586
 30
0.0
 42
-0.0259435788217938
  0
VERTEX
  5
379
  8
1
  6
CONTINUOUS
 62
     7
 10
-73.426350152493
 20
43.54280181357577
 30
0.0
 42
-0.0333987030654879
  0
VERTEX
  5
37A
  8
1
  6
CONTINUOUS
 62
     7
 10
-68.13275449497341
 20
39.13228749435585
 30
0.0
 42
-0.0377467117598683
  0
VERTEX
  5
37B
  8
1
  6
CONTINUOUS
 62
     7
 10
-67.80603148022607
 20
38.77288086125992
 30
0.0
 42
-0.0397477847422786
  0
VERTEX
  5
37C
  8
1
  6
CONTINUOUS
 62
     7
 10
-67.54996349497341
 20
38.38448949435586
 30
0.0
 42
-0.0651041898906701
  0
VERTEX
  5
37D
  8
1
  6
CONTINUOUS
 62
     7
 10
-67.28096901081824
 20
37.6979146130426
 30
0.0
 42
-0.0680413987321803
  0
VERTEX
  5
37E
  8
1
  6
CONTINUOUS
 62
     7
 10
-67.19763749497339
 20
36.92581449435585
 30
0.0
 42
-0.0462890867129584
  0
VERTEX
  5
37F
  8
1
  6
CONTINUOUS
 62
     7
 10
-67.26312755732647
 20
36.3866460204373
 30
0.0
 42
-0.0465559546625499
  0
VERTEX
  5
380
  8
1
  6
CONTINUOUS
 62
     7
 10
-67.43172149497342
 20
35.85378749435586
 30
0.0
 42
-0.0697991630062092
  0
VERTEX
  5
381
  8
1
  6
CONTINUOUS
 62
     7
 10
-67.8598116940591
 20
35.13775489192586
 30
0.0
 42
-0.0718732807013593
  0
VERTEX
  5
382
  8
1
  6
CONTINUOUS
 62
     7
 10
-68.46583549497339
 20
34.57422949435584
 30
0.0
 42
-0.0374424821880738
  0
VERTEX
  5
383
  8
1
  6
CONTINUOUS
 62
     7
 10
-68.83427738278672
 20
34.35799386922218
 30
0.0
 42
-0.0382417689057952
  0
VERTEX
  5
384
  8
1
  6
CONTINUOUS
 62
     7
 10
-69.24525649497338
 20
34.19411549435584
 30
0.0
 42
-0.0386771059531909
  0
VERTEX
  5
385
  8
1
  6
CONTINUOUS
 62
     7
 10
-69.69167544300961
 20
34.09162668209935
 30
0.0
 42
-0.03710575422456
  0
VERTEX
  5
386
  8
1
  6
CONTINUOUS
 62
     7
 10
-70.17190608408197
 20
34.05593870578491
 30
0.0
  0
VERTEX
  5
387
  8
1
  6
CONTINUOUS
 62
     7
 10
-136.5330584949734
 20
34.05593949435584
 30
0.0
 42
-0.037525375171608
  0
VERTEX
  5
388
  8
1
  6
CONTINUOUS
 62
     7
 10
-137.0186084764152
 20
34.0924317715303
 30
0.0
 42
-0.0394742240192098
  0
VERTEX
  5
389
  8
1
  6
CONTINUOUS
 62
     7
 10
-137.4733414949734
 20
34.19839549435583
 30
0.0
 42
-0.0639323023500576
  0
VERTEX
  5
38A
  8
1
  6
CONTINUOUS
 62
     7
 10
-138.1373012675967
 20
34.50736475353559
 30
0.0
 42
-0.0683266225049467
  0
VERTEX
  5
38B
  8
1
  6
CONTINUOUS
 62
     7
 10
-138.7390774949734
 20
35.01389649435585
 30
0.0
 42
-0.0460087088644189
  0
VERTEX
  5
38C
  8
1
  6
CONTINUOUS
 62
     7
 10
-139.0646190914968
 20
35.44864848259716
 30
0.0
 42
-0.0466123713125492
  0
VERTEX
  5
38D
  8
1
  6
CONTINUOUS
 62
     7
 10
-139.3120914949734
 20
35.95114049435586
 30
0.0
 42
-0.07000438855235
  0
VERTEX
  5
38E
  8
1
  6
CONTINUOUS
 62
     7
 10
-139.4980312482151
 20
36.76472339149973
 30
0.0
 42
-0.0722109840278947
  0
VERTEX
  5
38F
  8
1
  6
CONTINUOUS
 62
     7
 10
-139.4492304949734
 20
37.58716349435588
 30
0.0
 42
-0.0376858684383798
  0
VERTEX
  5
390
  8
1
  6
CONTINUOUS
 62
     7
 10
-139.332132862489
 20
37.99626951931543
 30
0.0
 42
-0.0385289892044469
  0
VERTEX
  5
391
  8
1
  6
CONTINUOUS
 62
     7
 10
-139.1478474949734
 20
38.39689849435582
 30
0.0
 42
-0.0389364421730331
  0
VERTEX
  5
392
  8
1
  6
CONTINUOUS
 62
     7
 10
-138.8954736222262
 20
38.77711914708084
 30
0.0
 42
-0.0373104181606572
  0
VERTEX
  5
393
  8
1
  6
CONTINUOUS
 62
     7
 10
-138.5722104949735
 20
39.13228749435577
 30
0.0
 42
-0.0279621004635589
  0
VERTEX
  5
394
  8
1
  6
CONTINUOUS
 62
     7
 10
-134.1715340461348
 20
42.87968882274555
 30
0.0
 42
-0.0313504025094418
  0
VERTEX
  5
395
  8
1
  6
CONTINUOUS
 62
     7
 10
-128.7943404949734
 20
46.45518249435585
 30
0.0
 42
-0.065012235746637
  0
VERTEX
  5
396
  8
1
  6
CONTINUOUS
 62
     7
 10
-128.1055412755243
 20
46.73179424161592
 30
0.0
 42
-0.0630910313226322
  0
VERTEX
  5
397
  8
1
  6
CONTINUOUS
 62
     7
 10
-127.3384425281237
 20
46.82897472689717
 30
0.0
  0
VERTEX
  5
398
  8
1
  6
CONTINUOUS
 62
     7
 10
-79.36686593421382
 20
46.82897472689717
 30
0.0
  0
SEQEND
  5
399
  8
1
  6
CONTINUOUS
 62
     7
  0
POLYLINE
  5
39A
  8
1
  6
CONTINUOUS
 62
     7
 66
     1
 10
0.0
 20
0.0
 30
0.0
  0
VERTEX
  5
39B
  8
1
  6
CONTINUOUS
 62
     7
 10
-82.44505949497339
 20
48.78475549435588
 30
0.0
 42
-0.0442439759198556
  0
VERTEX
  5
39C
  8
1
  6
CONTINUOUS
 62
     7
 10
-82.36326801232441
 20
48.73797807845265
 30
0.0
 42
-0.0472568718802213
  0
VERTEX
  5
39D
  8
1
  6
CONTINUOUS
 62
     7
 10
-82.29548849497336
 20
48.68061149435585
 30
0.0
 42
-0.148685430112314
  0
VERTEX
  5
39E
  8
1
  6
CONTINUOUS
 62
     7
 10
-82.1702209998395
 20
48.43925661298829
 30
0.0
 42
-0.1374953501712181
  0
VERTEX
  5
39F
  8
1
  6
CONTINUOUS
 62
     7
 10
-82.19661849497341
 20
48.14588949435586
 30
0.0
 42
-0.0689412881995634
  0
VERTEX
  5
3A0
  8
1
  6
CONTINUOUS
 62
     7
 10
-82.26658064008048
 20
48.01803269102079
 30
0.0
 42
-0.0731860885735076
  0
VERTEX
  5
3A1
  8
1
  6
CONTINUOUS
 62
     7
 10
-82.36428349497339
 20
47.92014649435583
 30
0.0
 42
-0.0825866766904057
  0
VERTEX
  5
3A2
  8
1
  6
CONTINUOUS
 62
     7
 10
-82.49673164128781
 20
47.85196118077138
 30
0.0
 42
-0.0778126897304859
  0
VERTEX
  5
3A3
  8
1
  6
CONTINUOUS
 62
     7
 10
-82.65383153669063
 20
47.82736339852261
 30
0.0
  0
VERTEX
  5
3A4
  8
1
  6
CONTINUOUS
 62
     7
 10
-124.0514774949734
 20
47.82736349435584
 30
0.0
 42
-0.044284577479506
  0
VERTEX
  5
3A5
  8
1
  6
CONTINUOUS
 62
     7
 10
-124.1453668999516
 20
47.835695539787
 30
0.0
 42
-0.0473507744138418
  0
VERTEX
  5
3A6
  8
1
  6
CONTINUOUS
 62
     7
 10
-124.2308304949734
 20
47.85950049435582
 30
0.0
 42
-0.1490969909020468
  0
VERTEX
  5
3A7
  8
1
  6
CONTINUOUS
 62
     7
 10
-124.4448827884945
 20
48.02641685081836
 30
0.0
 42
-0.1376071483382417
  0
VERTEX
  5
3A8
  8
1
  6
CONTINUOUS
 62
     7
 10
-124.5428334949734
 20
48.30421249435585
 30
0.0
 42
-0.0687851178369026
  0
VERTEX
  5
3A9
  8
1
  6
CONTINUOUS
 62
     7
 10
-124.5323663996292
 20
48.44961669791933
 30
0.0
 42
-0.0729639363325804
  0
VERTEX
  5
3AA
  8
1
  6
CONTINUOUS
 62
     7
 10
-124.4842494949734
 20
48.57946049435584
 30
0.0
 42
-0.0823449977776541
  0
VERTEX
  5
3AB
  8
1
  6
CONTINUOUS
 62
     7
 10
-124.3922511981668
 20
48.696815467528
 30
0.0
 42
-0.0777204898313827
  0
VERTEX
  5
3AC
  8
1
  6
CONTINUOUS
 62
     7
 10
-124.2599054949734
 20
48.78475549435586
 30
0.0
 42
-0.0449464810388875
  0
VERTEX
  5
3AD
  8
1
  6
CONTINUOUS
 62
     7
 10
-115.5594026402858
 20
51.76315738651459
 30
0.0
 42
-0.0600692803243876
  0
VERTEX
  5
3AE
  8
1
  6
CONTINUOUS
 62
     7
 10
-103.3620424949734
 20
53.23383849435584
 30
0.0
 42
-0.0147034592224318
  0
VERTEX
  5
3AF
  8
1
  6
CONTINUOUS
 62
     7
 10
-100.342531848013
 20
53.14502479023042
 30
0.0
 42
-0.0374241782493311
  0
VERTEX
  5
3B0
  8
1
  6
CONTINUOUS
 62
     7
 10
-92.7288844949734
 20
52.12156749435585
 30
0.0
 42
-0.0243696331892394
  0
VERTEX
  5
3B1
  8
1
  6
CONTINUOUS
 62
     7
 10
-87.88739491982201
 20
50.84830769212879
 30
0.0
 42
-0.028269027869711
  0
VERTEX
  5
3B2
  8
1
  6
CONTINUOUS
 62
     7
 10
-82.44505949497342
 20
48.78475549435583
 30
0.0
  0
SEQEND
  5
3B3
  8
1
  6
CONTINUOUS
 62
     7
  0
POLYLINE
  5
3B4
  8
1
  6
CONTINUOUS
 62
     7
 66
     1
 10
0.0
 20
0.0
 30
0.0
  0
VERTEX
  5
3B5
  8
1
  6
CONTINUOUS
 62
     7
 10
-57.44021149497341
 20
24.52818349435585
 30
0.0
 42
-0.0324222059597337
  0
VERTEX
  5
3B6
  8
1
  6
CONTINUOUS
 62
     7
 10
-57.28858157499274
 20
24.16425166568331
 30
0.0
 42
-0.0335186994926431
  0
VERTEX
  5
3B7
  8
1
  6
CONTINUOUS
 62
     7
 10
-57.1879064949734
 20
23.79023049435585
 30
0.0
 42
-0.1099435783430556
  0
VERTEX
  5
3B8
  8
1
  6
CONTINUOUS
 62
     7
 10
-57.21652868259992
 20
22.55025296803217
 30
0.0
 42
-0.1095998111294338
  0
VERTEX
  5
3B9
  8
1
  6
CONTINUOUS
 62
     7
 10
-57.78311649497338
 20
21.40785849435587
 30
0.0
 42
-0.0536455271123411
  0
VERTEX
  5
3BA
  8
1
  6
CONTINUOUS
 62
     7
 10
-58.22747222595255
 20
20.96397627310917
 30
0.0
 42
-0.05527361140544
  0
VERTEX
  5
3BB
  8
1
  6
CONTINUOUS
 62
     7
 10
-58.76249849497339
 20
20.62311949435583
 30
0.0
 42
-0.0279530257890099
  0
VERTEX
  5
3BC
  8
1
  6
CONTINUOUS
 62
     7
 10
-59.05744981632925
 20
20.49809672071599
 30
0.0
 42
-0.0289082123205648
  0
VERTEX
  5
3BD
  8
1
  6
CONTINUOUS
 62
     7
 10
-59.3783974949734
 20
20.40329049435583
 30
0.0
 42
-0.0289021939473964
  0
VERTEX
  5
3BE
  8
1
  6
CONTINUOUS
 62
     7
 10
-59.71228258861748
 20
20.34541545560964
 30
0.0
 42
-0.0284696500129651
  0
VERTEX
  5
3BF
  8
1
  6
CONTINUOUS
 62
     7
 10
-60.06158436351927
 20
20.32551064932164
 30
0.0
  0
VERTEX
  5
3C0
  8
1
  6
CONTINUOUS
 62
     7
 10
-146.6437244949734
 20
20.32551149435584
 30
0.0
 42
-0.0322509116306511
  0
VERTEX
  5
3C1
  8
1
  6
CONTINUOUS
 62
     7
 10
-147.0380694556318
 20
20.35097394735195
 30
0.0
 42
-0.0333316486670871
  0
VERTEX
  5
3C2
  8
1
  6
CONTINUOUS
 62
     7
 10
-147.4191134949734
 20
20.42647049435583
 30
0.0
 42
-0.1091810668738492
  0
VERTEX
  5
3C3
  8
1
  6
CONTINUOUS
 62
     7
 10
-148.5210000637453
 20
20.99975963522146
 30
0.0
 42
-0.1096790525387605
  0
VERTEX
  5
3C4
  8
1
  6
CONTINUOUS
 62
     7
 10
-149.2991034949734
 20
22.01260149435586
 30
0.0
 42
-0.0538770237255113
  0
VERTEX
  5
3C5
  8
1
  6
CONTINUOUS
 62
     7
 10
-149.5021888216253
 20
22.60756986831113
 30
0.0
 42
-0.0554364434896356
  0
VERTEX
  5
3C6
  8
1
  6
CONTINUOUS
 62
     7
 10
-149.5718514949734
 20
23.23527349435631
 30
0.0
 42
-0.028070959554707
  0
VERTEX
  5
3C7
  8
1
  6
CONTINUOUS
 62
     7
 10
-149.5538806442917
 20
23.55379678465221
 30
0.0
 42
-0.0291250019616181
  0
VERTEX
  5
3C8
  8
1
  6
CONTINUOUS
 62
     7
 10
-149.4971124949734
 20
23.88308149435584
 30
0.0
 42
-0.0290780339713781
  0
VERTEX
  5
3C9
  8
1
  6
CONTINUOUS
 62
     7
 10
-149.4014382817588
 20
24.20712128936776
 30
0.0
 42
-0.0286322890580758
  0
VERTEX
  5
3CA
  8
1
  6
CONTINUOUS
 62
     7
 10
-149.2647534949734
 20
24.52818349435574
 30
0.0
 42
-0.0206304756038211
  0
VERTEX
  5
3CB
  8
1
  6
CONTINUOUS
 62
     7
 10
-147.2507318772664
 20
28.28669038411453
 30
0.0
 42
-0.0212250245687859
  0
VERTEX
  5
3CC
  8
1
  6
CONTINUOUS
 62
     7
 10
-144.9377134949734
 20
31.85107849435585
 30
0.0
 42
-0.0481589083353604
  0
VERTEX
  5
3CD
  8
1
  6
CONTINUOUS
 62
     7
 10
-144.5736693209532
 20
32.27702012153588
 30
0.0
 42
-0.072682295242707
  0
VERTEX
  5
3CE
  8
1
  6
CONTINUOUS
 62
     7
 10
-143.8879924949734
 20
32.76885149435588
 30
0.0
 42
-0.059434031066001
  0
VERTEX
  5
3CF
  8
1
  6
CONTINUOUS
 62
     7
 10
-143.2365023801565
 20
33.01288615814191
 30
0.0
 42
-0.0599899342652984
  0
VERTEX
  5
3D0
  8
1
  6
CONTINUOUS
 62
     7
 10
-142.525112446202
 20
33.09854667043396
 30
0.0
  0
VERTEX
  5
3D1
  8
1
  6
CONTINUOUS
 62
     7
 10
-64.18019649497342
 20
33.09854749435586
 30
0.0
 42
-0.05986322318226
  0
VERTEX
  5
3D2
  8
1
  6
CONTINUOUS
 62
     7
 10
-63.49817025691174
 20
33.01659723916097
 30
0.0
 42
-0.0595398629488802
  0
VERTEX
  5
3D3
  8
1
  6
CONTINUOUS
 62
     7
 10
-62.8361784949734
 20
32.76885149435584
 30
0.0
 42
-0.0577383937323135
  0
VERTEX
  5
3D4
  8
1
  6
CONTINUOUS
 62
     7
 10
-62.25599545665197
 20
32.37837187260079
 30
0.0
 42
-0.0575011997108522
  0
VERTEX
  5
3D5
  8
1
  6
CONTINUOUS
 62
     7
 10
-61.76656249497341
 20
31.85107849435587
 30
0.0
 42
-0.0208984359984472
  0
VERTEX
  5
3D6
  8
1
  6
CONTINUOUS
 62
     7
 10
-59.48075879163531
 20
28.33212595200775
 30
0.0
 42
-0.0209614794975184
  0
VERTEX
  5
3D7
  8
1
  6
CONTINUOUS
 62
     7
 10
-57.44021149497341
 20
24.52818349435585
 30
0.0
  0
SEQEND
  5
3D8
  8
1
  6
CONTINUOUS
 62
     7
  0
POLYLINE
  5
3D9
  8
1
  6
CONTINUOUS
 62
     7
 66
     1
 10
0.0
 20
0.0
 30
0.0
  0
VERTEX
  5
3DA
  8
1
  6
CONTINUOUS
 62
     7
 10
-153.4253954949734
 20
12.46173649435575
 30
0.0
 42
-0.0160548959802667
  0
VERTEX
  5
3DB
  8
1
  6
CONTINUOUS
 62
     7
 10
-152.5905368184008
 20
15.8251354381954
 30
0.0
 42
-0.0171414376568762
  0
VERTEX
  5
3DC
  8
1
  6
CONTINUOUS
 62
     7
 10
-151.4699583641047
 20
19.32712197769627
 30
0.0
  0
VERTEX
  5
3DD
  8
1
  6
CONTINUOUS
 62
     7
 10
-55.2343174949734
 20
19.32712249435588
 30
0.0
 42
-0.0173456200192046
  0
VERTEX
  5
3DE
  8
1
  6
CONTINUOUS
 62
     7
 10
-54.18463227527024
 20
16.03743065820197
 30
0.0
 42
-0.0185871866489112
  0
VERTEX
  5
3DF
  8
1
  6
CONTINUOUS
 62
     7
 10
-53.32091149497339
 20
12.46173649435582
 30
0.0
 42
-0.0283427929340829
  0
VERTEX
  5
3E0
  8
1
  6
CONTINUOUS
 62
     7
 10
-53.23533319949119
 20
11.90121039681901
 30
0.0
 42
-0.0291507139914926
  0
VERTEX
  5
3E1
  8
1
  6
CONTINUOUS
 62
     7
 10
-53.2146144949734
 20
11.33459849435587
 30
0.0
 42
-0.0956158693014384
  0
VERTEX
  5
3E2
  8
1
  6
CONTINUOUS
 62
     7
 10
-53.60169452379247
 20
9.53957514626347
 30
0.0
 42
-0.096475902339424
  0
VERTEX
  5
3E3
  8
1
  6
CONTINUOUS
 62
     7
 10
-54.66187849497339
 20
7.974498494355819
 30
0.0
 42
-0.0471024303003814
  0
VERTEX
  5
3E4
  8
1
  6
CONTINUOUS
 62
     7
 10
-55.3763738820817
 20
7.386111483992714
 30
0.0
 42
-0.0486466330132632
  0
VERTEX
  5
3E5
  8
1
  6
CONTINUOUS
 62
     7
 10
-56.20262049497342
 20
6.937350494355832
 30
0.0
 42
-0.0501013338042654
  0
VERTEX
  5
3E6
  8
1
  6
CONTINUOUS
 62
     7
 10
-57.12144582793547
 20
6.652902509150292
 30
0.0
 42
-0.0500670439126555
  0
VERTEX
  5
3E7
  8
1
  6
CONTINUOUS
 62
     7
 10
-58.10580365654295
 20
6.554085956583947
 30
0.0
  0
VERTEX
  5
3E8
  8
1
  6
CONTINUOUS
 62
     7
 10
-148.5991604949734
 20
6.554086494355829
 30
0.0
 42
-0.0283459929341356
  0
VERTEX
  5
3E9
  8
1
  6
CONTINUOUS
 62
     7
 10
-149.1645041116581
 20
6.586162719780527
 30
0.0
 42
-0.0291584045781411
  0
VERTEX
  5
3EA
  8
1
  6
CONTINUOUS
 62
     7
 10
-149.7241014949734
 20
6.68317449435583
 30
0.0
 42
-0.0954700821879399
  0
VERTEX
  5
3EB
  8
1
  6
CONTINUOUS
 62
     7
 10
-151.4061277273092
 20
7.434962801039981
 30
0.0
 42
-0.0956646778492419
  0
VERTEX
  5
3EC
  8
1
  6
CONTINUOUS
 62
     7
 10
-152.7239314949734
 20
8.795712494355818
 30
0.0
 42
-0.0468739510332199
  0
VERTEX
  5
3ED
  8
1
  6
CONTINUOUS
 62
     7
 10
-153.1576086861489
 20
9.618779539804455
 30
0.0
 42
-0.0483134809693972
  0
VERTEX
  5
3EE
  8
1
  6
CONTINUOUS
 62
     7
 10
-153.4308734949734
 20
10.51902049435586
 30
0.0
 42
-0.0498640962721368
  0
VERTEX
  5
3EF
  8
1
  6
CONTINUOUS
 62
     7
 10
-153.5255161587622
 20
11.47666796217942
 30
0.0
 42
-0.0501184962730082
  0
VERTEX
  5
3F0
  8
1
  6
CONTINUOUS
 62
     7
 10
-153.4253954949734
 20
12.46173649435582
 30
0.0
  0
SEQEND
  5
3F1
  8
1
  6
CONTINUOUS
 62
     7
  0
POLYLINE
  5
3F2
  8
1
  6
CONTINUOUS
 62
     7
 66
     1
 10
0.0
 20
0.0
 30
0.0
  0
VERTEX
  5
3F3
  8
1
  6
CONTINUOUS
 62
     7
 10
-146.5606974949734
 20
-7.217338505644122
 30
0.0
 42
-0.0481885705534158
  0
VERTEX
  5
3F4
  8
1
  6
CONTINUOUS
 62
     7
 10
-148.0789931632479
 20
-7.070668922720325
 30
0.0
 42
-0.0497424199603339
  0
VERTEX
  5
3F5
  8
1
  6
CONTINUOUS
 62
     7
 10
-149.5613974949734
 20
-6.625056505644138
 30
0.0
 42
-0.0687488242478701
  0
VERTEX
  5
3F6
  8
1
  6
CONTINUOUS
 62
     7
 10
-151.4177130605855
 20
-5.540667047353333
 30
0.0
 42
-0.0728282355953073
  0
VERTEX
  5
3F7
  8
1
  6
CONTINUOUS
 62
     7
 10
-152.9947634949734
 20
-3.879481505644129
 30
0.0
 42
-0.0345599291046566
  0
VERTEX
  5
3F8
  8
1
  6
CONTINUOUS
 62
     7
 10
-153.5576873935904
 20
-2.950795913140791
 30
0.0
 42
-0.0371053506512865
  0
VERTEX
  5
3F9
  8
1
  6
CONTINUOUS
 62
     7
 10
-154.0108714949734
 20
-1.883859505644178
 30
0.0
 42
-0.0366367478105298
  0
VERTEX
  5
3FA
  8
1
  6
CONTINUOUS
 62
     7
 10
-154.2986251754675
 20
-0.7765516152513721
 30
0.0
 42
-0.0370584987707096
  0
VERTEX
  5
3FB
  8
1
  6
CONTINUOUS
 62
     7
 10
-154.4244724949734
 20
0.3959784943559912
 30
0.0
 42
-0.0117698813293625
  0
VERTEX
  5
3FC
  8
1
  6
CONTINUOUS
 62
     7
 10
-154.4455176711167
 20
2.925190303182658
 30
0.0
 42
-0.0123591155526774
  0
VERTEX
  5
3FD
  8
1
  6
CONTINUOUS
 62
     7
 10
-154.3404119224149
 20
5.555697284958569
 30
0.0
  0
VERTEX
  5
3FE
  8
1
  6
CONTINUOUS
 62
     7
 10
-52.36386349497341
 20
5.555697494355798
 30
0.0
 42
-0.0087996629701721
  0
VERTEX
  5
3FF
  8
1
  6
CONTINUOUS
 62
     7
 10
-52.27590297564441
 20
3.679728473589599
 30
0.0
 42
-0.0153798426059744
  0
VERTEX
  5
400
  8
1
  6
CONTINUOUS
 62
     7
 10
-52.2808364949734
 20
0.3959784943558542
 30
0.0
 42
-0.0481627503803526
  0
VERTEX
  5
401
  8
1
  6
CONTINUOUS
 62
     7
 10
-52.47729094459004
 20
-1.118376210828386
 30
0.0
 42
-0.0496916569237569
  0
VERTEX
  5
402
  8
1
  6
CONTINUOUS
 62
     7
 10
-52.97091649497342
 20
-2.585498505644163
 30
0.0
 42
-0.0683384355564628
  0
VERTEX
  5
403
  8
1
  6
CONTINUOUS
 62
     7
 10
-54.10735320588434
 20
-4.396830224085774
 30
0.0
 42
-0.0732393357958556
  0
VERTEX
  5
404
  8
1
  6
CONTINUOUS
 62
     7
 10
-55.82636849497341
 20
-5.928372505644157
 30
0.0
 42
-0.0346384787595337
  0
VERTEX
  5
405
  8
1
  6
CONTINUOUS
 62
     7
 10
-56.77433855707644
 20
-6.461520105574391
 30
0.0
 42
-0.037067827209014
  0
VERTEX
  5
406
  8
1
  6
CONTINUOUS
 62
     7
 10
-57.85327449497338
 20
-6.878721505644177
 30
0.0
 42
-0.0366601750119731
  0
VERTEX
  5
407
  8
1
  6
CONTINUOUS
 62
     7
 10
-58.96877416590858
 20
-7.13002015646508
 30
0.0
 42
-0.0370901582009265
  0
VERTEX
  5
408
  8
1
  6
CONTINUOUS
 62
     7
 10
-60.14426665516527
 20
-7.217338736153749
 30
0.0
  0
VERTEX
  5
409
  8
1
  6
CONTINUOUS
 62
     7
 10
-146.5606972976237
 20
-7.217338736153749
 30
0.0
  0
SEQEND
  5
40A
  8
1
  6
CONTINUOUS
 62
     7
  0
POLYLINE
  5
40B
  8
1
  6
CONTINUOUS
 62
     7
 66
     1
 10
0.0
 20
0.0
 30
0.0
  0
VERTEX
  5
40C
  8
1
  6
CONTINUOUS
 62
     7
 10
-53.6120214949734
 20
-9.630283505644174
 30
0.0
 42
-0.0412370925319319
  0
VERTEX
  5
40D
  8
1
  6
CONTINUOUS
 62
     7
 10
-54.35779648318662
 20
-11.93671267919087
 30
0.0
 42
-0.0439619865255257
  0
VERTEX
  5
40E
  8
1
  6
CONTINUOUS
 62
     7
 10
-55.55015649497338
 20
-14.21017650564414
 30
0.0
 42
-0.0600589944529747
  0
VERTEX
  5
40F
  8
1
  6
CONTINUOUS
 62
     7
 10
-57.79493628356546
 20
-16.92519048090584
 30
0.0
 42
-0.0637558344051632
  0
VERTEX
  5
410
  8
1
  6
CONTINUOUS
 62
     7
 10
-60.82811749497341
 20
-19.14888350564417
 30
0.0
 42
-0.0297131794240747
  0
VERTEX
  5
411
  8
1
  6
CONTINUOUS
 62
     7
 10
-62.41005721158751
 20
-19.90499297319965
 30
0.0
 42
-0.0327112317645669
  0
VERTEX
  5
412
  8
1
  6
CONTINUOUS
 62
     7
 10
-64.2339334949734
 20
-20.51154350564417
 30
0.0
 42
-0.0313678198461419
  0
VERTEX
  5
413
  8
1
  6
CONTINUOUS
 62
     7
 10
-66.04104475933173
 20
-20.86460110588912
 30
0.0
 42
-0.0325681551757321
  0
VERTEX
  5
414
  8
1
  6
CONTINUOUS
 62
     7
 10
-67.96635595442504
 20
-20.99014146708555
 30
0.0
  0
VERTEX
  5
415
  8
1
  6
CONTINUOUS
 62
     7
 10
-138.7379194949734
 20
-20.99014050564418
 30
0.0
 42
-0.0413481321804173
  0
VERTEX
  5
416
  8
1
  6
CONTINUOUS
 62
     7
 10
-141.1745643322807
 20
-20.78829398948815
 30
0.0
 42
-0.0435739484581378
  0
VERTEX
  5
417
  8
1
  6
CONTINUOUS
 62
     7
 10
-143.6490964949734
 20
-20.15013550564415
 30
0.0
 42
-0.0571843647490498
  0
VERTEX
  5
418
  8
1
  6
CONTINUOUS
 62
     7
 10
-146.6735331704173
 20
-18.67523168236092
 30
0.0
 42
-0.0665557369902869
  0
VERTEX
  5
419
  8
1
  6
CONTINUOUS
 62
     7
 10
-149.6704584949734
 20
-16.14640050564412
 30
0.0
 42
-0.0301655998132113
  0
VERTEX
  5
41A
  8
1
  6
CONTINUOUS
 62
     7
 10
-150.7825713635968
 20
-14.76177081959668
 30
0.0
 42
-0.0323815370792882
  0
VERTEX
  5
41B
  8
1
  6
CONTINUOUS
 62
     7
 10
-151.7758804949734
 20
-13.14753950564413
 30
0.0
 42
-0.0313818145854445
  0
VERTEX
  5
41C
  8
1
  6
CONTINUOUS
 62
     7
 10
-152.5305108390983
 20
-11.47634258078403
 30
0.0
 42
-0.0327600520080714
  0
VERTEX
  5
41D
  8
1
  6
CONTINUOUS
 62
     7
 10
-153.0932873567544
 20
-9.630283614022744
 30
0.0
  0
VERTEX
  5
41E
  8
1
  6
CONTINUOUS
 62
     7
 10
-153.4253945615325
 20
-8.216760936424748
 30
0.0
  0
SEQEND
  5
41F
  8
1
  6
CONTINUOUS
 62
     7
  0
POLYLINE
  5
420
  8
1
  6
CONTINUOUS
 62
     7
 66
     1
 10
0.0
 20
0.0
 30
0.0
  0
VERTEX
  5
421
  8
1
  6
CONTINUOUS
 62
     7
 10
-153.342367760338
 20
-8.216760936424748
 30
0.0
  0
VERTEX
  5
422
  8
1
  6
CONTINUOUS
 62
     7
 10
-53.32091149497343
 20
-8.216760505644189
 30
0.0
 42
-0.006791742098222
  0
VERTEX
  5
423
  8
1
  6
CONTINUOUS
 62
     7
 10
-53.45128600553247
 20
-8.900016150703319
 30
0.0
 42
-0.0072601432936699
  0
VERTEX
  5
424
  8
1
  6
CONTINUOUS
 62
     7
 10
-53.61202149497339
 20
-9.630283505644172
 30
0.0
  0
SEQEND
  5
425
  8
1
  6
CONTINUOUS
 62
     7
  0
POLYLINE
  5
426
  8
1
  6
CONTINUOUS
 62
     7
 66
     1
 10
0.0
 20
0.0
 30
0.0
  0
VERTEX
  5
427
  8
1
  6
CONTINUOUS
 62
     7
 10
-92.68009292741328
 20
-48.49164970673797
 30
0.0
  0
VERTEX
  5
428
  8
1
  6
CONTINUOUS
 62
     7
 10
-114.0241824949734
 20
-48.49164950564413
 30
0.0
 42
-0.0349514573546619
  0
VERTEX
  5
429
  8
1
  6
CONTINUOUS
 62
     7
 10
-120.1990830578123
 20
-46.80781490761781
 30
0.0
 42
-0.0396935486458979
  0
VERTEX
  5
42A
  8
1
  6
CONTINUOUS
 62
     7
 10
-126.8273634949734
 20
-43.88400650564409
 30
0.0
 42
-0.0285862798044463
  0
VERTEX
  5
42B
  8
1
  6
CONTINUOUS
 62
     7
 10
-131.2689446536767
 20
-41.14898090434529
 30
0.0
 42
-0.0462145564503892
  0
VERTEX
  5
42C
  8
1
  6
CONTINUOUS
 62
     7
 10
-137.69784465227
 20
-35.71792466652857
 30
0.0
  0
VERTEX
  5
42D
  8
1
  6
CONTINUOUS
 62
     7
 10
-103.352137466846
 20
-35.71792466652857
 30
0.0
  0
VERTEX
  5
42E
  8
1
  6
CONTINUOUS
 62
     7
 10
-69.00643049497342
 20
-35.7179245056442
 30
0.0
 42
-0.0248775056099795
  0
VERTEX
  5
42F
  8
1
  6
CONTINUOUS
 62
     7
 10
-72.34568004414021
 20
-38.79153222149222
 30
0.0
 42
-0.0499079683508518
  0
VERTEX
  5
430
  8
1
  6
CONTINUOUS
 62
     7
 10
-79.87755849497343
 20
-43.88400650564415
 30
0.0
 42
-0.0348666533673083
  0
VERTEX
  5
431
  8
1
  6
CONTINUOUS
 62
     7
 10
-85.67620351086698
 20
-46.50895078880418
 30
0.0
 42
-0.0397758600883047
  0
VERTEX
  5
432
  8
1
  6
CONTINUOUS
 62
     7
 10
-92.6800934949734
 20
-48.49164950564417
 30
0.0
  0
SEQEND
  5
433
  8
1
  6
CONTINUOUS
 62
     7
  0
POLYLINE
  5
434
  8
1
  6
CONTINUOUS
 62
     7
 66
     1
 10
0.0
 20
0.0
 30
0.0
  0
VERTEX
  5
435
  8
1
  6
CONTINUOUS
 62
     7
 10
-68.63194840217528
 20
15.87375826328184
 30
0.0
  0
VERTEX
  5
436
  8
1
  6
CONTINUOUS
 62
     7
 10
-143.1073344949734
 20
15.87375849435585
 30
0.0
 42
-0.0572220008174859
  0
VERTEX
  5
437
  8
1
  6
CONTINUOUS
 62
     7
 10
-144.8402341823012
 20
16.07272997273376
 30
0.0
 42
-0.0665303787118144
  0
VERTEX
  5
438
  8
1
  6
CONTINUOUS
 62
     7
 10
-146.7396274949734
 20
16.79092949435585
 30
0.0
 42
-0.0604736829710332
  0
VERTEX
  5
439
  8
1
  6
CONTINUOUS
 62
     7
 10
-148.2543393132343
 20
17.86128515715844
 30
0.0
 42
-0.0623771116942131
  0
VERTEX
  5
43A
  8
1
  6
CONTINUOUS
 62
     7
 10
-149.5148666762254
 20
19.32712197769627
 30
0.0
  0
VERTEX
  5
43B
  8
1
  6
CONTINUOUS
 62
     7
 10
-103.3524819763945
 20
19.32712197769627
 30
0.0
  0
VERTEX
  5
43C
  8
1
  6
CONTINUOUS
 62
     7
 10
-57.19009749497338
 20
19.32712249435586
 30
0.0
 42
-0.0601439371381816
  0
VERTEX
  5
43D
  8
1
  6
CONTINUOUS
 62
     7
 10
-58.39860891790683
 20
17.90842116009977
 30
0.0
 42
-0.0627627051717513
  0
VERTEX
  5
43E
  8
1
  6
CONTINUOUS
 62
     7
 10
-59.96482049497339
 20
16.79092949435583
 30
0.0
 42
-0.0559368204467384
  0
VERTEX
  5
43F
  8
1
  6
CONTINUOUS
 62
     7
 10
-61.55080273036275
 20
16.15266157138042
 30
0.0
 42
-0.067816996516165
  0
VERTEX
  5
440
  8
1
  6
CONTINUOUS
 62
     7
 10
-63.59763036957972
 20
15.87375826328184
 30
0.0
  0
VERTEX
  5
441
  8
1
  6
CONTINUOUS
 62
     7
 10
-68.63194840217528
 20
15.87375826328184
 30
0.0
  0
SEQEND
  5
442
  8
1
  6
CONTINUOUS
 62
     7
  0
POLYLINE
  5
443
  8
1
  6
CONTINUOUS
 62
     7
 66
     1
 10
0.0
 20
0.0
 30
0.0
  0
VERTEX
  5
444
  8
1
  6
CONTINUOUS
 62
     7
 10
-68.63194840217528
 20
15.87375826328184
 30
0.0
  0
VERTEX
  5
445
  8
1
  6
CONTINUOUS
 62
     7
 10
-143.1073344949734
 20
15.87375849435585
 30
0.0
 42
-0.0572220008174859
  0
VERTEX
  5
446
  8
1
  6
CONTINUOUS
 62
     7
 10
-144.8402341823012
 20
16.07272997273376
 30
0.0
 42
-0.0665303787118144
  0
VERTEX
  5
447
  8
1
  6
CONTINUOUS
 62
     7
 10
-146.7396274949734
 20
16.79092949435585
 30
0.0
 42
-0.0604736829710332
  0
VERTEX
  5
448
  8
1
  6
CONTINUOUS
 62
     7
 10
-148.2543393132343
 20
17.86128515715844
 30
0.0
 42
-0.0623771116942131
  0
VERTEX
  5
449
  8
1
  6
CONTINUOUS
 62
     7
 10
-149.5148666762254
 20
19.32712197769627
 30
0.0
  0
VERTEX
  5
44A
  8
1
  6
CONTINUOUS
 62
     7
 10
-103.3524819763945
 20
19.32712197769627
 30
0.0
  0
VERTEX
  5
44B
  8
1
  6
CONTINUOUS
 62
     7
 10
-57.19009749497338
 20
19.32712249435586
 30
0.0
 42
-0.0601439371381816
  0
VERTEX
  5
44C
  8
1
  6
CONTINUOUS
 62
     7
 10
-58.39860891790683
 20
17.90842116009977
 30
0.0
 42
-0.0627627051717513
  0
VERTEX
  5
44D
  8
1
  6
CONTINUOUS
 62
     7
 10
-59.96482049497339
 20
16.79092949435583
 30
0.0
 42
-0.0559368204467384
  0
VERTEX
  5
44E
  8
1
  6
CONTINUOUS
 62
     7
 10
-61.55080273036275
 20
16.15266157138042
 30
0.0
 42
-0.067816996516165
  0
VERTEX
  5
44F
  8
1
  6
CONTINUOUS
 62
     7
 10
-63.59763036957972
 20
15.87375826328184
 30
0.0
  0
VERTEX
  5
450
  8
1
  6
CONTINUOUS
 62
     7
 10
-68.63194840217528
 20
15.87375826328184
 30
0.0
  0
SEQEND
  5
451
  8
1
  6
CONTINUOUS
 62
     7
  0
POLYLINE
  5
452
  8
1
  6
CONTINUOUS
 62
     7
 66
     1
 10
0.0
 20
0.0
 30
0.0
  0
VERTEX
  5
453
  8
1
  6
CONTINUOUS
 62
     7
 10
-68.63194840217528
 20
16.28958128835149
 30
0.0
  0
VERTEX
  5
454
  8
1
  6
CONTINUOUS
 62
     7
 10
-143.1073335832092
 20
16.28958128835149
 30
0.0
  0
VERTEX
  5
455
  8
1
  6
CONTINUOUS
 62
     7
 10
-144.0230399631886
 20
16.33161145327153
 30
0.0
  0
VERTEX
  5
456
  8
1
  6
CONTINUOUS
 62
     7
 10
-144.9377128145225
 20
16.49766505566055
 30
0.0
  0
VERTEX
  5
457
  8
1
  6
CONTINUOUS
 62
     7
 10
-145.8120780486789
 20
16.78912013371269
 30
0.0
  0
VERTEX
  5
458
  8
1
  6
CONTINUOUS
 62
     7
 10
-146.6437240988182
 20
17.16429103205644
 30
0.0
  0
VERTEX
  5
459
  8
1
  6
CONTINUOUS
 62
     7
 10
-147.4347180222316
 20
17.66279634877208
 30
0.0
  0
VERTEX
  5
45A
  8
1
  6
CONTINUOUS
 62
     7
 10
-148.1413071062563
 20
18.24467297623073
 30
0.0
  0
VERTEX
  5
45B
  8
1
  6
CONTINUOUS
 62
     7
 10
-148.8072440635551
 20
18.91129895262657
 30
0.0
  0
VERTEX
  5
45C
  8
1
  6
CONTINUOUS
 62
     7
 10
-149.1396957778817
 20
19.32712197769627
 30
0.0
  0
VERTEX
  5
45D
  8
1
  6
CONTINUOUS
 62
     7
 10
-57.6059203016332
 20
19.32712197769627
 30
0.0
  0
VERTEX
  5
45E
  8
1
  6
CONTINUOUS
 62
     7
 10
-57.89737537968534
 20
18.91129895262657
 30
0.0
  0
VERTEX
  5
45F
  8
1
  6
CONTINUOUS
 62
     7
 10
-58.56365684653264
 20
18.24467297623073
 30
0.0
  0
VERTEX
  5
460
  8
1
  6
CONTINUOUS
 62
     7
 10
-59.27059044010593
 20
17.66279634877208
 30
0.0
  0
VERTEX
  5
461
  8
1
  6
CONTINUOUS
 62
     7
 10
-60.06158436351927
 20
17.16429103205644
 30
0.0
  0
VERTEX
  5
462
  8
1
  6
CONTINUOUS
 62
     7
 10
-60.89323041365861
 20
16.78912013371269
 30
0.0
  0
VERTEX
  5
463
  8
1
  6
CONTINUOUS
 62
     7
 10
-61.76656211916941
 20
16.49766505566055
 30
0.0
  0
VERTEX
  5
464
  8
1
  6
CONTINUOUS
 62
     7
 10
-62.68226849914885
 20
16.33161145327153
 30
0.0
  0
VERTEX
  5
465
  8
1
  6
CONTINUOUS
 62
     7
 10
-63.59763036957972
 20
16.28958128835149
 30
0.0
  0
VERTEX
  5
466
  8
1
  6
CONTINUOUS
 62
     7
 10
-68.63194840217528
 20
16.28958128835149
 30
0.0
  0
SEQEND
  5
467
  8
1
  6
CONTINUOUS
 62
     7
  0
POLYLINE
  5
468
  8
1
  6
CONTINUOUS
 62
     7
 66
     1
 10
0.0
 20
0.0
 30
0.0
  0
VERTEX
  5
469
  8
1
  6
CONTINUOUS
 62
     7
 10
-68.63194840217528
 20
16.28958128835149
 30
0.0
  0
VERTEX
  5
46A
  8
1
  6
CONTINUOUS
 62
     7
 10
-143.1073335832092
 20
16.28958128835149
 30
0.0
  0
VERTEX
  5
46B
  8
1
  6
CONTINUOUS
 62
     7
 10
-144.0230399631886
 20
16.33161145327153
 30
0.0
  0
VERTEX
  5
46C
  8
1
  6
CONTINUOUS
 62
     7
 10
-144.9377128145225
 20
16.49766505566055
 30
0.0
  0
VERTEX
  5
46D
  8
1
  6
CONTINUOUS
 62
     7
 10
-145.8120780486789
 20
16.78912013371269
 30
0.0
  0
VERTEX
  5
46E
  8
1
  6
CONTINUOUS
 62
     7
 10
-146.6437240988182
 20
17.16429103205644
 30
0.0
  0
VERTEX
  5
46F
  8
1
  6
CONTINUOUS
 62
     7
 10
-147.4347180222316
 20
17.66279634877208
 30
0.0
  0
VERTEX
  5
470
  8
1
  6
CONTINUOUS
 62
     7
 10
-148.1413071062563
 20
18.24467297623073
 30
0.0
  0
VERTEX
  5
471
  8
1
  6
CONTINUOUS
 62
     7
 10
-148.8072440635551
 20
18.91129895262657
 30
0.0
  0
VERTEX
  5
472
  8
1
  6
CONTINUOUS
 62
     7
 10
-149.1396957778817
 20
19.32712197769627
 30
0.0
  0
VERTEX
  5
473
  8
1
  6
CONTINUOUS
 62
     7
 10
-57.6059203016332
 20
19.32712197769627
 30
0.0
  0
VERTEX
  5
474
  8
1
  6
CONTINUOUS
 62
     7
 10
-57.89737537968534
 20
18.91129895262657
 30
0.0
  0
VERTEX
  5
475
  8
1
  6
CONTINUOUS
 62
     7
 10
-58.56365684653264
 20
18.24467297623073
 30
0.0
  0
VERTEX
  5
476
  8
1
  6
CONTINUOUS
 62
     7
 10
-59.27059044010593
 20
17.66279634877208
 30
0.0
  0
VERTEX
  5
477
  8
1
  6
CONTINUOUS
 62
     7
 10
-60.06158436351927
 20
17.16429103205644
 30
0.0
  0
VERTEX
  5
478
  8
1
  6
CONTINUOUS
 62
     7
 10
-60.89323041365861
 20
16.78912013371269
 30
0.0
  0
VERTEX
  5
479
  8
1
  6
CONTINUOUS
 62
     7
 10
-61.76656211916941
 20
16.49766505566055
 30
0.0
  0
VERTEX
  5
47A
  8
1
  6
CONTINUOUS
 62
     7
 10
-62.68226849914885
 20
16.33161145327153
 30
0.0
  0
VERTEX
  5
47B
  8
1
  6
CONTINUOUS
 62
     7
 10
-63.59763036957972
 20
16.28958128835149
 30
0.0
  0
VERTEX
  5
47C
  8
1
  6
CONTINUOUS
 62
     7
 10
-68.63194840217528
 20
16.28958128835149
 30
0.0
  0
SEQEND
  5
47D
  8
1
  6
CONTINUOUS
 62
     7
  0
POLYLINE
  5
47E
  8
1
  6
CONTINUOUS
 62
     7
 66
     1
 10
0.0
 20
0.0
 30
0.0
  0
VERTEX
  5
47F
  8
1
  6
CONTINUOUS
 62
     7
 10
-152.3856654949734
 20
5.555697494355853
 30
0.0
 42
0.0822893046168052
  0
VERTEX
  5
480
  8
1
  6
CONTINUOUS
 62
     7
 10
-151.7671823260845
 20
4.195733756383904
 30
0.0
 42
0.0816573551654649
  0
VERTEX
  5
481
  8
1
  6
CONTINUOUS
 62
     7
 10
-150.7367134949734
 20
3.098397494355813
 30
0.0
 42
0.0816361076288313
  0
VERTEX
  5
482
  8
1
  6
CONTINUOUS
 62
     7
 10
-149.4089111359983
 20
2.388542820300561
 30
0.0
 42
0.0821940635084404
  0
VERTEX
  5
483
  8
1
  6
CONTINUOUS
 62
     7
 10
-147.9335678484957
 20
2.14436373546414
 30
0.0
  0
VERTEX
  5
484
  8
1
  6
CONTINUOUS
 62
     7
 10
-58.7713964949734
 20
2.14436449435587
 30
0.0
 42
0.0821916302864195
  0
VERTEX
  5
485
  8
1
  6
CONTINUOUS
 62
     7
 10
-57.29584866184285
 20
2.388569576962941
 30
0.0
 42
0.0816518309318716
  0
VERTEX
  5
486
  8
1
  6
CONTINUOUS
 62
     7
 10
-55.96816549497341
 20
3.098397494355841
 30
0.0
 42
0.0816756226622606
  0
VERTEX
  5
487
  8
1
  6
CONTINUOUS
 62
     7
 10
-54.93790310695601
 20
4.195711110430972
 30
0.0
 42
0.0822979265195738
  0
VERTEX
  5
488
  8
1
  6
CONTINUOUS
 62
     7
 10
-54.31964371825342
 20
5.555697284958569
 30
0.0
  0
VERTEX
  5
489
  8
1
  6
CONTINUOUS
 62
     7
 10
-152.3856647440841
 20
5.555697284958569
 30
0.0
  0
SEQEND
  5
48A
  8
1
  6
CONTINUOUS
 62
     7
  0
POLYLINE
  5
48B
  8
1
  6
CONTINUOUS
 62
     7
 66
     1
 10
0.0
 20
0.0
 30
0.0
  0
VERTEX
  5
48C
  8
1
  6
CONTINUOUS
 62
     7
 10
-152.3856654949734
 20
5.555697494355853
 30
0.0
 42
0.0822893046168052
  0
VERTEX
  5
48D
  8
1
  6
CONTINUOUS
 62
     7
 10
-151.7671823260845
 20
4.195733756383904
 30
0.0
 42
0.0816573551654649
  0
VERTEX
  5
48E
  8
1
  6
CONTINUOUS
 62
     7
 10
-150.7367134949734
 20
3.098397494355813
 30
0.0
 42
0.0816361076288313
  0
VERTEX
  5
48F
  8
1
  6
CONTINUOUS
 62
     7
 10
-149.4089111359983
 20
2.388542820300561
 30
0.0
 42
0.0821940635084404
  0
VERTEX
  5
490
  8
1
  6
CONTINUOUS
 62
     7
 10
-147.9335678484957
 20
2.14436373546414
 30
0.0
  0
VERTEX
  5
491
  8
1
  6
CONTINUOUS
 62
     7
 10
-58.7713964949734
 20
2.14436449435587
 30
0.0
 42
0.0821916302864195
  0
VERTEX
  5
492
  8
1
  6
CONTINUOUS
 62
     7
 10
-57.29584866184285
 20
2.388569576962941
 30
0.0
 42
0.0816518309318716
  0
VERTEX
  5
493
  8
1
  6
CONTINUOUS
 62
     7
 10
-55.96816549497341
 20
3.098397494355841
 30
0.0
 42
0.0816756226622606
  0
VERTEX
  5
494
  8
1
  6
CONTINUOUS
 62
     7
 10
-54.93790310695601
 20
4.195711110430972
 30
0.0
 42
0.0822979265195738
  0
VERTEX
  5
495
  8
1
  6
CONTINUOUS
 62
     7
 10
-54.31964371825342
 20
5.555697284958569
 30
0.0
  0
VERTEX
  5
496
  8
1
  6
CONTINUOUS
 62
     7
 10
-152.3856647440841
 20
5.555697284958569
 30
0.0
  0
SEQEND
  5
497
  8
1
  6
CONTINUOUS
 62
     7
  0
POLYLINE
  5
498
  8
1
  6
CONTINUOUS
 62
     7
 66
     1
 10
0.0
 20
0.0
 30
0.0
  0
VERTEX
  5
499
  8
1
  6
CONTINUOUS
 62
     7
 10
-152.0942096660319
 20
5.555697284958569
 30
0.0
  0
VERTEX
  5
49A
  8
1
  6
CONTINUOUS
 62
     7
 10
-151.9688081903689
 20
5.138840731243306
 30
0.0
  0
VERTEX
  5
49B
  8
1
  6
CONTINUOUS
 62
     7
 10
-151.5950153302193
 20
4.473937302590116
 30
0.0
  0
VERTEX
  5
49C
  8
1
  6
CONTINUOUS
 62
     7
 10
-151.1788477956011
 20
3.933401820954373
 30
0.0
  0
VERTEX
  5
49D
  8
1
  6
CONTINUOUS
 62
     7
 10
-150.6376232948683
 20
3.433518466044688
 30
0.0
  0
VERTEX
  5
49E
  8
1
  6
CONTINUOUS
 62
     7
 10
-150.0140610120381
 20
3.058692077249475
 30
0.0
  0
VERTEX
  5
49F
  8
1
  6
CONTINUOUS
 62
     7
 10
-149.3481240547393
 20
2.767236999197337
 30
0.0
  0
VERTEX
  5
4A0
  8
1
  6
CONTINUOUS
 62
     7
 10
-148.641190461166
 20
2.560186760533838
 30
0.0
  0
VERTEX
  5
4A1
  8
1
  6
CONTINUOUS
 62
     7
 10
-147.9335678484957
 20
2.518156595613789
 30
0.0
  0
VERTEX
  5
4A2
  8
1
  6
CONTINUOUS
 62
     7
 10
-58.77139610429322
 20
2.518156595613789
 30
0.0
  0
VERTEX
  5
4A3
  8
1
  6
CONTINUOUS
 62
     7
 10
-58.0637734916229
 20
2.560186760533838
 30
0.0
  0
VERTEX
  5
4A4
  8
1
  6
CONTINUOUS
 62
     7
 10
-57.3568398980496
 20
2.767236999197337
 30
0.0
  0
VERTEX
  5
4A5
  8
1
  6
CONTINUOUS
 62
     7
 10
-56.69124745029939
 20
3.058692077249475
 30
0.0
  0
VERTEX
  5
4A6
  8
1
  6
CONTINUOUS
 62
     7
 10
-56.0673406579206
 20
3.433518466044688
 30
0.0
  0
VERTEX
  5
4A7
  8
1
  6
CONTINUOUS
 62
     7
 10
-55.5678018125594
 20
3.933401820954373
 30
0.0
  0
VERTEX
  5
4A8
  8
1
  6
CONTINUOUS
 62
     7
 10
-55.10994862256968
 20
4.473937302590116
 30
0.0
  0
VERTEX
  5
4A9
  8
1
  6
CONTINUOUS
 62
     7
 10
-54.77646337959749
 20
5.138840731243306
 30
0.0
  0
VERTEX
  5
4AA
  8
1
  6
CONTINUOUS
 62
     7
 10
-54.61075428675701
 20
5.555697284958569
 30
0.0
  0
VERTEX
  5
4AB
  8
1
  6
CONTINUOUS
 62
     7
 10
-152.0942096660319
 20
5.555697284958569
 30
0.0
  0
SEQEND
  5
4AC
  8
1
  6
CONTINUOUS
 62
     7
  0
POLYLINE
  5
4AD
  8
1
  6
CONTINUOUS
 62
     7
 66
     1
 10
0.0
 20
0.0
 30
0.0
  0
VERTEX
  5
4AE
  8
1
  6
CONTINUOUS
 62
     7
 10
-152.0942096660319
 20
5.555697284958569
 30
0.0
  0
VERTEX
  5
4AF
  8
1
  6
CONTINUOUS
 62
     7
 10
-151.9688081903689
 20
5.138840731243306
 30
0.0
  0
VERTEX
  5
4B0
  8
1
  6
CONTINUOUS
 62
     7
 10
-151.5950153302193
 20
4.473937302590116
 30
0.0
  0
VERTEX
  5
4B1
  8
1
  6
CONTINUOUS
 62
     7
 10
-151.1788477956011
 20
3.933401820954373
 30
0.0
  0
VERTEX
  5
4B2
  8
1
  6
CONTINUOUS
 62
     7
 10
-150.6376232948683
 20
3.433518466044688
 30
0.0
  0
VERTEX
  5
4B3
  8
1
  6
CONTINUOUS
 62
     7
 10
-150.0140610120381
 20
3.058692077249475
 30
0.0
  0
VERTEX
  5
4B4
  8
1
  6
CONTINUOUS
 62
     7
 10
-149.3481240547393
 20
2.767236999197337
 30
0.0
  0
VERTEX
  5
4B5
  8
1
  6
CONTINUOUS
 62
     7
 10
-148.641190461166
 20
2.560186760533838
 30
0.0
  0
VERTEX
  5
4B6
  8
1
  6
CONTINUOUS
 62
     7
 10
-147.9335678484957
 20
2.518156595613789
 30
0.0
  0
VERTEX
  5
4B7
  8
1
  6
CONTINUOUS
 62
     7
 10
-58.77139610429322
 20
2.518156595613789
 30
0.0
  0
VERTEX
  5
4B8
  8
1
  6
CONTINUOUS
 62
     7
 10
-58.0637734916229
 20
2.560186760533838
 30
0.0
  0
VERTEX
  5
4B9
  8
1
  6
CONTINUOUS
 62
     7
 10
-57.3568398980496
 20
2.767236999197337
 30
0.0
  0
VERTEX
  5
4BA
  8
1
  6
CONTINUOUS
 62
     7
 10
-56.69124745029939
 20
3.058692077249475
 30
0.0
  0
VERTEX
  5
4BB
  8
1
  6
CONTINUOUS
 62
     7
 10
-56.0673406579206
 20
3.433518466044688
 30
0.0
  0
VERTEX
  5
4BC
  8
1
  6
CONTINUOUS
 62
     7
 10
-55.5678018125594
 20
3.933401820954373
 30
0.0
  0
VERTEX
  5
4BD
  8
1
  6
CONTINUOUS
 62
     7
 10
-55.10994862256968
 20
4.473937302590116
 30
0.0
  0
VERTEX
  5
4BE
  8
1
  6
CONTINUOUS
 62
     7
 10
-54.77646337959749
 20
5.138840731243306
 30
0.0
  0
VERTEX
  5
4BF
  8
1
  6
CONTINUOUS
 62
     7
 10
-54.61075428675701
 20
5.555697284958569
 30
0.0
  0
VERTEX
  5
4C0
  8
1
  6
CONTINUOUS
 62
     7
 10
-152.0942096660319
 20
5.555697284958569
 30
0.0
  0
SEQEND
  5
4C1
  8
1
  6
CONTINUOUS
 62
     7
  0
POLYLINE
  5
4C2
  8
1
  6
CONTINUOUS
 62
     7
 66
     1
 10
0.0
 20
0.0
 30
0.0
  0
VERTEX
  5
4C3
  8
1
  6
CONTINUOUS
 62
     7
 10
-142.0672594949733
 20
33.09854749435586
 30
0.0
 42
0.0817321264362062
  0
VERTEX
  5
4C4
  8
1
  6
CONTINUOUS
 62
     7
 10
-141.4481770568415
 20
31.72029523043325
 30
0.0
 42
0.0816834315377836
  0
VERTEX
  5
4C5
  8
1
  6
CONTINUOUS
 62
     7
 10
-140.4187384949734
 20
30.61144649435586
 30
0.0
 42
0.0821598784347794
  0
VERTEX
  5
4C6
  8
1
  6
CONTINUOUS
 62
     7
 10
-139.0893764374202
 20
29.89285586661679
 30
0.0
 42
0.0830927639886427
  0
VERTEX
  5
4C7
  8
1
  6
CONTINUOUS
 62
     7
 10
-137.6155068701725
 20
29.6462164846651
 30
0.0
  0
VERTEX
  5
4C8
  8
1
  6
CONTINUOUS
 62
     7
 10
-69.08980249497341
 20
29.64621649435587
 30
0.0
 42
0.0830802387184949
  0
VERTEX
  5
4C9
  8
1
  6
CONTINUOUS
 62
     7
 10
-67.61540518910053
 20
29.89290578454926
 30
0.0
 42
0.082185982708969
  0
VERTEX
  5
4CA
  8
1
  6
CONTINUOUS
 62
     7
 10
-66.28614049497337
 20
30.61144649435582
 30
0.0
 42
0.081685938597426
  0
VERTEX
  5
4CB
  8
1
  6
CONTINUOUS
 62
     7
 10
-65.25691097166053
 20
31.72019783521147
 30
0.0
 42
0.0816766031298628
  0
VERTEX
  5
4CC
  8
1
  6
CONTINUOUS
 62
     7
 10
-64.63770469657663
 20
33.09854667043396
 30
0.0
  0
VERTEX
  5
4CD
  8
1
  6
CONTINUOUS
 62
     7
 10
-142.0672592562123
 20
33.09854667043396
 30
0.0
  0
SEQEND
  5
4CE
  8
1
  6
CONTINUOUS
 62
     7
  0
POLYLINE
  5
4CF
  8
1
  6
CONTINUOUS
 62
     7
 66
     1
 10
0.0
 20
0.0
 30
0.0
  0
VERTEX
  5
4D0
  8
1
  6
CONTINUOUS
 62
     7
 10
-142.0672594949733
 20
33.09854749435586
 30
0.0
 42
0.0817321264362062
  0
VERTEX
  5
4D1
  8
1
  6
CONTINUOUS
 62
     7
 10
-141.4481770568415
 20
31.72029523043325
 30
0.0
 42
0.0816834315377836
  0
VERTEX
  5
4D2
  8
1
  6
CONTINUOUS
 62
     7
 10
-140.4187384949734
 20
30.61144649435586
 30
0.0
 42
0.0821598784347794
  0
VERTEX
  5
4D3
  8
1
  6
CONTINUOUS
 62
     7
 10
-139.0893764374202
 20
29.89285586661679
 30
0.0
 42
0.0830927639886427
  0
VERTEX
  5
4D4
  8
1
  6
CONTINUOUS
 62
     7
 10
-137.6155068701725
 20
29.6462164846651
 30
0.0
  0
VERTEX
  5
4D5
  8
1
  6
CONTINUOUS
 62
     7
 10
-69.08980249497341
 20
29.64621649435587
 30
0.0
 42
0.0830802387184949
  0
VERTEX
  5
4D6
  8
1
  6
CONTINUOUS
 62
     7
 10
-67.61540518910053
 20
29.89290578454926
 30
0.0
 42
0.082185982708969
  0
VERTEX
  5
4D7
  8
1
  6
CONTINUOUS
 62
     7
 10
-66.28614049497337
 20
30.61144649435582
 30
0.0
 42
0.081685938597426
  0
VERTEX
  5
4D8
  8
1
  6
CONTINUOUS
 62
     7
 10
-65.25691097166053
 20
31.72019783521147
 30
0.0
 42
0.0816766031298628
  0
VERTEX
  5
4D9
  8
1
  6
CONTINUOUS
 62
     7
 10
-64.63770469657663
 20
33.09854667043396
 30
0.0
  0
VERTEX
  5
4DA
  8
1
  6
CONTINUOUS
 62
     7
 10
-142.0672592562123
 20
33.09854667043396
 30
0.0
  0
SEQEND
  5
4DB
  8
1
  6
CONTINUOUS
 62
     7
  0
POLYLINE
  5
4DC
  8
1
  6
CONTINUOUS
 62
     7
 66
     1
 10
0.0
 20
0.0
 30
0.0
  0
VERTEX
  5
4DD
  8
1
  6
CONTINUOUS
 62
     7
 10
-141.6094060662226
 20
32.64172700908983
 30
0.0
  0
VERTEX
  5
4DE
  8
1
  6
CONTINUOUS
 62
     7
 10
-141.276265332799
 20
32.01747570716259
 30
0.0
  0
VERTEX
  5
4DF
  8
1
  6
CONTINUOUS
 62
     7
 10
-140.8184121428093
 20
31.43525457015534
 30
0.0
  0
VERTEX
  5
4E0
  8
1
  6
CONTINUOUS
 62
     7
 10
-140.2782211707221
 20
30.97774588971413
 30
0.0
  0
VERTEX
  5
4E1
  8
1
  6
CONTINUOUS
 62
     7
 10
-139.6956555241663
 20
30.56192286464449
 30
0.0
  0
VERTEX
  5
4E2
  8
1
  6
CONTINUOUS
 62
     7
 10
-139.029374057319
 20
30.27012327704381
 30
0.0
  0
VERTEX
  5
4E3
  8
1
  6
CONTINUOUS
 62
     7
 10
-138.3220959541972
 20
30.1040696746548
 30
0.0
  0
VERTEX
  5
4E4
  8
1
  6
CONTINUOUS
 62
     7
 10
-137.6155068701725
 20
30.0200093448147
 30
0.0
  0
VERTEX
  5
4E5
  8
1
  6
CONTINUOUS
 62
     7
 10
-69.089801592165
 20
30.0200093448147
 30
0.0
  0
VERTEX
  5
4E6
  8
1
  6
CONTINUOUS
 62
     7
 10
-68.38286799859173
 20
30.1040696746548
 30
0.0
  0
VERTEX
  5
4E7
  8
1
  6
CONTINUOUS
 62
     7
 10
-67.6749008763729
 20
30.27012327704381
 30
0.0
  0
VERTEX
  5
4E8
  8
1
  6
CONTINUOUS
 62
     7
 10
-67.00930842862263
 20
30.56192286464449
 30
0.0
  0
VERTEX
  5
4E9
  8
1
  6
CONTINUOUS
 62
     7
 10
-66.42708729161541
 20
30.97774588971413
 30
0.0
  0
VERTEX
  5
4EA
  8
1
  6
CONTINUOUS
 62
     7
 10
-65.88586279088264
 20
31.43525457015534
 30
0.0
  0
VERTEX
  5
4EB
  8
1
  6
CONTINUOUS
 62
     7
 10
-65.42869861999
 20
32.01747570716259
 30
0.0
  0
VERTEX
  5
4EC
  8
1
  6
CONTINUOUS
 62
     7
 10
-65.09555788656633
 20
32.64172700908983
 30
0.0
  0
VERTEX
  5
4ED
  8
1
  6
CONTINUOUS
 62
     7
 10
-64.92915977462877
 20
33.09854667043396
 30
0.0
  0
VERTEX
  5
4EE
  8
1
  6
CONTINUOUS
 62
     7
 10
-141.7758041781602
 20
33.09854667043396
 30
0.0
  0
VERTEX
  5
4EF
  8
1
  6
CONTINUOUS
 62
     7
 10
-141.6094060662226
 20
32.64172700908983
 30
0.0
  0
SEQEND
  5
4F0
  8
1
  6
CONTINUOUS
 62
     7
  0
POLYLINE
  5
4F1
  8
1
  6
CONTINUOUS
 62
     7
 66
     1
 10
0.0
 20
0.0
 30
0.0
  0
VERTEX
  5
4F2
  8
1
  6
CONTINUOUS
 62
     7
 10
-141.6094060662226
 20
32.64172700908983
 30
0.0
  0
VERTEX
  5
4F3
  8
1
  6
CONTINUOUS
 62
     7
 10
-141.276265332799
 20
32.01747570716259
 30
0.0
  0
VERTEX
  5
4F4
  8
1
  6
CONTINUOUS
 62
     7
 10
-140.8184121428093
 20
31.43525457015534
 30
0.0
  0
VERTEX
  5
4F5
  8
1
  6
CONTINUOUS
 62
     7
 10
-140.2782211707221
 20
30.97774588971413
 30
0.0
  0
VERTEX
  5
4F6
  8
1
  6
CONTINUOUS
 62
     7
 10
-139.6956555241663
 20
30.56192286464449
 30
0.0
  0
VERTEX
  5
4F7
  8
1
  6
CONTINUOUS
 62
     7
 10
-139.029374057319
 20
30.27012327704381
 30
0.0
  0
VERTEX
  5
4F8
  8
1
  6
CONTINUOUS
 62
     7
 10
-138.3220959541972
 20
30.1040696746548
 30
0.0
  0
VERTEX
  5
4F9
  8
1
  6
CONTINUOUS
 62
     7
 10
-137.6155068701725
 20
30.0200093448147
 30
0.0
  0
VERTEX
  5
4FA
  8
1
  6
CONTINUOUS
 62
     7
 10
-69.089801592165
 20
30.0200093448147
 30
0.0
  0
VERTEX
  5
4FB
  8
1
  6
CONTINUOUS
 62
     7
 10
-68.38286799859173
 20
30.1040696746548
 30
0.0
  0
VERTEX
  5
4FC
  8
1
  6
CONTINUOUS
 62
     7
 10
-67.6749008763729
 20
30.27012327704381
 30
0.0
  0
VERTEX
  5
4FD
  8
1
  6
CONTINUOUS
 62
     7
 10
-67.00930842862263
 20
30.56192286464449
 30
0.0
  0
VERTEX
  5
4FE
  8
1
  6
CONTINUOUS
 62
     7
 10
-66.42708729161541
 20
30.97774588971413
 30
0.0
  0
VERTEX
  5
4FF
  8
1
  6
CONTINUOUS
 62
     7
 10
-65.88586279088264
 20
31.43525457015534
 30
0.0
  0
VERTEX
  5
500
  8
1
  6
CONTINUOUS
 62
     7
 10
-65.42869861999
 20
32.01747570716259
 30
0.0
  0
VERTEX
  5
501
  8
1
  6
CONTINUOUS
 62
     7
 10
-65.09555788656633
 20
32.64172700908983
 30
0.0
  0
VERTEX
  5
502
  8
1
  6
CONTINUOUS
 62
     7
 10
-64.92915977462877
 20
33.09854667043396
 30
0.0
  0
VERTEX
  5
503
  8
1
  6
CONTINUOUS
 62
     7
 10
-141.7758041781602
 20
33.09854667043396
 30
0.0
  0
VERTEX
  5
504
  8
1
  6
CONTINUOUS
 62
     7
 10
-141.6094060662226
 20
32.64172700908983
 30
0.0
  0
SEQEND
  5
505
  8
1
  6
CONTINUOUS
 62
     7
  0
POLYLINE
  5
506
  8
1
  6
CONTINUOUS
 62
     7
 66
     1
 10
0.0
 20
0.0
 30
0.0
  0
VERTEX
  5
507
  8
1
  6
CONTINUOUS
 62
     7
 10
-127.3384425281237
 20
46.82897472689717
 30
0.0
  0
VERTEX
  5
508
  8
1
  6
CONTINUOUS
 62
     7
 10
-79.94908707122102
 20
46.82897472689717
 30
0.0
  0
VERTEX
  5
509
  8
1
  6
CONTINUOUS
 62
     7
 10
-81.03119249497342
 20
46.82897549435582
 30
0.0
 42
0.1089666732521249
  0
VERTEX
  5
50A
  8
1
  6
CONTINUOUS
 62
     7
 10
-81.97374873286822
 20
46.62109271393432
 30
0.0
 42
0.109564812121282
  0
VERTEX
  5
50B
  8
1
  6
CONTINUOUS
 62
     7
 10
-82.7365144949734
 20
46.03832549435585
 30
0.0
 42
-0.1086483783516871
  0
VERTEX
  5
50C
  8
1
  6
CONTINUOUS
 62
     7
 10
-85.23038037890997
 20
44.12232714095492
 30
0.0
 42
-0.1101050330236131
  0
VERTEX
  5
50D
  8
1
  6
CONTINUOUS
 62
     7
 10
-88.39473865331098
 20
43.41695215830578
 30
0.0
  0
VERTEX
  5
50E
  8
1
  6
CONTINUOUS
 62
     7
 10
-118.3102254949734
 20
43.41695249435583
 30
0.0
 42
-0.0527829715135075
  0
VERTEX
  5
50F
  8
1
  6
CONTINUOUS
 62
     7
 10
-119.8730071098291
 20
43.58238992491681
 30
0.0
 42
-0.0557787676892493
  0
VERTEX
  5
510
  8
1
  6
CONTINUOUS
 62
     7
 10
-121.4358314949734
 20
44.10442149435583
 30
0.0
 42
-0.0534098166073426
  0
VERTEX
  5
511
  8
1
  6
CONTINUOUS
 62
     7
 10
-122.7825509533506
 20
44.9126707141792
 30
0.0
 42
-0.0561013016015199
  0
VERTEX
  5
512
  8
1
  6
CONTINUOUS
 62
     7
 10
-123.9684504949734
 20
46.03832549435582
 30
0.0
 42
0.1096801221121405
  0
VERTEX
  5
513
  8
1
  6
CONTINUOUS
 62
     7
 10
-124.7307404273225
 20
46.62093829044982
 30
0.0
 42
0.1089526159487359
  0
VERTEX
  5
514
  8
1
  6
CONTINUOUS
 62
     7
 10
-125.6741168991995
 20
46.82897472689717
 30
0.0
  0
VERTEX
  5
515
  8
1
  6
CONTINUOUS
 62
     7
 10
-126.797907046488
 20
46.82897472689717
 30
0.0
  0
SEQEND
  5
516
  8
1
  6
CONTINUOUS
 62
     7
  0
POLYLINE
  5
517
  8
1
  6
CONTINUOUS
 62
     7
 66
     1
 10
0.0
 20
0.0
 30
0.0
  0
VERTEX
  5
518
  8
1
  6
CONTINUOUS
 62
     7
 10
-127.3384425281237
 20
46.82897472689717
 30
0.0
  0
VERTEX
  5
519
  8
1
  6
CONTINUOUS
 62
     7
 10
-79.94908707122102
 20
46.82897472689717
 30
0.0
  0
VERTEX
  5
51A
  8
1
  6
CONTINUOUS
 62
     7
 10
-81.03119249497342
 20
46.82897549435582
 30
0.0
 42
0.1089666732521249
  0
VERTEX
  5
51B
  8
1
  6
CONTINUOUS
 62
     7
 10
-81.97374873286822
 20
46.62109271393432
 30
0.0
 42
0.109564812121282
  0
VERTEX
  5
51C
  8
1
  6
CONTINUOUS
 62
     7
 10
-82.7365144949734
 20
46.03832549435585
 30
0.0
 42
-0.1086483783516871
  0
VERTEX
  5
51D
  8
1
  6
CONTINUOUS
 62
     7
 10
-85.23038037890997
 20
44.12232714095492
 30
0.0
 42
-0.1101050330236131
  0
VERTEX
  5
51E
  8
1
  6
CONTINUOUS
 62
     7
 10
-88.39473865331098
 20
43.41695215830578
 30
0.0
  0
VERTEX
  5
51F
  8
1
  6
CONTINUOUS
 62
     7
 10
-118.3102254949734
 20
43.41695249435583
 30
0.0
 42
-0.0527829715135075
  0
VERTEX
  5
520
  8
1
  6
CONTINUOUS
 62
     7
 10
-119.8730071098291
 20
43.58238992491681
 30
0.0
 42
-0.0557787676892493
  0
VERTEX
  5
521
  8
1
  6
CONTINUOUS
 62
     7
 10
-121.4358314949734
 20
44.10442149435583
 30
0.0
 42
-0.0534098166073426
  0
VERTEX
  5
522
  8
1
  6
CONTINUOUS
 62
     7
 10
-122.7825509533506
 20
44.9126707141792
 30
0.0
 42
-0.0561013016015199
  0
VERTEX
  5
523
  8
1
  6
CONTINUOUS
 62
     7
 10
-123.9684504949734
 20
46.03832549435582
 30
0.0
 42
0.1096801221121405
  0
VERTEX
  5
524
  8
1
  6
CONTINUOUS
 62
     7
 10
-124.7307404273225
 20
46.62093829044982
 30
0.0
 42
0.1089526159487359
  0
VERTEX
  5
525
  8
1
  6
CONTINUOUS
 62
     7
 10
-125.6741168991995
 20
46.82897472689717
 30
0.0
  0
VERTEX
  5
526
  8
1
  6
CONTINUOUS
 62
     7
 10
-126.797907046488
 20
46.82897472689717
 30
0.0
  0
SEQEND
  5
527
  8
1
  6
CONTINUOUS
 62
     7
  0
POLYLINE
  5
528
  8
1
  6
CONTINUOUS
 62
     7
 66
     1
 10
0.0
 20
0.0
 30
0.0
  0
VERTEX
  5
529
  8
1
  6
CONTINUOUS
 62
     7
 10
-127.3384425281237
 20
46.82897472689717
 30
0.0
  0
VERTEX
  5
52A
  8
1
  6
CONTINUOUS
 62
     7
 10
-79.94908707122102
 20
46.82897472689717
 30
0.0
  0
VERTEX
  5
52B
  8
1
  6
CONTINUOUS
 62
     7
 10
-81.1138744949734
 20
46.82897549435587
 30
0.0
 42
0.103035104884378
  0
VERTEX
  5
52C
  8
1
  6
CONTINUOUS
 62
     7
 10
-81.99153625354724
 20
46.64617489796623
 30
0.0
 42
0.101398933264019
  0
VERTEX
  5
52D
  8
1
  6
CONTINUOUS
 62
     7
 10
-82.7365144949734
 20
46.12238649435586
 30
0.0
 42
-0.0467859711862375
  0
VERTEX
  5
52E
  8
1
  6
CONTINUOUS
 62
     7
 10
-83.7819592736547
 20
45.20634863776512
 30
0.0
 42
-0.0548848363103926
  0
VERTEX
  5
52F
  8
1
  6
CONTINUOUS
 62
     7
 10
-85.2020834949734
 20
44.40009649435583
 30
0.0
 42
-0.0485587085100897
  0
VERTEX
  5
530
  8
1
  6
CONTINUOUS
 62
     7
 10
-86.57858434159738
 20
43.95968909140559
 30
0.0
 42
-0.0532037215627026
  0
VERTEX
  5
531
  8
1
  6
CONTINUOUS
 62
     7
 10
-88.14565824972743
 20
43.79246756619796
 30
0.0
  0
VERTEX
  5
532
  8
1
  6
CONTINUOUS
 62
     7
 10
-118.5593064949734
 20
43.79246849435584
 30
0.0
 42
-0.0961566740797258
  0
VERTEX
  5
533
  8
1
  6
CONTINUOUS
 62
     7
 10
-121.3416133991276
 20
44.33253677929453
 30
0.0
 42
-0.1077468421065354
  0
VERTEX
  5
534
  8
1
  6
CONTINUOUS
 62
     7
 10
-123.9684504949734
 20
46.12238649435585
 30
0.0
 42
0.1016031615251882
  0
VERTEX
  5
535
  8
1
  6
CONTINUOUS
 62
     7
 10
-124.7125143355757
 20
46.64598368954466
 30
0.0
 42
0.103035618056048
  0
VERTEX
  5
536
  8
1
  6
CONTINUOUS
 62
     7
 10
-125.591090098005
 20
46.82897472689717
 30
0.0
  0
VERTEX
  5
537
  8
1
  6
CONTINUOUS
 62
     7
 10
-126.797907046488
 20
46.82897472689717
 30
0.0
  0
SEQEND
  5
538
  8
1
  6
CONTINUOUS
 62
     7
  0
POLYLINE
  5
539
  8
1
  6
CONTINUOUS
 62
     7
 66
     1
 10
0.0
 20
0.0
 30
0.0
  0
VERTEX
  5
53A
  8
1
  6
CONTINUOUS
 62
     7
 10
-127.3384425281237
 20
46.82897472689717
 30
0.0
  0
VERTEX
  5
53B
  8
1
  6
CONTINUOUS
 62
     7
 10
-79.94908707122102
 20
46.82897472689717
 30
0.0
  0
VERTEX
  5
53C
  8
1
  6
CONTINUOUS
 62
     7
 10
-81.1138744949734
 20
46.82897549435587
 30
0.0
 42
0.103035104884378
  0
VERTEX
  5
53D
  8
1
  6
CONTINUOUS
 62
     7
 10
-81.99153625354724
 20
46.64617489796623
 30
0.0
 42
0.101398933264019
  0
VERTEX
  5
53E
  8
1
  6
CONTINUOUS
 62
     7
 10
-82.7365144949734
 20
46.12238649435586
 30
0.0
 42
-0.0467859711862375
  0
VERTEX
  5
53F
  8
1
  6
CONTINUOUS
 62
     7
 10
-83.7819592736547
 20
45.20634863776512
 30
0.0
 42
-0.0548848363103926
  0
VERTEX
  5
540
  8
1
  6
CONTINUOUS
 62
     7
 10
-85.2020834949734
 20
44.40009649435583
 30
0.0
 42
-0.0485587085100897
  0
VERTEX
  5
541
  8
1
  6
CONTINUOUS
 62
     7
 10
-86.57858434159738
 20
43.95968909140559
 30
0.0
 42
-0.0532037215627026
  0
VERTEX
  5
542
  8
1
  6
CONTINUOUS
 62
     7
 10
-88.14565824972743
 20
43.79246756619796
 30
0.0
  0
VERTEX
  5
543
  8
1
  6
CONTINUOUS
 62
     7
 10
-118.5593064949734
 20
43.79246849435584
 30
0.0
 42
-0.0961566740797258
  0
VERTEX
  5
544
  8
1
  6
CONTINUOUS
 62
     7
 10
-121.3416133991276
 20
44.33253677929453
 30
0.0
 42
-0.1077468421065354
  0
VERTEX
  5
545
  8
1
  6
CONTINUOUS
 62
     7
 10
-123.9684504949734
 20
46.12238649435585
 30
0.0
 42
0.1016031615251882
  0
VERTEX
  5
546
  8
1
  6
CONTINUOUS
 62
     7
 10
-124.7125143355757
 20
46.64598368954466
 30
0.0
 42
0.103035618056048
  0
VERTEX
  5
547
  8
1
  6
CONTINUOUS
 62
     7
 10
-125.591090098005
 20
46.82897472689717
 30
0.0
  0
VERTEX
  5
548
  8
1
  6
CONTINUOUS
 62
     7
 10
-126.797907046488
 20
46.82897472689717
 30
0.0
  0
SEQEND
  5
549
  8
1
  6
CONTINUOUS
 62
     7
  0
POLYLINE
  5
54A
  8
1
  6
CONTINUOUS
 62
     7
 66
     1
 10
0.0
 20
0.0
 30
0.0
  0
VERTEX
  5
54B
  8
1
  6
CONTINUOUS
 62
     7
 10
-68.84037667903291
 20
-11.62809448591918
 30
0.0
  0
VERTEX
  5
54C
  8
1
  6
CONTINUOUS
 62
     7
 10
-64.34693949497341
 20
-11.62809350564413
 30
0.0
 42
0.0452377685254706
  0
VERTEX
  5
54D
  8
1
  6
CONTINUOUS
 62
     7
 10
-61.89661849992371
 20
-11.40594478014404
 30
0.0
 42
0.0451493745131308
  0
VERTEX
  5
54E
  8
1
  6
CONTINUOUS
 62
     7
 10
-59.5210494949734
 20
-10.74576150564417
 30
0.0
 42
0.0451323826638037
  0
VERTEX
  5
54F
  8
1
  6
CONTINUOUS
 62
     7
 10
-57.30316930860176
 20
-9.67027983379118
 30
0.0
 42
0.0452233514161372
  0
VERTEX
  5
550
  8
1
  6
CONTINUOUS
 62
     7
 10
-55.31837689942728
 20
-8.216760936424748
 30
0.0
  0
VERTEX
  5
551
  8
1
  6
CONTINUOUS
 62
     7
 10
-103.3524819763945
 20
-8.216760936424748
 30
0.0
  0
VERTEX
  5
552
  8
1
  6
CONTINUOUS
 62
     7
 10
-151.3865874949734
 20
-8.216760505644158
 30
0.0
 42
0.0452265076465531
  0
VERTEX
  5
553
  8
1
  6
CONTINUOUS
 62
     7
 10
-149.4018217817368
 20
-9.670242658863174
 30
0.0
 42
0.0451294015680311
  0
VERTEX
  5
554
  8
1
  6
CONTINUOUS
 62
     7
 10
-147.1838294949734
 20
-10.74576150564413
 30
0.0
 42
0.0451441655487972
  0
VERTEX
  5
555
  8
1
  6
CONTINUOUS
 62
     7
 10
-144.8083320675673
 20
-11.40595161961412
 30
0.0
 42
0.0452429890520408
  0
VERTEX
  5
556
  8
1
  6
CONTINUOUS
 62
     7
 10
-142.358369824716
 20
-11.62809448591918
 30
0.0
  0
VERTEX
  5
557
  8
1
  6
CONTINUOUS
 62
     7
 10
-68.84037667903291
 20
-11.62809448591918
 30
0.0
  0
SEQEND
  5
558
  8
1
  6
CONTINUOUS
 62
     7
  0
POLYLINE
  5
559
  8
1
  6
CONTINUOUS
 62
     7
 66
     1
 10
0.0
 20
0.0
 30
0.0
  0
VERTEX
  5
55A
  8
1
  6
CONTINUOUS
 62
     7
 10
-68.84037667903291
 20
-11.62809448591918
 30
0.0
  0
VERTEX
  5
55B
  8
1
  6
CONTINUOUS
 62
     7
 10
-64.34693949497341
 20
-11.62809350564413
 30
0.0
 42
0.0452377685254706
  0
VERTEX
  5
55C
  8
1
  6
CONTINUOUS
 62
     7
 10
-61.89661849992371
 20
-11.40594478014404
 30
0.0
 42
0.0451493745131308
  0
VERTEX
  5
55D
  8
1
  6
CONTINUOUS
 62
     7
 10
-59.5210494949734
 20
-10.74576150564417
 30
0.0
 42
0.0451323826638037
  0
VERTEX
  5
55E
  8
1
  6
CONTINUOUS
 62
     7
 10
-57.30316930860176
 20
-9.67027983379118
 30
0.0
 42
0.0452233514161372
  0
VERTEX
  5
55F
  8
1
  6
CONTINUOUS
 62
     7
 10
-55.31837689942728
 20
-8.216760936424748
 30
0.0
  0
VERTEX
  5
560
  8
1
  6
CONTINUOUS
 62
     7
 10
-103.3524819763945
 20
-8.216760936424748
 30
0.0
  0
VERTEX
  5
561
  8
1
  6
CONTINUOUS
 62
     7
 10
-151.3865874949734
 20
-8.216760505644158
 30
0.0
 42
0.0452265076465531
  0
VERTEX
  5
562
  8
1
  6
CONTINUOUS
 62
     7
 10
-149.4018217817368
 20
-9.670242658863174
 30
0.0
 42
0.0451294015680311
  0
VERTEX
  5
563
  8
1
  6
CONTINUOUS
 62
     7
 10
-147.1838294949734
 20
-10.74576150564413
 30
0.0
 42
0.0451441655487972
  0
VERTEX
  5
564
  8
1
  6
CONTINUOUS
 62
     7
 10
-144.8083320675673
 20
-11.40595161961412
 30
0.0
 42
0.0452429890520408
  0
VERTEX
  5
565
  8
1
  6
CONTINUOUS
 62
     7
 10
-142.358369824716
 20
-11.62809448591918
 30
0.0
  0
VERTEX
  5
566
  8
1
  6
CONTINUOUS
 62
     7
 10
-68.84037667903291
 20
-11.62809448591918
 30
0.0
  0
SEQEND
  5
567
  8
1
  6
CONTINUOUS
 62
     7
  0
POLYLINE
  5
568
  8
1
  6
CONTINUOUS
 62
     7
 66
     1
 10
0.0
 20
0.0
 30
0.0
  0
VERTEX
  5
569
  8
1
  6
CONTINUOUS
 62
     7
 10
-68.84037667903291
 20
-11.25292358757542
 30
0.0
  0
VERTEX
  5
56A
  8
1
  6
CONTINUOUS
 62
     7
 10
-64.3889688025416
 20
-11.25292358757542
 30
0.0
  0
VERTEX
  5
56B
  8
1
  6
CONTINUOUS
 62
     7
 10
-63.14012168913854
 20
-11.17024129592937
 30
0.0
  0
VERTEX
  5
56C
  8
1
  6
CONTINUOUS
 62
     7
 10
-61.9333047406555
 20
-11.00349867444334
 30
0.0
  0
VERTEX
  5
56D
  8
1
  6
CONTINUOUS
 62
     7
 10
-60.76851795709257
 20
-10.75476278040827
 30
0.0
  0
VERTEX
  5
56E
  8
1
  6
CONTINUOUS
 62
     7
 10
-59.60373117352958
 20
-10.37959188206457
 30
0.0
  0
VERTEX
  5
56F
  8
1
  6
CONTINUOUS
 62
     7
 10
-58.48028553578962
 20
-9.880053036703373
 30
0.0
  0
VERTEX
  5
570
  8
1
  6
CONTINUOUS
 62
     7
 10
-57.39887006296971
 20
-9.29748739014758
 30
0.0
  0
VERTEX
  5
571
  8
1
  6
CONTINUOUS
 62
     7
 10
-56.40013688179579
 20
-8.632583961494333
 30
0.0
  0
VERTEX
  5
572
  8
1
  6
CONTINUOUS
 62
     7
 10
-55.9009425459831
 20
-8.216760936424748
 30
0.0
  0
VERTEX
  5
573
  8
1
  6
CONTINUOUS
 62
     7
 10
-150.8043659163544
 20
-8.216760936424748
 30
0.0
  0
VERTEX
  5
574
  8
1
  6
CONTINUOUS
 62
     7
 10
-150.3051715805417
 20
-8.632583961494333
 30
0.0
  0
VERTEX
  5
575
  8
1
  6
CONTINUOUS
 62
     7
 10
-149.3060938898193
 20
-9.29748739014758
 30
0.0
  0
VERTEX
  5
576
  8
1
  6
CONTINUOUS
 62
     7
 10
-148.2246784169994
 20
-9.880053036703373
 30
0.0
  0
VERTEX
  5
577
  8
1
  6
CONTINUOUS
 62
     7
 10
-147.1015772888079
 20
-10.37959188206457
 30
0.0
  0
VERTEX
  5
578
  8
1
  6
CONTINUOUS
 62
     7
 10
-145.9364459956964
 20
-10.75476278040827
 30
0.0
  0
VERTEX
  5
579
  8
1
  6
CONTINUOUS
 62
     7
 10
-144.7716592121334
 20
-11.00349867444334
 30
0.0
  0
VERTEX
  5
57A
  8
1
  6
CONTINUOUS
 62
     7
 10
-143.5651867731989
 20
-11.17024129592937
 30
0.0
  0
VERTEX
  5
57B
  8
1
  6
CONTINUOUS
 62
     7
 10
-142.358369824716
 20
-11.25292358757542
 30
0.0
  0
VERTEX
  5
57C
  8
1
  6
CONTINUOUS
 62
     7
 10
-68.84037667903291
 20
-11.25292358757542
 30
0.0
  0
SEQEND
  5
57D
  8
1
  6
CONTINUOUS
 62
     7
  0
POLYLINE
  5
57E
  8
1
  6
CONTINUOUS
 62
     7
 66
     1
 10
0.0
 20
0.0
 30
0.0
  0
VERTEX
  5
57F
  8
1
  6
CONTINUOUS
 62
     7
 10
-68.84037667903291
 20
-11.25292358757542
 30
0.0
  0
VERTEX
  5
580
  8
1
  6
CONTINUOUS
 62
     7
 10
-64.3889688025416
 20
-11.25292358757542
 30
0.0
  0
VERTEX
  5
581
  8
1
  6
CONTINUOUS
 62
     7
 10
-63.14012168913854
 20
-11.17024129592937
 30
0.0
  0
VERTEX
  5
582
  8
1
  6
CONTINUOUS
 62
     7
 10
-61.9333047406555
 20
-11.00349867444334
 30
0.0
  0
VERTEX
  5
583
  8
1
  6
CONTINUOUS
 62
     7
 10
-60.76851795709257
 20
-10.75476278040827
 30
0.0
  0
VERTEX
  5
584
  8
1
  6
CONTINUOUS
 62
     7
 10
-59.60373117352958
 20
-10.37959188206457
 30
0.0
  0
VERTEX
  5
585
  8
1
  6
CONTINUOUS
 62
     7
 10
-58.48028553578962
 20
-9.880053036703373
 30
0.0
  0
VERTEX
  5
586
  8
1
  6
CONTINUOUS
 62
     7
 10
-57.39887006296971
 20
-9.29748739014758
 30
0.0
  0
VERTEX
  5
587
  8
1
  6
CONTINUOUS
 62
     7
 10
-56.40013688179579
 20
-8.632583961494333
 30
0.0
  0
VERTEX
  5
588
  8
1
  6
CONTINUOUS
 62
     7
 10
-55.9009425459831
 20
-8.216760936424748
 30
0.0
  0
VERTEX
  5
589
  8
1
  6
CONTINUOUS
 62
     7
 10
-150.8043659163544
 20
-8.216760936424748
 30
0.0
  0
VERTEX
  5
58A
  8
1
  6
CONTINUOUS
 62
     7
 10
-150.3051715805417
 20
-8.632583961494333
 30
0.0
  0
VERTEX
  5
58B
  8
1
  6
CONTINUOUS
 62
     7
 10
-149.3060938898193
 20
-9.29748739014758
 30
0.0
  0
VERTEX
  5
58C
  8
1
  6
CONTINUOUS
 62
     7
 10
-148.2246784169994
 20
-9.880053036703373
 30
0.0
  0
VERTEX
  5
58D
  8
1
  6
CONTINUOUS
 62
     7
 10
-147.1015772888079
 20
-10.37959188206457
 30
0.0
  0
VERTEX
  5
58E
  8
1
  6
CONTINUOUS
 62
     7
 10
-145.9364459956964
 20
-10.75476278040827
 30
0.0
  0
VERTEX
  5
58F
  8
1
  6
CONTINUOUS
 62
     7
 10
-144.7716592121334
 20
-11.00349867444334
 30
0.0
  0
VERTEX
  5
590
  8
1
  6
CONTINUOUS
 62
     7
 10
-143.5651867731989
 20
-11.17024129592937
 30
0.0
  0
VERTEX
  5
591
  8
1
  6
CONTINUOUS
 62
     7
 10
-142.358369824716
 20
-11.25292358757542
 30
0.0
  0
VERTEX
  5
592
  8
1
  6
CONTINUOUS
 62
     7
 10
-68.84037667903291
 20
-11.25292358757542
 30
0.0
  0
SEQEND
  5
593
  8
1
  6
CONTINUOUS
 62
     7
  0
POLYLINE
  5
594
  8
1
  6
CONTINUOUS
 62
     7
 66
     1
 10
0.0
 20
0.0
 30
0.0
  0
VERTEX
  5
595
  8
1
  6
CONTINUOUS
 62
     7
 10
-145.3955664949734
 20
-21.94615450564412
 30
0.0
 42
0.0453993159213431
  0
VERTEX
  5
596
  8
1
  6
CONTINUOUS
 62
     7
 10
-143.4083311388332
 20
-23.41918959659503
 30
0.0
 42
0.0454812480778626
  0
VERTEX
  5
597
  8
1
  6
CONTINUOUS
 62
     7
 10
-141.1922054949734
 20
-24.50680850564415
 30
0.0
 42
0.0456169609892358
  0
VERTEX
  5
598
  8
1
  6
CONTINUOUS
 62
     7
 10
-138.8159904521964
 20
-25.1751238120804
 30
0.0
 42
0.045781565459023
  0
VERTEX
  5
599
  8
1
  6
CONTINUOUS
 62
     7
 10
-136.3666597567694
 20
-25.39986368820536
 30
0.0
  0
VERTEX
  5
59A
  8
1
  6
CONTINUOUS
 62
     7
 10
-70.37895649497341
 20
-25.39986350564416
 30
0.0
 42
0.0454945406729929
  0
VERTEX
  5
59B
  8
1
  6
CONTINUOUS
 62
     7
 10
-67.90959613951799
 20
-25.17471266871686
 30
0.0
 42
0.0455292322097505
  0
VERTEX
  5
59C
  8
1
  6
CONTINUOUS
 62
     7
 10
-65.52275049497338
 20
-24.50680850564417
 30
0.0
 42
0.0455970282280485
  0
VERTEX
  5
59D
  8
1
  6
CONTINUOUS
 62
     7
 10
-63.29651682702807
 20
-23.41772278010492
 30
0.0
 42
0.045692987928093
  0
VERTEX
  5
59E
  8
1
  6
CONTINUOUS
 62
     7
 10
-61.30939794827677
 20
-21.94615546424234
 30
0.0
  0
VERTEX
  5
59F
  8
1
  6
CONTINUOUS
 62
     7
 10
-145.3955660045121
 20
-21.94615546424234
 30
0.0
  0
SEQEND
  5
5A0
  8
1
  6
CONTINUOUS
 62
     7
  0
POLYLINE
  5
5A1
  8
1
  6
CONTINUOUS
 62
     7
 66
     1
 10
0.0
 20
0.0
 30
0.0
  0
VERTEX
  5
5A2
  8
1
  6
CONTINUOUS
 62
     7
 10
-145.3955664949734
 20
-21.94615450564412
 30
0.0
 42
0.0453993159213431
  0
VERTEX
  5
5A3
  8
1
  6
CONTINUOUS
 62
     7
 10
-143.4083311388332
 20
-23.41918959659503
 30
0.0
 42
0.0454812480778626
  0
VERTEX
  5
5A4
  8
1
  6
CONTINUOUS
 62
     7
 10
-141.1922054949734
 20
-24.50680850564415
 30
0.0
 42
0.0456169609892358
  0
VERTEX
  5
5A5
  8
1
  6
CONTINUOUS
 62
     7
 10
-138.8159904521964
 20
-25.1751238120804
 30
0.0
 42
0.045781565459023
  0
VERTEX
  5
5A6
  8
1
  6
CONTINUOUS
 62
     7
 10
-136.3666597567694
 20
-25.39986368820536
 30
0.0
  0
VERTEX
  5
5A7
  8
1
  6
CONTINUOUS
 62
     7
 10
-70.37895649497341
 20
-25.39986350564416
 30
0.0
 42
0.0454945406729929
  0
VERTEX
  5
5A8
  8
1
  6
CONTINUOUS
 62
     7
 10
-67.90959613951799
 20
-25.17471266871686
 30
0.0
 42
0.0455292322097505
  0
VERTEX
  5
5A9
  8
1
  6
CONTINUOUS
 62
     7
 10
-65.52275049497338
 20
-24.50680850564417
 30
0.0
 42
0.0455970282280485
  0
VERTEX
  5
5AA
  8
1
  6
CONTINUOUS
 62
     7
 10
-63.29651682702807
 20
-23.41772278010492
 30
0.0
 42
0.045692987928093
  0
VERTEX
  5
5AB
  8
1
  6
CONTINUOUS
 62
     7
 10
-61.30939794827677
 20
-21.94615546424234
 30
0.0
  0
VERTEX
  5
5AC
  8
1
  6
CONTINUOUS
 62
     7
 10
-145.3955660045121
 20
-21.94615546424234
 30
0.0
  0
SEQEND
  5
5AD
  8
1
  6
CONTINUOUS
 62
     7
  0
POLYLINE
  5
5AE
  8
1
  6
CONTINUOUS
 62
     7
 66
     1
 10
0.0
 20
0.0
 30
0.0
  0
VERTEX
  5
5AF
  8
1
  6
CONTINUOUS
 62
     7
 10
-144.813344867505
 20
-21.94615546424234
 30
0.0
  0
VERTEX
  5
5B0
  8
1
  6
CONTINUOUS
 62
     7
 10
-144.3141505316922
 20
-22.36128947021496
 30
0.0
  0
VERTEX
  5
5B1
  8
1
  6
CONTINUOUS
 62
     7
 10
-143.3150728409698
 20
-23.06960110198236
 30
0.0
  0
VERTEX
  5
5B2
  8
1
  6
CONTINUOUS
 62
     7
 10
-142.2336573681499
 20
-23.65285576763517
 30
0.0
  0
VERTEX
  5
5B3
  8
1
  6
CONTINUOUS
 62
     7
 10
-141.1095227113128
 20
-24.11070895762487
 30
0.0
  0
VERTEX
  5
5B4
  8
1
  6
CONTINUOUS
 62
     7
 10
-139.9447359277499
 20
-24.52584296359748
 30
0.0
  0
VERTEX
  5
5B5
  8
1
  6
CONTINUOUS
 62
     7
 10
-138.7799491441869
 20
-24.77526787672957
 30
0.0
  0
VERTEX
  5
5B6
  8
1
  6
CONTINUOUS
 62
     7
 10
-137.5734767052525
 20
-24.94235500776415
 30
0.0
  0
VERTEX
  5
5B7
  8
1
  6
CONTINUOUS
 62
     7
 10
-136.3253186109464
 20
-24.98369615358718
 30
0.0
  0
VERTEX
  5
5B8
  8
1
  6
CONTINUOUS
 62
     7
 10
-70.3789563227455
 20
-24.98369615358718
 30
0.0
  0
VERTEX
  5
5B9
  8
1
  6
CONTINUOUS
 62
     7
 10
-69.13183175708505
 20
-24.94235500776415
 30
0.0
  0
VERTEX
  5
5BA
  8
1
  6
CONTINUOUS
 62
     7
 10
-67.92501480860204
 20
-24.77526787672957
 30
0.0
  0
VERTEX
  5
5BB
  8
1
  6
CONTINUOUS
 62
     7
 10
-66.76022802503905
 20
-24.52584296359748
 30
0.0
  0
VERTEX
  5
5BC
  8
1
  6
CONTINUOUS
 62
     7
 10
-65.59475222237904
 20
-24.11070895762487
 30
0.0
  0
VERTEX
  5
5BD
  8
1
  6
CONTINUOUS
 62
     7
 10
-64.47130658463908
 20
-23.65285576763517
 30
0.0
  0
VERTEX
  5
5BE
  8
1
  6
CONTINUOUS
 62
     7
 10
-63.43123225764214
 20
-23.06960110198236
 30
0.0
  0
VERTEX
  5
5BF
  8
1
  6
CONTINUOUS
 62
     7
 10
-62.39081342109671
 20
-22.36128947021496
 30
0.0
  0
VERTEX
  5
5C0
  8
1
  6
CONTINUOUS
 62
     7
 10
-61.89196359483253
 20
-21.94615546424234
 30
0.0
  0
VERTEX
  5
5C1
  8
1
  6
CONTINUOUS
 62
     7
 10
-144.813344867505
 20
-21.94615546424234
 30
0.0
  0
SEQEND
  5
5C2
  8
1
  6
CONTINUOUS
 62
     7
  0
POLYLINE
  5
5C3
  8
1
  6
CONTINUOUS
 62
     7
 66
     1
 10
0.0
 20
0.0
 30
0.0
  0
VERTEX
  5
5C4
  8
1
  6
CONTINUOUS
 62
     7
 10
-144.813344867505
 20
-21.94615546424234
 30
0.0
  0
VERTEX
  5
5C5
  8
1
  6
CONTINUOUS
 62
     7
 10
-144.3141505316922
 20
-22.36128947021496
 30
0.0
  0
VERTEX
  5
5C6
  8
1
  6
CONTINUOUS
 62
     7
 10
-143.3150728409698
 20
-23.06960110198236
 30
0.0
  0
VERTEX
  5
5C7
  8
1
  6
CONTINUOUS
 62
     7
 10
-142.2336573681499
 20
-23.65285576763517
 30
0.0
  0
VERTEX
  5
5C8
  8
1
  6
CONTINUOUS
 62
     7
 10
-141.1095227113128
 20
-24.11070895762487
 30
0.0
  0
VERTEX
  5
5C9
  8
1
  6
CONTINUOUS
 62
     7
 10
-139.9447359277499
 20
-24.52584296359748
 30
0.0
  0
VERTEX
  5
5CA
  8
1
  6
CONTINUOUS
 62
     7
 10
-138.7799491441869
 20
-24.77526787672957
 30
0.0
  0
VERTEX
  5
5CB
  8
1
  6
CONTINUOUS
 62
     7
 10
-137.5734767052525
 20
-24.94235500776415
 30
0.0
  0
VERTEX
  5
5CC
  8
1
  6
CONTINUOUS
 62
     7
 10
-136.3253186109464
 20
-24.98369615358718
 30
0.0
  0
VERTEX
  5
5CD
  8
1
  6
CONTINUOUS
 62
     7
 10
-70.3789563227455
 20
-24.98369615358718
 30
0.0
  0
VERTEX
  5
5CE
  8
1
  6
CONTINUOUS
 62
     7
 10
-69.13183175708505
 20
-24.94235500776415
 30
0.0
  0
VERTEX
  5
5CF
  8
1
  6
CONTINUOUS
 62
     7
 10
-67.92501480860204
 20
-24.77526787672957
 30
0.0
  0
VERTEX
  5
5D0
  8
1
  6
CONTINUOUS
 62
     7
 10
-66.76022802503905
 20
-24.52584296359748
 30
0.0
  0
VERTEX
  5
5D1
  8
1
  6
CONTINUOUS
 62
     7
 10
-65.59475222237904
 20
-24.11070895762487
 30
0.0
  0
VERTEX
  5
5D2
  8
1
  6
CONTINUOUS
 62
     7
 10
-64.47130658463908
 20
-23.65285576763517
 30
0.0
  0
VERTEX
  5
5D3
  8
1
  6
CONTINUOUS
 62
     7
 10
-63.43123225764214
 20
-23.06960110198236
 30
0.0
  0
VERTEX
  5
5D4
  8
1
  6
CONTINUOUS
 62
     7
 10
-62.39081342109671
 20
-22.36128947021496
 30
0.0
  0
VERTEX
  5
5D5
  8
1
  6
CONTINUOUS
 62
     7
 10
-61.89196359483253
 20
-21.94615546424234
 30
0.0
  0
VERTEX
  5
5D6
  8
1
  6
CONTINUOUS
 62
     7
 10
-144.813344867505
 20
-21.94615546424234
 30
0.0
  0
SEQEND
  5
5D7
  8
1
  6
CONTINUOUS
 62
     7
  0
POLYLINE
  5
5D8
  8
1
  6
CONTINUOUS
 62
     7
 66
     1
 10
0.0
 20
0.0
 30
0.0
  0
VERTEX
  5
5D9
  8
1
  6
CONTINUOUS
 62
     7
 10
-90.26714804954429
 20
-39.17059936184592
 30
0.0
  0
VERTEX
  5
5DA
  8
1
  6
CONTINUOUS
 62
     7
 10
-86.43930249497339
 20
-39.17059850564418
 30
0.0
 42
0.0335852802311514
  0
VERTEX
  5
5DB
  8
1
  6
CONTINUOUS
 62
     7
 10
-83.16142557645577
 20
-38.95017304236003
 30
0.0
 42
0.03348186380509
  0
VERTEX
  5
5DC
  8
1
  6
CONTINUOUS
 62
     7
 10
-79.93246449497339
 20
-38.29149650564412
 30
0.0
 42
0.0334063348840389
  0
VERTEX
  5
5DD
  8
1
  6
CONTINUOUS
 62
     7
 10
-76.8196283043334
 20
-37.20800583008925
 30
0.0
 42
0.0333510567719581
  0
VERTEX
  5
5DE
  8
1
  6
CONTINUOUS
 62
     7
 10
-73.8746947116285
 20
-35.71792466652857
 30
0.0
  0
VERTEX
  5
5DF
  8
1
  6
CONTINUOUS
 62
     7
 10
-103.3524819763945
 20
-35.71792466652857
 30
0.0
  0
VERTEX
  5
5E0
  8
1
  6
CONTINUOUS
 62
     7
 10
-132.8302694949734
 20
-35.71792450564416
 30
0.0
 42
0.0333553131664428
  0
VERTEX
  5
5E1
  8
1
  6
CONTINUOUS
 62
     7
 10
-129.885025753496
 20
-37.20813195950767
 30
0.0
 42
0.0334047687730976
  0
VERTEX
  5
5E2
  8
1
  6
CONTINUOUS
 62
     7
 10
-126.7724134949734
 20
-38.29149650564411
 30
0.0
 42
0.0334828568655039
  0
VERTEX
  5
5E3
  8
1
  6
CONTINUOUS
 62
     7
 10
-123.5432747543628
 20
-38.95016811595721
 30
0.0
 42
0.0335817594308359
  0
VERTEX
  5
5E4
  8
1
  6
CONTINUOUS
 62
     7
 10
-120.2649724778087
 20
-39.17059936184592
 30
0.0
  0
VERTEX
  5
5E5
  8
1
  6
CONTINUOUS
 62
     7
 10
-90.26714804954429
 20
-39.17059936184592
 30
0.0
  0
SEQEND
  5
5E6
  8
1
  6
CONTINUOUS
 62
     7
  0
POLYLINE
  5
5E7
  8
1
  6
CONTINUOUS
 62
     7
 66
     1
 10
0.0
 20
0.0
 30
0.0
  0
VERTEX
  5
5E8
  8
1
  6
CONTINUOUS
 62
     7
 10
-90.26714804954429
 20
-39.17059936184592
 30
0.0
  0
VERTEX
  5
5E9
  8
1
  6
CONTINUOUS
 62
     7
 10
-86.43930249497339
 20
-39.17059850564418
 30
0.0
 42
0.0335852802311514
  0
VERTEX
  5
5EA
  8
1
  6
CONTINUOUS
 62
     7
 10
-83.16142557645577
 20
-38.95017304236003
 30
0.0
 42
0.03348186380509
  0
VERTEX
  5
5EB
  8
1
  6
CONTINUOUS
 62
     7
 10
-79.93246449497339
 20
-38.29149650564412
 30
0.0
 42
0.0334063348840389
  0
VERTEX
  5
5EC
  8
1
  6
CONTINUOUS
 62
     7
 10
-76.8196283043334
 20
-37.20800583008925
 30
0.0
 42
0.0333510567719581
  0
VERTEX
  5
5ED
  8
1
  6
CONTINUOUS
 62
     7
 10
-73.8746947116285
 20
-35.71792466652857
 30
0.0
  0
VERTEX
  5
5EE
  8
1
  6
CONTINUOUS
 62
     7
 10
-103.3524819763945
 20
-35.71792466652857
 30
0.0
  0
VERTEX
  5
5EF
  8
1
  6
CONTINUOUS
 62
     7
 10
-132.8302694949734
 20
-35.71792450564416
 30
0.0
 42
0.0333553131664428
  0
VERTEX
  5
5F0
  8
1
  6
CONTINUOUS
 62
     7
 10
-129.885025753496
 20
-37.20813195950767
 30
0.0
 42
0.0334047687730976
  0
VERTEX
  5
5F1
  8
1
  6
CONTINUOUS
 62
     7
 10
-126.7724134949734
 20
-38.29149650564411
 30
0.0
 42
0.0334828568655039
  0
VERTEX
  5
5F2
  8
1
  6
CONTINUOUS
 62
     7
 10
-123.5432747543628
 20
-38.95016811595721
 30
0.0
 42
0.0335817594308359
  0
VERTEX
  5
5F3
  8
1
  6
CONTINUOUS
 62
     7
 10
-120.2649724778087
 20
-39.17059936184592
 30
0.0
  0
VERTEX
  5
5F4
  8
1
  6
CONTINUOUS
 62
     7
 10
-90.26714804954429
 20
-39.17059936184592
 30
0.0
  0
SEQEND
  5
5F5
  8
1
  6
CONTINUOUS
 62
     7
  0
POLYLINE
  5
5F6
  8
1
  6
CONTINUOUS
 62
     7
 66
     1
 10
0.0
 20
0.0
 30
0.0
  0
VERTEX
  5
5F7
  8
1
  6
CONTINUOUS
 62
     7
 10
-90.26714804954429
 20
-38.75546535587335
 30
0.0
  0
VERTEX
  5
5F8
  8
1
  6
CONTINUOUS
 62
     7
 10
-86.48133262080324
 20
-38.75546535587335
 30
0.0
  0
VERTEX
  5
5F9
  8
1
  6
CONTINUOUS
 62
     7
 10
-84.81666248233051
 20
-38.71309068140476
 30
0.0
  0
VERTEX
  5
5FA
  8
1
  6
CONTINUOUS
 62
     7
 10
-83.19402250877783
 20
-38.54738158856424
 30
0.0
  0
VERTEX
  5
5FB
  8
1
  6
CONTINUOUS
 62
     7
 10
-81.57138253522515
 20
-38.25627102006069
 30
0.0
  0
VERTEX
  5
5FC
  8
1
  6
CONTINUOUS
 62
     7
 10
-79.99111723614106
 20
-37.88144463126559
 30
0.0
  0
VERTEX
  5
5FD
  8
1
  6
CONTINUOUS
 62
     7
 10
-78.40912938931433
 20
-37.42359144127579
 30
0.0
  0
VERTEX
  5
5FE
  8
1
  6
CONTINUOUS
 62
     7
 10
-76.91189089142478
 20
-36.84171481381702
 30
0.0
  0
VERTEX
  5
5FF
  8
1
  6
CONTINUOUS
 62
     7
 10
-75.41396337443814
 20
-36.13443671069524
 30
0.0
  0
VERTEX
  5
600
  8
1
  6
CONTINUOUS
 62
     7
 10
-74.62365847012182
 20
-35.71792466652857
 30
0.0
  0
VERTEX
  5
601
  8
1
  6
CONTINUOUS
 62
     7
 10
-132.0816499922157
 20
-35.71792466652857
 30
0.0
  0
VERTEX
  5
602
  8
1
  6
CONTINUOUS
 62
     7
 10
-131.2910005783508
 20
-36.13443671069524
 30
0.0
  0
VERTEX
  5
603
  8
1
  6
CONTINUOUS
 62
     7
 10
-129.8344142071872
 20
-36.84171481381702
 30
0.0
  0
VERTEX
  5
604
  8
1
  6
CONTINUOUS
 62
     7
 10
-128.2951455443775
 20
-37.42359144127579
 30
0.0
  0
VERTEX
  5
605
  8
1
  6
CONTINUOUS
 62
     7
 10
-126.7138467166479
 20
-37.88144463126559
 30
0.0
  0
VERTEX
  5
606
  8
1
  6
CONTINUOUS
 62
     7
 10
-125.1335814175638
 20
-38.25627102006069
 30
0.0
  0
VERTEX
  5
607
  8
1
  6
CONTINUOUS
 62
     7
 10
-123.5109414440111
 20
-38.54738158856424
 30
0.0
  0
VERTEX
  5
608
  8
1
  6
CONTINUOUS
 62
     7
 10
-121.888645980007
 20
-38.71309068140476
 30
0.0
  0
VERTEX
  5
609
  8
1
  6
CONTINUOUS
 62
     7
 10
-120.2649724778087
 20
-38.75546535587335
 30
0.0
  0
VERTEX
  5
60A
  8
1
  6
CONTINUOUS
 62
     7
 10
-90.26714804954429
 20
-38.75546535587335
 30
0.0
  0
SEQEND
  5
60B
  8
1
  6
CONTINUOUS
 62
     7
  0
POLYLINE
  5
60C
  8
1
  6
CONTINUOUS
 62
     7
 66
     1
 10
0.0
 20
0.0
 30
0.0
  0
VERTEX
  5
60D
  8
1
  6
CONTINUOUS
 62
     7
 10
-45.87330349497341
 20
2.122315494355846
 30
0.0
 42
-0.0248444860866063
  0
VERTEX
  5
60E
  8
1
  6
CONTINUOUS
 62
     7
 10
-46.16086779743181
 20
-3.661398502091206
 30
0.0
 42
-0.0256270201557975
  0
VERTEX
  5
60F
  8
1
  6
CONTINUOUS
 62
     7
 10
-47.0410714949734
 20
-9.461778505644201
 30
0.0
 42
-0.0176858239871001
  0
VERTEX
  5
610
  8
1
  6
CONTINUOUS
 62
     7
 10
-47.98980143238433
 20
-13.38599902336469
 30
0.0
 42
-0.025762369372786
  0
VERTEX
  5
611
  8
1
  6
CONTINUOUS
 62
     7
 10
-49.86023649497339
 20
-18.95380950564415
 30
0.0
 42
-0.0362679343323989
  0
VERTEX
  5
612
  8
1
  6
CONTINUOUS
 62
     7
 10
-53.44906040799211
 20
-26.41923299398258
 30
0.0
 42
-0.037877345728777
  0
VERTEX
  5
613
  8
1
  6
CONTINUOUS
 62
     7
 10
-58.3468974949734
 20
-33.63502650564421
 30
0.0
 42
-0.0117060725586635
  0
VERTEX
  5
614
  8
1
  6
CONTINUOUS
 62
     7
 10
-60.08074119506897
 20
-35.7125798738631
 30
0.0
 42
-0.0431351770065856
  0
VERTEX
  5
615
  8
1
  6
CONTINUOUS
 62
     7
 10
-67.25815049497342
 20
-42.61274050564417
 30
0.0
 42
-0.0407608396087146
  0
VERTEX
  5
616
  8
1
  6
CONTINUOUS
 62
     7
 10
-75.01419846720489
 20
-47.89634271863121
 30
0.0
 42
-0.0427657336233255
  0
VERTEX
  5
617
  8
1
  6
CONTINUOUS
 62
     7
 10
-83.8784724949734
 20
-51.97302950564413
 30
0.0
 42
-0.0198794498055592
  0
VERTEX
  5
618
  8
1
  6
CONTINUOUS
 62
     7
 10
-88.19957567765687
 20
-53.33732719522907
 30
0.0
 42
-0.0230206472165123
  0
VERTEX
  5
619
  8
1
  6
CONTINUOUS
 62
     7
 10
-93.33267849497336
 20
-54.48538850564416
 30
0.0
 42
-0.0215898621041273
  0
VERTEX
  5
61A
  8
1
  6
CONTINUOUS
 62
     7
 10
-98.24372868124705
 20
-55.13159586047835
 30
0.0
 42
-0.0219179470266689
  0
VERTEX
  5
61B
  8
1
  6
CONTINUOUS
 62
     7
 10
-103.3526544949734
 20
-55.35565750564419
 30
0.0
 42
-0.0248433033503002
  0
VERTEX
  5
61C
  8
1
  6
CONTINUOUS
 62
     7
 10
-109.1363004877204
 20
-55.06811029072159
 30
0.0
 42
-0.0256257802473383
  0
VERTEX
  5
61D
  8
1
  6
CONTINUOUS
 62
     7
 10
-114.9366794949734
 20
-54.18794950564413
 30
0.0
 42
-0.0176972124791753
  0
VERTEX
  5
61E
  8
1
  6
CONTINUOUS
 62
     7
 10
-118.8635930351662
 20
-53.23851295526975
 30
0.0
 42
-0.0257490856771056
  0
VERTEX
  5
61F
  8
1
  6
CONTINUOUS
 62
     7
 10
-124.4287334949734
 20
-51.36891550564415
 30
0.0
 42
-0.0362646592632823
  0
VERTEX
  5
620
  8
1
  6
CONTINUOUS
 62
     7
 10
-131.8938589425111
 20
-47.78045522528442
 30
0.0
 42
-0.0378784056903438
  0
VERTEX
  5
621
  8
1
  6
CONTINUOUS
 62
     7
 10
-139.1101194949734
 20
-42.88260050564418
 30
0.0
 42
-0.0106341688308211
  0
VERTEX
  5
622
  8
1
  6
CONTINUOUS
 62
     7
 10
-141.0009022316315
 20
-41.31157534869598
 30
0.0
 42
-0.0442089708561296
  0
VERTEX
  5
623
  8
1
  6
CONTINUOUS
 62
     7
 10
-148.0880174949735
 20
-33.97164250564411
 30
0.0
 42
-0.0407642626619258
  0
VERTEX
  5
624
  8
1
  6
CONTINUOUS
 62
     7
 10
-153.3720505192893
 20
-26.21528344490244
 30
0.0
 42
-0.042764924364208
  0
VERTEX
  5
625
  8
1
  6
CONTINUOUS
 62
     7
 10
-157.4485694949734
 20
-17.35170250564412
 30
0.0
 42
-0.0198808441495095
  0
VERTEX
  5
626
  8
1
  6
CONTINUOUS
 62
     7
 10
-158.8129430190298
 20
-13.03055306898082
 30
0.0
 42
-0.0230213967323702
  0
VERTEX
  5
627
  8
1
  6
CONTINUOUS
 62
     7
 10
-159.9610134949734
 20
-7.897616505644102
 30
0.0
 42
-0.0215909129785123
  0
VERTEX
  5
628
  8
1
  6
CONTINUOUS
 62
     7
 10
-160.6072456976956
 20
-2.986590622907139
 30
0.0
 42
-0.0219188232544107
  0
VERTEX
  5
629
  8
1
  6
CONTINUOUS
 62
     7
 10
-160.8313154949734
 20
2.122315494355867
 30
0.0
 42
-0.0248438374733488
  0
VERTEX
  5
62A
  8
1
  6
CONTINUOUS
 62
     7
 10
-160.5437548507967
 20
7.906107096188182
 30
0.0
 42
-0.0256260435000137
  0
VERTEX
  5
62B
  8
1
  6
CONTINUOUS
 62
     7
 10
-159.6635634949734
 20
13.70658349435576
 30
0.0
 42
-0.0176737710377189
  0
VERTEX
  5
62C
  8
1
  6
CONTINUOUS
 62
     7
 10
-158.7155455390483
 20
17.6283806935811
 30
0.0
 42
-0.0257727606140369
  0
VERTEX
  5
62D
  8
1
  6
CONTINUOUS
 62
     7
 10
-156.8444354949734
 20
23.1988224943558
 30
0.0
 42
-0.0362657034303987
  0
VERTEX
  5
62E
  8
1
  6
CONTINUOUS
 62
     7
 10
-153.2557518694445
 20
30.66428693614257
 30
0.0
 42
-0.0378770580404053
  0
VERTEX
  5
62F
  8
1
  6
CONTINUOUS
 62
     7
 10
-148.3578844949734
 20
37.88047349435584
 30
0.0
 42
-0.0106838006990486
  0
VERTEX
  5
630
  8
1
  6
CONTINUOUS
 62
     7
 10
-146.7792848783967
 20
39.77997561765746
 30
0.0
 42
-0.0441586146689869
  0
VERTEX
  5
631
  8
1
  6
CONTINUOUS
 62
     7
 10
-139.4467414949734
 20
46.85851949435585
 30
0.0
 42
-0.0407654106278183
  0
VERTEX
  5
632
  8
1
  6
CONTINUOUS
 62
     7
 10
-131.6899165982278
 20
52.14283709988496
 30
0.0
 42
-0.0427627954095294
  0
VERTEX
  5
633
  8
1
  6
CONTINUOUS
 62
     7
 10
-122.8266174949734
 20
56.21921649435586
 30
0.0
 42
-0.0198731029132219
  0
VERTEX
  5
634
  8
1
  6
CONTINUOUS
 62
     7
 10
-118.5071436597705
 20
57.58314923046201
 30
0.0
 42
-0.0230291056621999
  0
VERTEX
  5
635
  8
1
  6
CONTINUOUS
 62
     7
 10
-113.3725204949734
 20
58.73169749435584
 30
0.0
 42
-0.0215908223212343
  0
VERTEX
  5
636
  8
1
  6
CONTINUOUS
 62
     7
 10
-108.4615875834121
 20
59.37793240717989
 30
0.0
 42
-0.0219196178879295
  0
VERTEX
  5
637
  8
1
  6
CONTINUOUS
 62
     7
 10
-103.3526544949734
 20
59.60201149435581
 30
0.0
 42
-0.0248442687769145
  0
VERTEX
  5
638
  8
1
  6
CONTINUOUS
 62
     7
 10
-97.56896134059986
 20
59.3144507465229
 30
0.0
 42
-0.0256268044613657
  0
VERTEX
  5
639
  8
1
  6
CONTINUOUS
 62
     7
 10
-91.76850049497341
 20
58.43424249435586
 30
0.0
 42
-0.0176483943346785
  0
VERTEX
  5
63A
  8
1
  6
CONTINUOUS
 62
     7
 10
-87.85239276910706
 20
57.48779163992658
 30
0.0
 42
-0.0257989239162755
  0
VERTEX
  5
63B
  8
1
  6
CONTINUOUS
 62
     7
 10
-82.2763374949734
 20
55.61507349435585
 30
0.0
 42
-0.0362676905246325
  0
VERTEX
  5
63C
  8
1
  6
CONTINUOUS
 62
     7
 10
-74.81062730352185
 20
52.02616660115214
 30
0.0
 42
-0.037875785599989
  0
VERTEX
  5
63D
  8
1
  6
CONTINUOUS
 62
     7
 10
-67.59477649497336
 20
47.12839149435583
 30
0.0
 42
-0.0111722595144819
  0
VERTEX
  5
63E
  8
1
  6
CONTINUOUS
 62
     7
 10
-65.61007803951819
 20
45.47567417193986
 30
0.0
 42
-0.0436692278848276
  0
VERTEX
  5
63F
  8
1
  6
CONTINUOUS
 62
     7
 10
-58.6167674949734
 20
38.21710049435587
 30
0.0
 42
-0.0407634301773042
  0
VERTEX
  5
640
  8
1
  6
CONTINUOUS
 62
     7
 10
-53.33266338735082
 20
30.46048761469148
 30
0.0
 42
-0.0427639431840783
  0
VERTEX
  5
641
  8
1
  6
CONTINUOUS
 62
     7
 10
-49.25609549497339
 20
21.59667549435586
 30
0.0
 42
-0.0198755147749868
  0
VERTEX
  5
642
  8
1
  6
CONTINUOUS
 62
     7
 10
-47.89200153267918
 20
17.27651952097255
 30
0.0
 42
-0.0230259514326177
  0
VERTEX
  5
643
  8
1
  6
CONTINUOUS
 62
     7
 10
-46.74361749497336
 20
12.14239149435583
 30
0.0
 42
-0.0215906047701663
  0
VERTEX
  5
644
  8
1
  6
CONTINUOUS
 62
     7
 10
-46.09737886810125
 20
7.231311027339639
 30
0.0
 42
-0.0219188936730617
  0
VERTEX
  5
645
  8
1
  6
CONTINUOUS
 62
     7
 10
-45.87330349497343
 20
2.122315520744507
 30
0.0
  0
SEQEND
  5
646
  8
1
  6
CONTINUOUS
 62
     7
  0
LINE
  5
647
  8
1
  6
CONTINUOUS
 62
     7
 10
-37.3766641217947
 20
1.967285827522346
 30
0.0
 11
-37.3766641217947
 21
1.999669725083663
 31
0.0
  0
POLYLINE
  5
648
  8
1
  6
CONTINUOUS
 62
     7
 66
     1
 10
0.0
 20
0.0
 30
0.0
  0
VERTEX
  5
649
  8
1
  6
CONTINUOUS
 62
     7
 10
-100.625516645045
 20
67.83199935272285
 30
0.0
  0
VERTEX
  5
64A
  8
1
  6
CONTINUOUS
 62
     7
 10
-100.6909734592647
 20
68.38803776404211
 30
0.0
  0
VERTEX
  5
64B
  8
1
  6
CONTINUOUS
 62
     7
 10
-100.8215434949734
 20
68.91100349435585
 30
0.0
 42
0.0407767281823151
  0
VERTEX
  5
64C
  8
1
  6
CONTINUOUS
 62
     7
 10
-101.0552266118802
 20
69.35417814237293
 30
0.0
 42
0.0429967891989217
  0
VERTEX
  5
64D
  8
1
  6
CONTINUOUS
 62
     7
 10
-101.3438384949734
 20
69.73171449435584
 30
0.0
 42
0.0364013331536217
  0
VERTEX
  5
64E
  8
1
  6
CONTINUOUS
 62
     7
 10
-101.6296447140878
 20
70.00302824927573
 30
0.0
 42
0.0364918458748608
  0
VERTEX
  5
64F
  8
1
  6
CONTINUOUS
 62
     7
 10
-101.9510474949734
 20
70.22942249435587
 30
0.0
 42
0.0595544882366706
  0
VERTEX
  5
650
  8
1
  6
CONTINUOUS
 62
     7
 10
-102.5459777392836
 20
70.49634945288558
 30
0.0
 42
0.0578391915699723
  0
VERTEX
  5
651
  8
1
  6
CONTINUOUS
 62
     7
 10
-103.2055694949734
 20
70.62130749435585
 30
0.0
 42
0.0415680876255048
  0
VERTEX
  5
652
  8
1
  6
CONTINUOUS
 62
     7
 10
-103.6973914959704
 20
70.61569666563278
 30
0.0
 42
0.0417214140817063
  0
VERTEX
  5
653
  8
1
  6
CONTINUOUS
 62
     7
 10
-104.1799914949734
 20
70.52892949435581
 30
0.0
 42
0.0660401655945207
  0
VERTEX
  5
654
  8
1
  6
CONTINUOUS
 62
     7
 10
-104.8746983113944
 20
70.24078561554407
 30
0.0
 42
0.0688962147484385
  0
VERTEX
  5
655
  8
1
  6
CONTINUOUS
 62
     7
 10
-105.4432294949734
 20
69.79713749435587
 30
0.0
 42
0.0371773195282831
  0
VERTEX
  5
656
  8
1
  6
CONTINUOUS
 62
     7
 10
-105.6886408191718
 20
69.50355461134207
 30
0.0
 42
0.0369536843795134
  0
VERTEX
  5
657
  8
1
  6
CONTINUOUS
 62
     7
 10
-105.8893164949734
 20
69.17482049435584
 30
0.0
 42
0.037871122275718
  0
VERTEX
  5
658
  8
1
  6
CONTINUOUS
 62
     7
 10
-106.0465842170272
 20
68.8012773311465
 30
0.0
 42
0.0359743172050191
  0
VERTEX
  5
659
  8
1
  6
CONTINUOUS
 62
     7
 10
-106.1524833320312
 20
68.38803776404211
 30
0.0
  0
VERTEX
  5
65A
  8
1
  6
CONTINUOUS
 62
     7
 10
-106.2179401462511
 20
67.83199935272285
 30
0.0
  0
VERTEX
  5
65B
  8
1
  6
CONTINUOUS
 62
     7
 10
-106.1524834949734
 20
67.30903449435584
 30
0.0
 42
0.040842107298021
  0
VERTEX
  5
65C
  8
1
  6
CONTINUOUS
 62
     7
 10
-106.0191859141403
 20
66.82426438703077
 30
0.0
 42
0.043417696590152
  0
VERTEX
  5
65D
  8
1
  6
CONTINUOUS
 62
     7
 10
-105.8190964949734
 20
66.39564849435585
 30
0.0
 42
0.0370221645415245
  0
VERTEX
  5
65E
  8
1
  6
CONTINUOUS
 62
     7
 10
-105.5983300715419
 20
66.07125482506532
 30
0.0
 42
0.037273366607733
  0
VERTEX
  5
65F
  8
1
  6
CONTINUOUS
 62
     7
 10
-105.3338994949734
 20
65.78516549435584
 30
0.0
 42
0.0610277290871762
  0
VERTEX
  5
660
  8
1
  6
CONTINUOUS
 62
     7
 10
-104.8112725636661
 20
65.40546511685655
 30
0.0
 42
0.059145707945129
  0
VERTEX
  5
661
  8
1
  6
CONTINUOUS
 62
     7
 10
-104.1944564949734
 20
65.15318249435585
 30
0.0
 42
0.0422585912215716
  0
VERTEX
  5
662
  8
1
  6
CONTINUOUS
 62
     7
 10
-103.7139961567069
 20
65.06295723190416
 30
0.0
 42
0.0420523664594217
  0
VERTEX
  5
663
  8
1
  6
CONTINUOUS
 62
     7
 10
-103.2230384949734
 20
65.05455849435587
 30
0.0
 42
0.0657425801004081
  0
VERTEX
  5
664
  8
1
  6
CONTINUOUS
 62
     7
 10
-102.4841163661958
 20
65.20299542509915
 30
0.0
 42
0.0675593157373267
  0
VERTEX
  5
665
  8
1
  6
CONTINUOUS
 62
     7
 10
-101.8282694949734
 20
65.53158049435586
 30
0.0
 42
0.0361190827815683
  0
VERTEX
  5
666
  8
1
  6
CONTINUOUS
 62
     7
 10
-101.5237399003778
 20
65.77362796375292
 30
0.0
 42
0.03577573867068
  0
VERTEX
  5
667
  8
1
  6
CONTINUOUS
 62
     7
 10
-101.2543784949734
 20
66.05960249435584
 30
0.0
 42
0.0366246710806674
  0
VERTEX
  5
668
  8
1
  6
CONTINUOUS
 62
     7
 10
-101.0173489911193
 20
66.39819360934077
 30
0.0
 42
0.0348593046341541
  0
VERTEX
  5
669
  8
1
  6
CONTINUOUS
 62
     7
 10
-100.8215425781557
 20
66.78572385385246
 30
0.0
  0
VERTEX
  5
66A
  8
1
  6
CONTINUOUS
 62
     7
 10
-100.6909734592647
 20
67.30903385806187
 30
0.0
  0
VERTEX
  5
66B
  8
1
  6
CONTINUOUS
 62
     7
 10
-100.625516645045
 20
67.83199935272285
 30
0.0
  0
SEQEND
  5
66C
  8
1
  6
CONTINUOUS
 62
     7
  0
LINE
  5
66D
  8
1
  6
CONTINUOUS
 62
     7
 10
-104.8113076596235
 20
67.96325749071082
 30
0.0
 11
-104.7461953549523
 21
67.96325749071082
 31
0.0
  0
LINE
  5
66E
  8
1
  6
CONTINUOUS
 62
     7
 10
-101.9336194007943
 20
67.96325749071082
 30
0.0
 11
-101.8681625865746
 21
67.96325749071082
 31
0.0
  0
LINE
  5
66F
  8
1
  6
CONTINUOUS
 62
     7
 10
-101.7703218747935
 20
68.28985254271254
 30
0.0
 11
-101.7703218747935
 21
67.63562891006359
 31
0.0
  0
POLYLINE
  5
670
  8
1
  6
CONTINUOUS
 62
     7
 66
     1
 10
0.0
 20
0.0
 30
0.0
  0
VERTEX
  5
671
  8
1
  6
CONTINUOUS
 62
     7
 10
-101.9336194007943
 20
67.70143023383184
 30
0.0
  0
VERTEX
  5
672
  8
1
  6
CONTINUOUS
 62
     7
 10
-101.8681625865746
 20
67.99564138827219
 30
0.0
  0
VERTEX
  5
673
  8
1
  6
CONTINUOUS
 62
     7
 10
-101.9008909936845
 20
68.28985254271254
 30
0.0
  0
SEQEND
  5
674
  8
1
  6
CONTINUOUS
 62
     7
  0
LINE
  5
675
  8
1
  6
CONTINUOUS
 62
     7
 10
-101.7703218747935
 20
68.28985254271254
 30
0.0
 11
-101.7703218747935
 21
67.63562891006359
 31
0.0
  0
POLYLINE
  5
676
  8
1
  6
CONTINUOUS
 62
     7
 66
     1
 10
0.0
 20
0.0
 30
0.0
  0
VERTEX
  5
677
  8
1
  6
CONTINUOUS
 62
     7
 10
-103.045696223433
 20
69.56522689135204
 30
0.0
  0
VERTEX
  5
678
  8
1
  6
CONTINUOUS
 62
     7
 10
-103.6668469394235
 20
69.56522689135204
 30
0.0
  0
VERTEX
  5
679
  8
1
  6
CONTINUOUS
 62
     7
 10
-103.6668469394235
 20
68.61679210426269
 30
0.0
  0
SEQEND
  5
67A
  8
1
  6
CONTINUOUS
 62
     7
  0
POLYLINE
  5
67B
  8
1
  6
CONTINUOUS
 62
     7
 66
     1
 10
0.0
 20
0.0
 30
0.0
  0
VERTEX
  5
67C
  8
1
  6
CONTINUOUS
 62
     7
 10
-103.6668469394235
 20
67.34141775562324
 30
0.0
  0
VERTEX
  5
67D
  8
1
  6
CONTINUOUS
 62
     7
 10
-103.6668469394235
 20
66.36025456142409
 30
0.0
  0
VERTEX
  5
67E
  8
1
  6
CONTINUOUS
 62
     7
 10
-103.045696223433
 20
66.36025456142409
 30
0.0
  0
VERTEX
  5
67F
  8
1
  6
CONTINUOUS
 62
     7
 10
-103.045696223433
 20
67.34141775562324
 30
0.0
  0
VERTEX
  5
680
  8
1
  6
CONTINUOUS
 62
     7
 10
-102.7187566618828
 20
67.63562891006359
 30
0.0
  0
SEQEND
  5
681
  8
1
  6
CONTINUOUS
 62
     7
  0
POLYLINE
  5
682
  8
1
  6
CONTINUOUS
 62
     7
 66
     1
 10
0.0
 20
0.0
 30
0.0
  0
VERTEX
  5
683
  8
1
  6
CONTINUOUS
 62
     7
 10
-103.045696223433
 20
69.56522689135204
 30
0.0
  0
VERTEX
  5
684
  8
1
  6
CONTINUOUS
 62
     7
 10
-103.045696223433
 20
68.61679210426269
 30
0.0
  0
VERTEX
  5
685
  8
1
  6
CONTINUOUS
 62
     7
 10
-102.7187566618828
 20
68.28985254271254
 30
0.0
  0
SEQEND
  5
686
  8
1
  6
CONTINUOUS
 62
     7
  0
POLYLINE
  5
687
  8
1
  6
CONTINUOUS
 62
     7
 66
     1
 10
0.0
 20
0.0
 30
0.0
  0
VERTEX
  5
688
  8
1
  6
CONTINUOUS
 62
     7
 10
-103.6017346347523
 20
66.52389659697349
 30
0.0
  0
VERTEX
  5
689
  8
1
  6
CONTINUOUS
 62
     7
 10
-103.3399073778733
 20
66.49116818986357
 30
0.0
  0
VERTEX
  5
68A
  8
1
  6
CONTINUOUS
 62
     7
 10
-103.045696223433
 20
66.52389659697349
 30
0.0
  0
SEQEND
  5
68B
  8
1
  6
CONTINUOUS
 62
     7
  0
POLYLINE
  5
68C
  8
1
  6
CONTINUOUS
 62
     7
 66
     1
 10
0.0
 20
0.0
 30
0.0
  0
VERTEX
  5
68D
  8
1
  6
CONTINUOUS
 62
     7
 10
-103.1111530376527
 20
69.40192936535118
 30
0.0
  0
VERTEX
  5
68E
  8
1
  6
CONTINUOUS
 62
     7
 10
-103.4053641920931
 20
69.4673861795709
 30
0.0
  0
VERTEX
  5
68F
  8
1
  6
CONTINUOUS
 62
     7
 10
-103.6668469394235
 20
69.40192936535118
 30
0.0
  0
SEQEND
  5
690
  8
1
  6
CONTINUOUS
 62
     7
  0
POLYLINE
  5
691
  8
1
  6
CONTINUOUS
 62
     7
 66
     1
 10
0.0
 20
0.0
 30
0.0
  0
VERTEX
  5
692
  8
1
  6
CONTINUOUS
 62
     7
 10
-103.5686617180939
 20
67.37449067228164
 30
0.0
  0
VERTEX
  5
693
  8
1
  6
CONTINUOUS
 62
     7
 10
-103.3726357849832
 20
67.34141775562324
 30
0.0
  0
VERTEX
  5
694
  8
1
  6
CONTINUOUS
 62
     7
 10
-103.1438814447626
 20
67.37449067228164
 30
0.0
  0
SEQEND
  5
695
  8
1
  6
CONTINUOUS
 62
     7
  0
POLYLINE
  5
696
  8
1
  6
CONTINUOUS
 62
     7
 66
     1
 10
0.0
 20
0.0
 30
0.0
  0
VERTEX
  5
697
  8
1
  6
CONTINUOUS
 62
     7
 10
-103.1438814447626
 20
68.55167979959151
 30
0.0
  0
VERTEX
  5
698
  8
1
  6
CONTINUOUS
 62
     7
 10
-103.3726357849832
 20
68.58440820670137
 30
0.0
  0
VERTEX
  5
699
  8
1
  6
CONTINUOUS
 62
     7
 10
-103.5686617180939
 20
68.55167979959151
 30
0.0
  0
SEQEND
  5
69A
  8
1
  6
CONTINUOUS
 62
     7
  0
LINE
  5
69B
  8
1
  6
CONTINUOUS
 62
     7
 10
-103.6668469394235
 20
66.36025456142409
 30
0.0
 11
-103.045696223433
 21
66.36025456142409
 31
0.0
  0
LINE
  5
69C
  8
1
  6
CONTINUOUS
 62
     7
 10
-103.045696223433
 20
69.56522689135204
 30
0.0
 11
-103.6668469394235
 21
69.56522689135204
 31
0.0
  0
POLYLINE
  5
69D
  8
1
  6
CONTINUOUS
 62
     7
 66
     1
 10
0.0
 20
0.0
 30
0.0
  0
VERTEX
  5
69E
  8
1
  6
CONTINUOUS
 62
     7
 10
-103.6668469394235
 20
66.85118066807217
 30
0.0
  0
VERTEX
  5
69F
  8
1
  6
CONTINUOUS
 62
     7
 10
-103.5686617180939
 20
67.37449067228164
 30
0.0
  0
VERTEX
  5
6A0
  8
1
  6
CONTINUOUS
 62
     7
 10
-103.6999198560819
 20
67.63562891006359
 30
0.0
  0
SEQEND
  5
6A1
  8
1
  6
CONTINUOUS
 62
     7
  0
POLYLINE
  5
6A2
  8
1
  6
CONTINUOUS
 62
     7
 66
     1
 10
0.0
 20
0.0
 30
0.0
  0
VERTEX
  5
6A3
  8
1
  6
CONTINUOUS
 62
     7
 10
-103.797760567863
 20
67.53778819828244
 30
0.0
  0
VERTEX
  5
6A4
  8
1
  6
CONTINUOUS
 62
     7
 10
-103.6668469394235
 20
67.34141775562324
 30
0.0
  0
VERTEX
  5
6A5
  8
1
  6
CONTINUOUS
 62
     7
 10
-103.5686617180939
 20
67.37449067228164
 30
0.0
  0
SEQEND
  5
6A6
  8
1
  6
CONTINUOUS
 62
     7
  0
LINE
  5
6A7
  8
1
  6
CONTINUOUS
 62
     7
 10
-103.9614026034124
 20
68.19201183093139
 30
0.0
 11
-103.6999198560819
 21
68.32223644027385
 31
0.0
  0
LINE
  5
6A8
  8
1
  6
CONTINUOUS
 62
     7
 10
-103.6668469394235
 20
68.61679210426269
 30
0.0
 11
-103.797760567863
 21
68.42076617115202
 31
0.0
  0
LINE
  5
6A9
  8
1
  6
CONTINUOUS
 62
     7
 10
-103.6668469394235
 20
67.34141775562324
 30
0.0
 11
-103.797760567863
 21
67.53778819828244
 31
0.0
  0
LINE
  5
6AA
  8
1
  6
CONTINUOUS
 62
     7
 10
-103.9614026034124
 20
67.76688704805156
 30
0.0
 11
-103.6999198560819
 21
67.63562891006359
 31
0.0
  0
LINE
  5
6AB
  8
1
  6
CONTINUOUS
 62
     7
 10
-103.5686617180939
 20
68.55167979959151
 30
0.0
 11
-103.6999198560819
 21
68.32223644027385
 31
0.0
  0
POLYLINE
  5
6AC
  8
1
  6
CONTINUOUS
 62
     7
 66
     1
 10
0.0
 20
0.0
 30
0.0
  0
VERTEX
  5
6AD
  8
1
  6
CONTINUOUS
 62
     7
 10
-103.797760567863
 20
68.42076617115202
 30
0.0
  0
VERTEX
  5
6AE
  8
1
  6
CONTINUOUS
 62
     7
 10
-103.6668469394235
 20
68.61679210426269
 30
0.0
  0
VERTEX
  5
6AF
  8
1
  6
CONTINUOUS
 62
     7
 10
-103.5686617180939
 20
68.55167979959151
 30
0.0
  0
VERTEX
  5
6B0
  8
1
  6
CONTINUOUS
 62
     7
 10
-103.6668469394235
 20
69.10737370136229
 30
0.0
  0
SEQEND
  5
6B1
  8
1
  6
CONTINUOUS
 62
     7
  0
LINE
  5
6B2
  8
1
  6
CONTINUOUS
 62
     7
 10
-103.6668469394235
 20
67.34141775562324
 30
0.0
 11
-103.6668469394235
 21
66.36025456142409
 31
0.0
  0
LINE
  5
6B3
  8
1
  6
CONTINUOUS
 62
     7
 10
-103.6668469394235
 20
69.56522689135204
 30
0.0
 11
-103.6668469394235
 21
68.61679210426269
 31
0.0
  0
LINE
  5
6B4
  8
1
  6
CONTINUOUS
 62
     7
 10
-102.783868966554
 20
67.76688704805156
 30
0.0
 11
-103.0129678163231
 21
67.63562891006359
 31
0.0
  0
POLYLINE
  5
6B5
  8
1
  6
CONTINUOUS
 62
     7
 66
     1
 10
0.0
 20
0.0
 30
0.0
  0
VERTEX
  5
6B6
  8
1
  6
CONTINUOUS
 62
     7
 10
-102.7187566618828
 20
67.63562891006359
 30
0.0
  0
VERTEX
  5
6B7
  8
1
  6
CONTINUOUS
 62
     7
 10
-102.9147825949935
 20
67.53778819828244
 30
0.0
  0
VERTEX
  5
6B8
  8
1
  6
CONTINUOUS
 62
     7
 10
-103.045696223433
 20
67.34141775562324
 30
0.0
  0
SEQEND
  5
6B9
  8
1
  6
CONTINUOUS
 62
     7
  0
LINE
  5
6BA
  8
1
  6
CONTINUOUS
 62
     7
 10
-102.7187566618828
 20
67.63562891006359
 30
0.0
 11
-102.783868966554
 21
67.76688704805156
 31
0.0
  0
LINE
  5
6BB
  8
1
  6
CONTINUOUS
 62
     7
 10
-102.7187566618828
 20
68.28985254271254
 30
0.0
 11
-102.783868966554
 21
68.19201183093139
 31
0.0
  0
POLYLINE
  5
6BC
  8
1
  6
CONTINUOUS
 62
     7
 66
     1
 10
0.0
 20
0.0
 30
0.0
  0
VERTEX
  5
6BD
  8
1
  6
CONTINUOUS
 62
     7
 10
-103.045696223433
 20
68.61679210426269
 30
0.0
  0
VERTEX
  5
6BE
  8
1
  6
CONTINUOUS
 62
     7
 10
-102.9147825949935
 20
68.42076617115202
 30
0.0
  0
VERTEX
  5
6BF
  8
1
  6
CONTINUOUS
 62
     7
 10
-102.7187566618828
 20
68.28985254271254
 30
0.0
  0
SEQEND
  5
6C0
  8
1
  6
CONTINUOUS
 62
     7
  0
LINE
  5
6C1
  8
1
  6
CONTINUOUS
 62
     7
 10
-102.783868966554
 20
68.19201183093139
 30
0.0
 11
-103.0129678163231
 21
68.32292545937094
 31
0.0
  0
POLYLINE
  5
6C2
  8
1
  6
CONTINUOUS
 62
     7
 66
     1
 10
0.0
 20
0.0
 30
0.0
  0
VERTEX
  5
6C3
  8
1
  6
CONTINUOUS
 62
     7
 10
-102.783868966554
 20
67.76688704805156
 30
0.0
  0
VERTEX
  5
6C4
  8
1
  6
CONTINUOUS
 62
     7
 10
-102.7187566618828
 20
67.96325749071082
 30
0.0
  0
VERTEX
  5
6C5
  8
1
  6
CONTINUOUS
 62
     7
 10
-102.783868966554
 20
68.19201183093139
 30
0.0
  0
SEQEND
  5
6C6
  8
1
  6
CONTINUOUS
 62
     7
  0
POLYLINE
  5
6C7
  8
1
  6
CONTINUOUS
 62
     7
 66
     1
 10
0.0
 20
0.0
 30
0.0
  0
VERTEX
  5
6C8
  8
1
  6
CONTINUOUS
 62
     7
 10
-103.045696223433
 20
66.85118066807217
 30
0.0
  0
VERTEX
  5
6C9
  8
1
  6
CONTINUOUS
 62
     7
 10
-103.1438814447626
 20
67.37449067228164
 30
0.0
  0
VERTEX
  5
6CA
  8
1
  6
CONTINUOUS
 62
     7
 10
-103.045696223433
 20
67.34141775562324
 30
0.0
  0
SEQEND
  5
6CB
  8
1
  6
CONTINUOUS
 62
     7
  0
POLYLINE
  5
6CC
  8
1
  6
CONTINUOUS
 62
     7
 66
     1
 10
0.0
 20
0.0
 30
0.0
  0
VERTEX
  5
6CD
  8
1
  6
CONTINUOUS
 62
     7
 10
-102.7187566618828
 20
67.63562891006359
 30
0.0
  0
VERTEX
  5
6CE
  8
1
  6
CONTINUOUS
 62
     7
 10
-102.9147825949935
 20
67.53778819828244
 30
0.0
  0
VERTEX
  5
6CF
  8
1
  6
CONTINUOUS
 62
     7
 10
-103.045696223433
 20
67.34141775562324
 30
0.0
  0
SEQEND
  5
6D0
  8
1
  6
CONTINUOUS
 62
     7
  0
LINE
  5
6D1
  8
1
  6
CONTINUOUS
 62
     7
 10
-103.1438814447626
 20
67.37449067228164
 30
0.0
 11
-103.0129678163231
 21
67.63562891006359
 31
0.0
  0
LINE
  5
6D2
  8
1
  6
CONTINUOUS
 62
     7
 10
-103.045696223433
 20
68.61679210426269
 30
0.0
 11
-103.1438814447626
 21
68.55167979959151
 31
0.0
  0
POLYLINE
  5
6D3
  8
1
  6
CONTINUOUS
 62
     7
 66
     1
 10
0.0
 20
0.0
 30
0.0
  0
VERTEX
  5
6D4
  8
1
  6
CONTINUOUS
 62
     7
 10
-102.7187566618828
 20
68.28985254271254
 30
0.0
  0
VERTEX
  5
6D5
  8
1
  6
CONTINUOUS
 62
     7
 10
-102.915127104542
 20
68.42076617115202
 30
0.0
  0
VERTEX
  5
6D6
  8
1
  6
CONTINUOUS
 62
     7
 10
-103.045696223433
 20
68.61679210426269
 30
0.0
  0
SEQEND
  5
6D7
  8
1
  6
CONTINUOUS
 62
     7
  0
POLYLINE
  5
6D8
  8
1
  6
CONTINUOUS
 62
     7
 66
     1
 10
0.0
 20
0.0
 30
0.0
  0
VERTEX
  5
6D9
  8
1
  6
CONTINUOUS
 62
     7
 10
-103.0129678163231
 20
68.32292545937094
 30
0.0
  0
VERTEX
  5
6DA
  8
1
  6
CONTINUOUS
 62
     7
 10
-103.1438814447626
 20
68.55167979959151
 30
0.0
  0
VERTEX
  5
6DB
  8
1
  6
CONTINUOUS
 62
     7
 10
-103.045696223433
 20
69.10737370136229
 30
0.0
  0
SEQEND
  5
6DC
  8
1
  6
CONTINUOUS
 62
     7
  0
LINE
  5
6DD
  8
1
  6
CONTINUOUS
 62
     7
 10
-103.045696223433
 20
69.56522689135204
 30
0.0
 11
-103.045696223433
 21
68.61679210426269
 31
0.0
  0
LINE
  5
6DE
  8
1
  6
CONTINUOUS
 62
     7
 10
-103.045696223433
 20
66.36025456142409
 30
0.0
 11
-103.045696223433
 21
67.34141775562324
 31
0.0
  0
LINE
  5
6DF
  8
1
  6
CONTINUOUS
 62
     7
 10
-101.7703218747935
 20
67.63562891006359
 30
0.0
 11
-102.7187566618828
 21
67.63562891006359
 31
0.0
  0
POLYLINE
  5
6E0
  8
1
  6
CONTINUOUS
 62
     7
 66
     1
 10
0.0
 20
0.0
 30
0.0
  0
VERTEX
  5
6E1
  8
1
  6
CONTINUOUS
 62
     7
 10
-102.7187566618828
 20
68.28985254271254
 30
0.0
  0
VERTEX
  5
6E2
  8
1
  6
CONTINUOUS
 62
     7
 10
-101.7703218747935
 20
68.28985254271254
 30
0.0
  0
VERTEX
  5
6E3
  8
1
  6
CONTINUOUS
 62
     7
 10
-102.7187566618828
 20
68.28985254271254
 30
0.0
  0
SEQEND
  5
6E4
  8
1
  6
CONTINUOUS
 62
     7
  0
LINE
  5
6E5
  8
1
  6
CONTINUOUS
 62
     7
 10
-101.7703218747935
 20
67.63562891006359
 30
0.0
 11
-102.7187566618828
 21
67.63562891006359
 31
0.0
  0
LINE
  5
6E6
  8
1
  6
CONTINUOUS
 62
     7
 10
-102.2281750647832
 20
67.63562891006359
 30
0.0
 11
-102.783868966554
 21
67.76688704805156
 31
0.0
  0
LINE
  5
6E7
  8
1
  6
CONTINUOUS
 62
     7
 10
-102.2281750647832
 20
68.28985254271254
 30
0.0
 11
-102.783868966554
 21
68.19201183093139
 31
0.0
  0
POLYLINE
  5
6E8
  8
1
  6
CONTINUOUS
 62
     7
 66
     1
 10
0.0
 20
0.0
 30
0.0
  0
VERTEX
  5
6E9
  8
1
  6
CONTINUOUS
 62
     7
 10
-104.9752942047214
 20
67.63562891006359
 30
0.0
  0
VERTEX
  5
6EA
  8
1
  6
CONTINUOUS
 62
     7
 10
-104.9752942047214
 20
68.28985254271254
 30
0.0
  0
VERTEX
  5
6EB
  8
1
  6
CONTINUOUS
 62
     7
 10
-103.9941310105223
 20
68.28985254271254
 30
0.0
  0
SEQEND
  5
6EC
  8
1
  6
CONTINUOUS
 62
     7
  0
LINE
  5
6ED
  8
1
  6
CONTINUOUS
 62
     7
 10
-103.9941310105223
 20
67.63562891006359
 30
0.0
 11
-104.9752942047214
 21
67.63562891006359
 31
0.0
  0
POLYLINE
  5
6EE
  8
1
  6
CONTINUOUS
 62
     7
 66
     1
 10
0.0
 20
0.0
 30
0.0
  0
VERTEX
  5
6EF
  8
1
  6
CONTINUOUS
 62
     7
 10
-104.811652169172
 20
68.22439572849277
 30
0.0
  0
VERTEX
  5
6F0
  8
1
  6
CONTINUOUS
 62
     7
 10
-104.8443805762819
 20
67.93018457405242
 30
0.0
  0
VERTEX
  5
6F1
  8
1
  6
CONTINUOUS
 62
     7
 10
-104.811652169172
 20
67.63562891006359
 30
0.0
  0
SEQEND
  5
6F2
  8
1
  6
CONTINUOUS
 62
     7
  0
LINE
  5
6F3
  8
1
  6
CONTINUOUS
 62
     7
 10
-103.9941310105223
 20
67.63562891006359
 30
0.0
 11
-104.9752942047214
 21
67.63562891006359
 31
0.0
  0
POLYLINE
  5
6F4
  8
1
  6
CONTINUOUS
 62
     7
 66
     1
 10
0.0
 20
0.0
 30
0.0
  0
VERTEX
  5
6F5
  8
1
  6
CONTINUOUS
 62
     7
 10
-103.9941310105223
 20
68.28985254271254
 30
0.0
  0
VERTEX
  5
6F6
  8
1
  6
CONTINUOUS
 62
     7
 10
-104.9752942047214
 20
68.28985254271254
 30
0.0
  0
VERTEX
  5
6F7
  8
1
  6
CONTINUOUS
 62
     7
 10
-104.9752942047214
 20
67.63562891006359
 30
0.0
  0
SEQEND
  5
6F8
  8
1
  6
CONTINUOUS
 62
     7
  0
LINE
  5
6F9
  8
1
  6
CONTINUOUS
 62
     7
 10
-103.6668469394235
 20
68.61679210426269
 30
0.0
 11
-103.9941310105223
 21
68.28985254271254
 31
0.0
  0
POLYLINE
  5
6FA
  8
1
  6
CONTINUOUS
 62
     7
 66
     1
 10
0.0
 20
0.0
 30
0.0
  0
VERTEX
  5
6FB
  8
1
  6
CONTINUOUS
 62
     7
 10
-103.6668469394235
 20
67.34141775562324
 30
0.0
  0
VERTEX
  5
6FC
  8
1
  6
CONTINUOUS
 62
     7
 10
-103.9941310105223
 20
67.63562891006359
 30
0.0
  0
VERTEX
  5
6FD
  8
1
  6
CONTINUOUS
 62
     7
 10
-103.797760567863
 20
67.53778819828244
 30
0.0
  0
SEQEND
  5
6FE
  8
1
  6
CONTINUOUS
 62
     7
  0
LINE
  5
6FF
  8
1
  6
CONTINUOUS
 62
     7
 10
-104.4847126076219
 20
68.28985254271254
 30
0.0
 11
-103.9614026034124
 21
68.19201183093139
 31
0.0
  0
POLYLINE
  5
700
  8
1
  6
CONTINUOUS
 62
     7
 66
     1
 10
0.0
 20
0.0
 30
0.0
  0
VERTEX
  5
701
  8
1
  6
CONTINUOUS
 62
     7
 10
-103.797760567863
 20
68.42076617115202
 30
0.0
  0
VERTEX
  5
702
  8
1
  6
CONTINUOUS
 62
     7
 10
-103.9941310105223
 20
68.28985254271254
 30
0.0
  0
VERTEX
  5
703
  8
1
  6
CONTINUOUS
 62
     7
 10
-103.9614026034124
 20
68.19201183093139
 30
0.0
  0
SEQEND
  5
704
  8
1
  6
CONTINUOUS
 62
     7
  0
LINE
  5
705
  8
1
  6
CONTINUOUS
 62
     7
 10
-103.9941310105223
 20
67.63562891006359
 30
0.0
 11
-103.6668469394235
 21
67.34141775562324
 31
0.0
  0
POLYLINE
  5
706
  8
1
  6
CONTINUOUS
 62
     7
 66
     1
 10
0.0
 20
0.0
 30
0.0
  0
VERTEX
  5
707
  8
1
  6
CONTINUOUS
 62
     7
 10
-104.4847126076219
 20
67.63562891006359
 30
0.0
  0
VERTEX
  5
708
  8
1
  6
CONTINUOUS
 62
     7
 10
-103.9614026034124
 20
67.76688704805156
 30
0.0
  0
VERTEX
  5
709
  8
1
  6
CONTINUOUS
 62
     7
 10
-103.9941310105223
 20
67.63562891006359
 30
0.0
  0
VERTEX
  5
70A
  8
1
  6
CONTINUOUS
 62
     7
 10
-103.797760567863
 20
67.53778819828244
 30
0.0
  0
SEQEND
  5
70B
  8
1
  6
CONTINUOUS
 62
     7
  0
POLYLINE
  5
70C
  8
1
  6
CONTINUOUS
 62
     7
 66
     1
 10
0.0
 20
0.0
 30
0.0
  0
VERTEX
  5
70D
  8
1
  6
CONTINUOUS
 62
     7
 10
-103.9614026034124
 20
68.19201183093139
 30
0.0
  0
VERTEX
  5
70E
  8
1
  6
CONTINUOUS
 62
     7
 10
-103.9941310105223
 20
67.96325749071082
 30
0.0
  0
VERTEX
  5
70F
  8
1
  6
CONTINUOUS
 62
     7
 10
-103.9614026034124
 20
67.76688704805156
 30
0.0
  0
SEQEND
  5
710
  8
1
  6
CONTINUOUS
 62
     7
  0
LINE
  5
711
  8
1
  6
CONTINUOUS
 62
     7
 10
-103.9941310105223
 20
68.28985254271254
 30
0.0
 11
-103.797760567863
 21
68.42076617115202
 31
0.0
  0
LINE
  5
712
  8
1
  6
CONTINUOUS
 62
     7
 10
-103.9941310105223
 20
67.63562891006359
 30
0.0
 11
-103.6668469394235
 21
67.34141775562324
 31
0.0
  0
LINE
  5
713
  8
1
  6
CONTINUOUS
 62
     7
 10
-103.3726357849832
 20
66.55696951363188
 30
0.0
 11
-103.3726357849832
 21
66.6224263278516
 31
0.0
  0
LINE
  5
714
  8
1
  6
CONTINUOUS
 62
     7
 10
-103.3726357849832
 20
69.40192936535118
 30
0.0
 11
-103.3726357849832
 21
69.4673861795709
 31
0.0
  0
LINE
  5
715
  8
1
  6
CONTINUOUS
 62
     7
 10
-103.3726357849832
 20
70.54639008555114
 30
0.0
 11
-103.3726357849832
 21
70.61184689977091
 31
0.0
  0
POLYLINE
  5
716
  8
1
  6
CONTINUOUS
 62
     7
 66
     1
 10
0.0
 20
0.0
 30
0.0
  0
VERTEX
  5
717
  8
1
  6
CONTINUOUS
 62
     7
 10
-157.5949936273304
 20
-30.99848836128484
 30
0.0
  0
VERTEX
  5
718
  8
1
  6
CONTINUOUS
 62
     7
 10
-157.6607949510986
 20
-30.44244994996552
 30
0.0
  0
VERTEX
  5
719
  8
1
  6
CONTINUOUS
 62
     7
 10
-157.8240914949734
 20
-29.91948350564417
 30
0.0
 42
0.0394880169130945
  0
VERTEX
  5
71A
  8
1
  6
CONTINUOUS
 62
     7
 10
-158.0584440631907
 20
-29.47482747887835
 30
0.0
 42
0.0419989766494121
  0
VERTEX
  5
71B
  8
1
  6
CONTINUOUS
 62
     7
 10
-158.3437164949734
 20
-29.09795350564418
 30
0.0
 42
0.0359782169588043
  0
VERTEX
  5
71C
  8
1
  6
CONTINUOUS
 62
     7
 10
-158.6263565957005
 20
-28.82552912141967
 30
0.0
 42
0.0364125351091607
  0
VERTEX
  5
71D
  8
1
  6
CONTINUOUS
 62
     7
 10
-158.9416444949734
 20
-28.59935650564418
 30
0.0
 42
0.0601832751575658
  0
VERTEX
  5
71E
  8
1
  6
CONTINUOUS
 62
     7
 10
-159.5272994431767
 20
-28.33128408358126
 30
0.0
 42
0.05886303394224
  0
VERTEX
  5
71F
  8
1
  6
CONTINUOUS
 62
     7
 10
-160.1737724949734
 20
-28.2059805056442
 30
0.0
 42
0.0422839951740555
  0
VERTEX
  5
720
  8
1
  6
CONTINUOUS
 62
     7
 10
-160.6570262984351
 20
-28.21113024843281
 30
0.0
 42
0.0421139795543962
  0
VERTEX
  5
721
  8
1
  6
CONTINUOUS
 62
     7
 10
-161.1344904949734
 20
-28.29769450564418
 30
0.0
 42
0.065484463459268
  0
VERTEX
  5
722
  8
1
  6
CONTINUOUS
 62
     7
 10
-161.8210204304776
 20
-28.58336353914645
 30
0.0
 42
0.0667117321275364
  0
VERTEX
  5
723
  8
1
  6
CONTINUOUS
 62
     7
 10
-162.3985174949734
 20
-29.03001050564414
 30
0.0
 42
0.0353239819971051
  0
VERTEX
  5
724
  8
1
  6
CONTINUOUS
 62
     7
 10
-162.6500041977478
 20
-29.32340960138033
 30
0.0
 42
0.0348520765236754
  0
VERTEX
  5
725
  8
1
  6
CONTINUOUS
 62
     7
 10
-162.8608554949734
 20
-29.65357550564415
 30
0.0
 42
0.0355415109253133
  0
VERTEX
  5
726
  8
1
  6
CONTINUOUS
 62
     7
 10
-163.0315014045031
 20
-30.0280239443539
 30
0.0
 42
0.0338241129733062
  0
VERTEX
  5
727
  8
1
  6
CONTINUOUS
 62
     7
 10
-163.1546887214266
 20
-30.44244994996552
 30
0.0
  0
VERTEX
  5
728
  8
1
  6
CONTINUOUS
 62
     7
 10
-163.1874171285365
 20
-30.99848836128484
 30
0.0
  0
VERTEX
  5
729
  8
1
  6
CONTINUOUS
 62
     7
 10
-163.1546884949734
 20
-31.55418150564413
 30
0.0
 42
0.038133763331811
  0
VERTEX
  5
72A
  8
1
  6
CONTINUOUS
 62
     7
 10
-163.0008532088876
 20
-32.02922041418725
 30
0.0
 42
0.0402657558136449
  0
VERTEX
  5
72B
  8
1
  6
CONTINUOUS
 62
     7
 10
-162.7867104949734
 20
-32.45089550564418
 30
0.0
 42
0.03449214136241
  0
VERTEX
  5
72C
  8
1
  6
CONTINUOUS
 62
     7
 10
-162.5581738611983
 20
-32.77145990605865
 30
0.0
 42
0.0349546166877329
  0
VERTEX
  5
72D
  8
1
  6
CONTINUOUS
 62
     7
 10
-162.2910414949734
 20
-33.05354350564411
 30
0.0
 42
0.058417884244562
  0
VERTEX
  5
72E
  8
1
  6
CONTINUOUS
 62
     7
 10
-161.7662588337505
 20
-33.43299212026114
 30
0.0
 42
0.057924666603098
  0
VERTEX
  5
72F
  8
1
  6
CONTINUOUS
 62
     7
 10
-161.1631434949734
 20
-33.6834555056442
 30
0.0
 42
0.0423314259244793
  0
VERTEX
  5
730
  8
1
  6
CONTINUOUS
 62
     7
 10
-160.6911852721549
 20
-33.77582768107983
 30
0.0
 42
0.042509703464632
  0
VERTEX
  5
731
  8
1
  6
CONTINUOUS
 62
     7
 10
-160.2126194949734
 20
-33.78717050564416
 30
0.0
 42
0.0666108446966182
  0
VERTEX
  5
732
  8
1
  6
CONTINUOUS
 62
     7
 10
-159.4918328309858
 20
-33.64533562632656
 30
0.0
 42
0.0675623822305574
  0
VERTEX
  5
733
  8
1
  6
CONTINUOUS
 62
     7
 10
-158.8435574949734
 20
-33.32233750564418
 30
0.0
 42
0.0354412691106361
  0
VERTEX
  5
734
  8
1
  6
CONTINUOUS
 62
     7
 10
-158.5418911864099
 20
-33.0843155335944
 30
0.0
 42
0.034641640354882
  0
VERTEX
  5
735
  8
1
  6
CONTINUOUS
 62
     7
 10
-158.2703304949734
 20
-32.80012450564413
 30
0.0
 42
0.0349616657961436
  0
VERTEX
  5
736
  8
1
  6
CONTINUOUS
 62
     7
 10
-158.029288870022
 20
-32.46499200815476
 30
0.0
 42
0.0329583351777147
  0
VERTEX
  5
737
  8
1
  6
CONTINUOUS
 62
     7
 10
-157.8240924770995
 20
-32.07818128636217
 30
0.0
  0
VERTEX
  5
738
  8
1
  6
CONTINUOUS
 62
     7
 10
-157.6607949510986
 20
-31.55418226305562
 30
0.0
  0
VERTEX
  5
739
  8
1
  6
CONTINUOUS
 62
     7
 10
-157.5949936273304
 20
-30.99848836128484
 30
0.0
  0
SEQEND
  5
73A
  8
1
  6
CONTINUOUS
 62
     7
  0
LINE
  5
73B
  8
1
  6
CONTINUOUS
 62
     7
 10
-159.8191472726077
 20
-32.24044528371746
 30
0.0
 11
-159.851531170169
 21
-32.20840589570457
 31
0.0
  0
LINE
  5
73C
  8
1
  6
CONTINUOUS
 62
     7
 10
-161.257819147248
 20
-29.78822631731657
 30
0.0
 11
-161.2905475543579
 21
-29.72311401264534
 31
0.0
  0
LINE
  5
73D
  8
1
  6
CONTINUOUS
 62
     7
 10
-161.6178316254566
 20
-29.78822631731657
 30
0.0
 11
-161.0617932141373
 21
-29.46197577486345
 31
0.0
  0
POLYLINE
  5
73E
  8
1
  6
CONTINUOUS
 62
     7
 66
     1
 10
0.0
 20
0.0
 30
0.0
  0
VERTEX
  5
73F
  8
1
  6
CONTINUOUS
 62
     7
 10
-161.0290648070275
 20
-29.62527330086425
 30
0.0
  0
VERTEX
  5
740
  8
1
  6
CONTINUOUS
 62
     7
 10
-161.3232759614677
 20
-29.72311401264534
 30
0.0
  0
VERTEX
  5
741
  8
1
  6
CONTINUOUS
 62
     7
 10
-161.5520303016883
 20
-29.91948445530454
 30
0.0
  0
SEQEND
  5
742
  8
1
  6
CONTINUOUS
 62
     7
  0
LINE
  5
743
  8
1
  6
CONTINUOUS
 62
     7
 10
-161.6178316254566
 20
-29.78822631731657
 30
0.0
 11
-161.0617932141373
 21
-29.46197577486345
 31
0.0
  0
POLYLINE
  5
744
  8
1
  6
CONTINUOUS
 62
     7
 66
     1
 10
0.0
 20
0.0
 30
0.0
  0
VERTEX
  5
745
  8
1
  6
CONTINUOUS
 62
     7
 10
-162.0753403058978
 20
-31.52110934639722
 30
0.0
  0
VERTEX
  5
746
  8
1
  6
CONTINUOUS
 62
     7
 10
-161.7807846419089
 20
-32.07818128636217
 30
0.0
  0
VERTEX
  5
747
  8
1
  6
CONTINUOUS
 62
     7
 10
-160.9312240952463
 20
-31.58759968926256
 30
0.0
  0
SEQEND
  5
748
  8
1
  6
CONTINUOUS
 62
     7
  0
POLYLINE
  5
749
  8
1
  6
CONTINUOUS
 62
     7
 66
     1
 10
0.0
 20
0.0
 30
0.0
  0
VERTEX
  5
74A
  8
1
  6
CONTINUOUS
 62
     7
 10
-159.8191472726077
 20
-30.96541544462644
 30
0.0
  0
VERTEX
  5
74B
  8
1
  6
CONTINUOUS
 62
     7
 10
-159.0016261139579
 20
-30.47448933797835
 30
0.0
  0
VERTEX
  5
74C
  8
1
  6
CONTINUOUS
 62
     7
 10
-159.3282211659596
 20
-29.91948445530454
 30
0.0
  0
VERTEX
  5
74D
  8
1
  6
CONTINUOUS
 62
     7
 10
-160.1460868341579
 20
-30.40937703330712
 30
0.0
  0
VERTEX
  5
74E
  8
1
  6
CONTINUOUS
 62
     7
 10
-160.5712116170377
 20
-30.27915242396466
 30
0.0
  0
SEQEND
  5
74F
  8
1
  6
CONTINUOUS
 62
     7
  0
POLYLINE
  5
750
  8
1
  6
CONTINUOUS
 62
     7
 66
     1
 10
0.0
 20
0.0
 30
0.0
  0
VERTEX
  5
751
  8
1
  6
CONTINUOUS
 62
     7
 10
-162.0753403058978
 20
-31.52110934639722
 30
0.0
  0
VERTEX
  5
752
  8
1
  6
CONTINUOUS
 62
     7
 10
-161.257819147248
 20
-31.03156127794324
 30
0.0
  0
VERTEX
  5
753
  8
1
  6
CONTINUOUS
 62
     7
 10
-161.127250028357
 20
-30.60574747596638
 30
0.0
  0
SEQEND
  5
754
  8
1
  6
CONTINUOUS
 62
     7
  0
POLYLINE
  5
755
  8
1
  6
CONTINUOUS
 62
     7
 66
     1
 10
0.0
 20
0.0
 30
0.0
  0
VERTEX
  5
756
  8
1
  6
CONTINUOUS
 62
     7
 10
-159.1649236399587
 20
-30.50756225463675
 30
0.0
  0
VERTEX
  5
757
  8
1
  6
CONTINUOUS
 62
     7
 10
-159.2631088612883
 20
-30.24607950730626
 30
0.0
  0
VERTEX
  5
758
  8
1
  6
CONTINUOUS
 62
     7
 10
-159.4591347943991
 20
-30.01663614798866
 30
0.0
  0
SEQEND
  5
759
  8
1
  6
CONTINUOUS
 62
     7
  0
POLYLINE
  5
75A
  8
1
  6
CONTINUOUS
 62
     7
 66
     1
 10
0.0
 20
0.0
 30
0.0
  0
VERTEX
  5
75B
  8
1
  6
CONTINUOUS
 62
     7
 10
-161.912042779897
 20
-31.48941446793299
 30
0.0
  0
VERTEX
  5
75C
  8
1
  6
CONTINUOUS
 62
     7
 10
-161.8138575585673
 20
-31.78259209372777
 30
0.0
  0
VERTEX
  5
75D
  8
1
  6
CONTINUOUS
 62
     7
 10
-161.6505600325665
 20
-32.01203545304537
 30
0.0
  0
SEQEND
  5
75E
  8
1
  6
CONTINUOUS
 62
     7
  0
POLYLINE
  5
75F
  8
1
  6
CONTINUOUS
 62
     7
 66
     1
 10
0.0
 20
0.0
 30
0.0
  0
VERTEX
  5
760
  8
1
  6
CONTINUOUS
 62
     7
 10
-159.9169879843888
 20
-30.90030313995527
 30
0.0
  0
VERTEX
  5
761
  8
1
  6
CONTINUOUS
 62
     7
 10
-160.0151732057184
 20
-30.70393269729595
 30
0.0
  0
VERTEX
  5
762
  8
1
  6
CONTINUOUS
 62
     7
 10
-160.1460868341579
 20
-30.50756225463675
 30
0.0
  0
SEQEND
  5
763
  8
1
  6
CONTINUOUS
 62
     7
  0
POLYLINE
  5
764
  8
1
  6
CONTINUOUS
 62
     7
 66
     1
 10
0.0
 20
0.0
 30
0.0
  0
VERTEX
  5
765
  8
1
  6
CONTINUOUS
 62
     7
 10
-161.1599784354669
 20
-31.09667358261447
 30
0.0
  0
VERTEX
  5
766
  8
1
  6
CONTINUOUS
 62
     7
 10
-161.0941771116986
 20
-31.32473890373808
 30
0.0
  0
VERTEX
  5
767
  8
1
  6
CONTINUOUS
 62
     7
 10
-160.9312240952463
 20
-31.48941446793299
 30
0.0
  0
SEQEND
  5
768
  8
1
  6
CONTINUOUS
 62
     7
  0
LINE
  5
769
  8
1
  6
CONTINUOUS
 62
     7
 10
-159.0016261139579
 20
-30.47448933797835
 30
0.0
 11
-159.3282211659596
 21
-29.91948445530454
 31
0.0
  0
LINE
  5
76A
  8
1
  6
CONTINUOUS
 62
     7
 10
-162.0753403058978
 20
-31.52110934639722
 30
0.0
 11
-161.7807846419089
 21
-32.07818128636217
 31
0.0
  0
POLYLINE
  5
76B
  8
1
  6
CONTINUOUS
 62
     7
 66
     1
 10
0.0
 20
0.0
 30
0.0
  0
VERTEX
  5
76C
  8
1
  6
CONTINUOUS
 62
     7
 10
-159.3936779801793
 20
-30.70393269729595
 30
0.0
  0
VERTEX
  5
76D
  8
1
  6
CONTINUOUS
 62
     7
 10
-159.9169879843888
 20
-30.90030313995527
 30
0.0
  0
VERTEX
  5
76E
  8
1
  6
CONTINUOUS
 62
     7
 10
-160.0806300199381
 20
-31.12974649927287
 30
0.0
  0
SEQEND
  5
76F
  8
1
  6
CONTINUOUS
 62
     7
  0
POLYLINE
  5
770
  8
1
  6
CONTINUOUS
 62
     7
 66
     1
 10
0.0
 20
0.0
 30
0.0
  0
VERTEX
  5
771
  8
1
  6
CONTINUOUS
 62
     7
 10
-159.9497163914987
 20
-31.16178588728565
 30
0.0
  0
VERTEX
  5
772
  8
1
  6
CONTINUOUS
 62
     7
 10
-159.8191472726077
 20
-30.96541544462644
 30
0.0
  0
VERTEX
  5
773
  8
1
  6
CONTINUOUS
 62
     7
 10
-159.9169879843888
 20
-30.90030313995527
 30
0.0
  0
SEQEND
  5
774
  8
1
  6
CONTINUOUS
 62
     7
  0
LINE
  5
775
  8
1
  6
CONTINUOUS
 62
     7
 10
-160.4402979885982
 20
-31.61929456772685
 30
0.0
 11
-160.6693968383673
 21
-31.48941446793299
 31
0.0
  0
LINE
  5
776
  8
1
  6
CONTINUOUS
 62
     7
 10
-160.9312240952463
 20
-31.58759968926256
 30
0.0
 11
-160.7021252454772
 21
-31.58759968926256
 31
0.0
  0
LINE
  5
777
  8
1
  6
CONTINUOUS
 62
     7
 10
-159.8191472726077
 20
-30.96541544462644
 30
0.0
 11
-159.9497163914987
 21
-31.16178588728565
 31
0.0
  0
LINE
  5
778
  8
1
  6
CONTINUOUS
 62
     7
 10
-160.0479016128282
 20
-31.38985120840925
 30
0.0
 11
-160.0806300199381
 21
-31.12974649927287
 31
0.0
  0
LINE
  5
779
  8
1
  6
CONTINUOUS
 62
     7
 10
-160.9312240952463
 20
-31.48941446793299
 30
0.0
 11
-160.6693968383673
 21
-31.48941446793299
 31
0.0
  0
POLYLINE
  5
77A
  8
1
  6
CONTINUOUS
 62
     7
 66
     1
 10
0.0
 20
0.0
 30
0.0
  0
VERTEX
  5
77B
  8
1
  6
CONTINUOUS
 62
     7
 10
-160.7021252454772
 20
-31.58759968926256
 30
0.0
  0
VERTEX
  5
77C
  8
1
  6
CONTINUOUS
 62
     7
 10
-160.9312240952463
 20
-31.58759968926256
 30
0.0
  0
VERTEX
  5
77D
  8
1
  6
CONTINUOUS
 62
     7
 10
-160.9312240952463
 20
-31.48941446793299
 30
0.0
  0
VERTEX
  5
77E
  8
1
  6
CONTINUOUS
 62
     7
 10
-161.3560043685776
 20
-31.84873792704457
 30
0.0
  0
SEQEND
  5
77F
  8
1
  6
CONTINUOUS
 62
     7
  0
LINE
  5
780
  8
1
  6
CONTINUOUS
 62
     7
 10
-159.8191472726077
 20
-30.96541544462644
 30
0.0
 11
-159.0016261139579
 21
-30.47448933797835
 31
0.0
  0
LINE
  5
781
  8
1
  6
CONTINUOUS
 62
     7
 10
-161.7811291514574
 20
-32.07818128636217
 30
0.0
 11
-160.9312240952463
 21
-31.58759968926256
 31
0.0
  0
LINE
  5
782
  8
1
  6
CONTINUOUS
 62
     7
 10
-160.6366684312575
 20
-30.37733764529423
 30
0.0
 11
-160.4075695814884
 21
-30.54063517129515
 31
0.0
  0
POLYLINE
  5
783
  8
1
  6
CONTINUOUS
 62
     7
 66
     1
 10
0.0
 20
0.0
 30
0.0
  0
VERTEX
  5
784
  8
1
  6
CONTINUOUS
 62
     7
 10
-160.5712116170377
 20
-30.27915242396466
 30
0.0
  0
VERTEX
  5
785
  8
1
  6
CONTINUOUS
 62
     7
 10
-160.375185683927
 20
-30.40937703330712
 30
0.0
  0
VERTEX
  5
786
  8
1
  6
CONTINUOUS
 62
     7
 10
-160.1460868341579
 20
-30.40937703330712
 30
0.0
  0
SEQEND
  5
787
  8
1
  6
CONTINUOUS
 62
     7
  0
LINE
  5
788
  8
1
  6
CONTINUOUS
 62
     7
 10
-160.5712116170377
 20
-30.27915242396466
 30
0.0
 11
-160.6366684312575
 21
-30.37733764529423
 31
0.0
  0
LINE
  5
789
  8
1
  6
CONTINUOUS
 62
     7
 10
-161.127250028357
 20
-30.60574747596638
 30
0.0
 11
-161.0290648070275
 21
-30.60574747596638
 31
0.0
  0
POLYLINE
  5
78A
  8
1
  6
CONTINUOUS
 62
     7
 66
     1
 10
0.0
 20
0.0
 30
0.0
  0
VERTEX
  5
78B
  8
1
  6
CONTINUOUS
 62
     7
 10
-161.2581636567966
 20
-31.03156127794324
 30
0.0
  0
VERTEX
  5
78C
  8
1
  6
CONTINUOUS
 62
     7
 10
-161.127250028357
 20
-30.83519083528404
 30
0.0
  0
VERTEX
  5
78D
  8
1
  6
CONTINUOUS
 62
     7
 10
-161.127250028357
 20
-30.60574747596638
 30
0.0
  0
SEQEND
  5
78E
  8
1
  6
CONTINUOUS
 62
     7
  0
LINE
  5
78F
  8
1
  6
CONTINUOUS
 62
     7
 10
-161.0290648070275
 20
-30.60574747596638
 30
0.0
 11
-161.0290648070275
 21
-30.86723022329687
 31
0.0
  0
POLYLINE
  5
790
  8
1
  6
CONTINUOUS
 62
     7
 66
     1
 10
0.0
 20
0.0
 30
0.0
  0
VERTEX
  5
791
  8
1
  6
CONTINUOUS
 62
     7
 10
-160.6366684312575
 20
-30.37733764529423
 30
0.0
  0
VERTEX
  5
792
  8
1
  6
CONTINUOUS
 62
     7
 10
-160.8654227714781
 20
-30.47448933797835
 30
0.0
  0
VERTEX
  5
793
  8
1
  6
CONTINUOUS
 62
     7
 10
-161.0290648070275
 20
-30.60574747596638
 30
0.0
  0
SEQEND
  5
794
  8
1
  6
CONTINUOUS
 62
     7
  0
POLYLINE
  5
795
  8
1
  6
CONTINUOUS
 62
     7
 66
     1
 10
0.0
 20
0.0
 30
0.0
  0
VERTEX
  5
796
  8
1
  6
CONTINUOUS
 62
     7
 10
-159.7209620512781
 20
-30.14789428597669
 30
0.0
  0
VERTEX
  5
797
  8
1
  6
CONTINUOUS
 62
     7
 10
-160.1460868341579
 20
-30.50756225463675
 30
0.0
  0
VERTEX
  5
798
  8
1
  6
CONTINUOUS
 62
     7
 10
-160.1460868341579
 20
-30.40937703330712
 30
0.0
  0
SEQEND
  5
799
  8
1
  6
CONTINUOUS
 62
     7
  0
POLYLINE
  5
79A
  8
1
  6
CONTINUOUS
 62
     7
 66
     1
 10
0.0
 20
0.0
 30
0.0
  0
VERTEX
  5
79B
  8
1
  6
CONTINUOUS
 62
     7
 10
-160.5712116170377
 20
-30.27915242396466
 30
0.0
  0
VERTEX
  5
79C
  8
1
  6
CONTINUOUS
 62
     7
 10
-160.375185683927
 20
-30.40937703330712
 30
0.0
  0
VERTEX
  5
79D
  8
1
  6
CONTINUOUS
 62
     7
 10
-160.1460868341579
 20
-30.40937703330712
 30
0.0
  0
SEQEND
  5
79E
  8
1
  6
CONTINUOUS
 62
     7
  0
LINE
  5
79F
  8
1
  6
CONTINUOUS
 62
     7
 10
-160.1460868341579
 20
-30.50756225463675
 30
0.0
 11
-160.4075695814884
 21
-30.54063517129515
 31
0.0
  0
LINE
  5
7A0
  8
1
  6
CONTINUOUS
 62
     7
 10
-161.2581636567966
 20
-31.03156127794324
 30
0.0
 11
-161.1599784354669
 21
-31.09667358261447
 31
0.0
  0
POLYLINE
  5
7A1
  8
1
  6
CONTINUOUS
 62
     7
 66
     1
 10
0.0
 20
0.0
 30
0.0
  0
VERTEX
  5
7A2
  8
1
  6
CONTINUOUS
 62
     7
 10
-161.127250028357
 20
-30.60574747596638
 30
0.0
  0
VERTEX
  5
7A3
  8
1
  6
CONTINUOUS
 62
     7
 10
-161.127250028357
 20
-30.83519083528404
 30
0.0
  0
VERTEX
  5
7A4
  8
1
  6
CONTINUOUS
 62
     7
 10
-161.2581636567966
 20
-31.03156127794324
 30
0.0
  0
SEQEND
  5
7A5
  8
1
  6
CONTINUOUS
 62
     7
  0
POLYLINE
  5
7A6
  8
1
  6
CONTINUOUS
 62
     7
 66
     1
 10
0.0
 20
0.0
 30
0.0
  0
VERTEX
  5
7A7
  8
1
  6
CONTINUOUS
 62
     7
 10
-161.0290648070275
 20
-30.86723022329687
 30
0.0
  0
VERTEX
  5
7A8
  8
1
  6
CONTINUOUS
 62
     7
 10
-161.1599784354669
 20
-31.09667358261447
 30
0.0
  0
VERTEX
  5
7A9
  8
1
  6
CONTINUOUS
 62
     7
 10
-161.6829439301279
 20
-31.29304402527367
 30
0.0
  0
SEQEND
  5
7AA
  8
1
  6
CONTINUOUS
 62
     7
  0
LINE
  5
7AB
  8
1
  6
CONTINUOUS
 62
     7
 10
-162.0756848154463
 20
-31.52110934639722
 30
0.0
 11
-161.2581636567966
 21
-31.03156127794324
 31
0.0
  0
LINE
  5
7AC
  8
1
  6
CONTINUOUS
 62
     7
 10
-159.3285656755081
 20
-29.91948445530454
 30
0.0
 11
-160.1460868341579
 21
-30.40937703330712
 31
0.0
  0
LINE
  5
7AD
  8
1
  6
CONTINUOUS
 62
     7
 10
-161.0621377236859
 20
-29.46197577486345
 30
0.0
 11
-160.5712116170377
 21
-30.27915242396466
 31
0.0
  0
POLYLINE
  5
7AE
  8
1
  6
CONTINUOUS
 62
     7
 66
     1
 10
0.0
 20
0.0
 30
0.0
  0
VERTEX
  5
7AF
  8
1
  6
CONTINUOUS
 62
     7
 10
-161.127250028357
 20
-30.60574747596638
 30
0.0
  0
VERTEX
  5
7B0
  8
1
  6
CONTINUOUS
 62
     7
 10
-161.6178316254566
 20
-29.78822631731657
 30
0.0
  0
VERTEX
  5
7B1
  8
1
  6
CONTINUOUS
 62
     7
 10
-161.127250028357
 20
-30.60574747596638
 30
0.0
  0
SEQEND
  5
7B2
  8
1
  6
CONTINUOUS
 62
     7
  0
LINE
  5
7B3
  8
1
  6
CONTINUOUS
 62
     7
 10
-161.0621377236859
 20
-29.46197577486345
 30
0.0
 11
-160.5712116170377
 21
-30.27915242396466
 31
0.0
  0
LINE
  5
7B4
  8
1
  6
CONTINUOUS
 62
     7
 10
-160.8330388739167
 20
-29.85471666018185
 30
0.0
 11
-160.6366684312575
 21
-30.37733764529423
 31
0.0
  0
LINE
  5
7B5
  8
1
  6
CONTINUOUS
 62
     7
 10
-161.3887327756875
 20
-30.18096720263509
 30
0.0
 11
-161.0290648070275
 21
-30.60574747596638
 31
0.0
  0
POLYLINE
  5
7B6
  8
1
  6
CONTINUOUS
 62
     7
 66
     1
 10
0.0
 20
0.0
 30
0.0
  0
VERTEX
  5
7B7
  8
1
  6
CONTINUOUS
 62
     7
 10
-159.4591347943991
 20
-32.24044528371746
 30
0.0
  0
VERTEX
  5
7B8
  8
1
  6
CONTINUOUS
 62
     7
 10
-160.0151732057184
 20
-32.53603447635186
 30
0.0
  0
VERTEX
  5
7B9
  8
1
  6
CONTINUOUS
 62
     7
 10
-160.5060993123665
 20
-31.71885782725053
 30
0.0
  0
SEQEND
  5
7BA
  8
1
  6
CONTINUOUS
 62
     7
  0
LINE
  5
7BB
  8
1
  6
CONTINUOUS
 62
     7
 10
-159.9497163914987
 20
-31.38985120840925
 30
0.0
 11
-159.4591347943991
 21
-32.24044528371746
 31
0.0
  0
POLYLINE
  5
7BC
  8
1
  6
CONTINUOUS
 62
     7
 66
     1
 10
0.0
 20
0.0
 30
0.0
  0
VERTEX
  5
7BD
  8
1
  6
CONTINUOUS
 62
     7
 10
-160.0479016128282
 20
-32.37170342170543
 30
0.0
  0
VERTEX
  5
7BE
  8
1
  6
CONTINUOUS
 62
     7
 10
-159.7864188654978
 20
-32.27351820037575
 30
0.0
  0
VERTEX
  5
7BF
  8
1
  6
CONTINUOUS
 62
     7
 10
-159.5573200157287
 20
-32.11022067437494
 30
0.0
  0
SEQEND
  5
7C0
  8
1
  6
CONTINUOUS
 62
     7
  0
LINE
  5
7C1
  8
1
  6
CONTINUOUS
 62
     7
 10
-159.9497163914987
 20
-31.38985120840925
 30
0.0
 11
-159.4591347943991
 21
-32.24044528371746
 31
0.0
  0
POLYLINE
  5
7C2
  8
1
  6
CONTINUOUS
 62
     7
 66
     1
 10
0.0
 20
0.0
 30
0.0
  0
VERTEX
  5
7C3
  8
1
  6
CONTINUOUS
 62
     7
 10
-160.5060993123665
 20
-31.71885782725053
 30
0.0
  0
VERTEX
  5
7C4
  8
1
  6
CONTINUOUS
 62
     7
 10
-160.0155177152669
 20
-32.53603447635186
 30
0.0
  0
VERTEX
  5
7C5
  8
1
  6
CONTINUOUS
 62
     7
 10
-159.4591347943991
 20
-32.24044528371746
 30
0.0
  0
SEQEND
  5
7C6
  8
1
  6
CONTINUOUS
 62
     7
  0
LINE
  5
7C7
  8
1
  6
CONTINUOUS
 62
     7
 10
-160.9312240952463
 20
-31.58759968926256
 30
0.0
 11
-160.5060993123665
 21
-31.71885782725053
 31
0.0
  0
POLYLINE
  5
7C8
  8
1
  6
CONTINUOUS
 62
     7
 66
     1
 10
0.0
 20
0.0
 30
0.0
  0
VERTEX
  5
7C9
  8
1
  6
CONTINUOUS
 62
     7
 10
-159.8191472726077
 20
-30.96541544462644
 30
0.0
  0
VERTEX
  5
7CA
  8
1
  6
CONTINUOUS
 62
     7
 10
-159.9497163914987
 20
-31.38985120840925
 30
0.0
  0
VERTEX
  5
7CB
  8
1
  6
CONTINUOUS
 62
     7
 10
-159.9497163914987
 20
-31.16178588728565
 30
0.0
  0
SEQEND
  5
7CC
  8
1
  6
CONTINUOUS
 62
     7
  0
LINE
  5
7CD
  8
1
  6
CONTINUOUS
 62
     7
 10
-160.2442720554875
 20
-32.14329359103334
 30
0.0
 11
-160.4402979885982
 21
-31.61929456772685
 31
0.0
  0
POLYLINE
  5
7CE
  8
1
  6
CONTINUOUS
 62
     7
 66
     1
 10
0.0
 20
0.0
 30
0.0
  0
VERTEX
  5
7CF
  8
1
  6
CONTINUOUS
 62
     7
 10
-160.7021252454772
 20
-31.58759968926256
 30
0.0
  0
VERTEX
  5
7D0
  8
1
  6
CONTINUOUS
 62
     7
 10
-160.5060993123665
 20
-31.71885782725053
 30
0.0
  0
VERTEX
  5
7D1
  8
1
  6
CONTINUOUS
 62
     7
 10
-160.4402979885982
 20
-31.61929456772685
 30
0.0
  0
SEQEND
  5
7D2
  8
1
  6
CONTINUOUS
 62
     7
  0
LINE
  5
7D3
  8
1
  6
CONTINUOUS
 62
     7
 10
-159.9497163914987
 20
-31.38985120840925
 30
0.0
 11
-159.8191472726077
 21
-30.96541544462644
 31
0.0
  0
POLYLINE
  5
7D4
  8
1
  6
CONTINUOUS
 62
     7
 66
     1
 10
0.0
 20
0.0
 30
0.0
  0
VERTEX
  5
7D5
  8
1
  6
CONTINUOUS
 62
     7
 10
-159.7209620512781
 20
-31.81566501038617
 30
0.0
  0
VERTEX
  5
7D6
  8
1
  6
CONTINUOUS
 62
     7
 10
-160.0482461223768
 20
-31.38985120840925
 30
0.0
  0
VERTEX
  5
7D7
  8
1
  6
CONTINUOUS
 62
     7
 10
-159.9497163914987
 20
-31.38985120840925
 30
0.0
  0
VERTEX
  5
7D8
  8
1
  6
CONTINUOUS
 62
     7
 10
-159.9497163914987
 20
-31.16178588728565
 30
0.0
  0
SEQEND
  5
7D9
  8
1
  6
CONTINUOUS
 62
     7
  0
POLYLINE
  5
7DA
  8
1
  6
CONTINUOUS
 62
     7
 66
     1
 10
0.0
 20
0.0
 30
0.0
  0
VERTEX
  5
7DB
  8
1
  6
CONTINUOUS
 62
     7
 10
-160.4402979885982
 20
-31.61929456772685
 30
0.0
  0
VERTEX
  5
7DC
  8
1
  6
CONTINUOUS
 62
     7
 10
-160.2442720554875
 20
-31.55418226305562
 30
0.0
  0
VERTEX
  5
7DD
  8
1
  6
CONTINUOUS
 62
     7
 10
-160.0482461223768
 20
-31.38985120840925
 30
0.0
  0
SEQEND
  5
7DE
  8
1
  6
CONTINUOUS
 62
     7
  0
LINE
  5
7DF
  8
1
  6
CONTINUOUS
 62
     7
 10
-160.5060993123665
 20
-31.71885782725053
 30
0.0
 11
-160.7021252454772
 21
-31.58759968926256
 31
0.0
  0
LINE
  5
7E0
  8
1
  6
CONTINUOUS
 62
     7
 10
-159.9497163914987
 20
-31.38985120840925
 30
0.0
 11
-159.8191472726077
 21
-30.96541544462644
 31
0.0
  0
LINE
  5
7E1
  8
1
  6
CONTINUOUS
 62
     7
 10
-159.2954927588497
 20
-30.31222534062306
 30
0.0
 11
-159.3609495730694
 21
-30.34426472863584
 31
0.0
  0
LINE
  5
7E2
  8
1
  6
CONTINUOUS
 62
     7
 10
-161.7807846419089
 20
-31.75055270571488
 30
0.0
 11
-161.8465859656772
 21
-31.78259209372777
 31
0.0
  0
LINE
  5
7E3
  8
1
  6
CONTINUOUS
 62
     7
 10
-162.7619478361081
 20
-32.30659111703426
 30
0.0
 11
-162.8274046503278
 21
-32.33863050504704
 31
0.0
  0
POLYLINE
  5
7E4
  8
1
  6
CONTINUOUS
 62
     7
 66
     1
 10
0.0
 20
0.0
 30
0.0
  0
VERTEX
  5
7E5
  8
1
  6
CONTINUOUS
 62
     7
 10
-43.5251260343201
 20
-30.93199801841956
 30
0.0
  0
VERTEX
  5
7E6
  8
1
  6
CONTINUOUS
 62
     7
 10
-43.5578544414299
 20
-30.37733764529423
 30
0.0
  0
VERTEX
  5
7E7
  8
1
  6
CONTINUOUS
 62
     7
 10
-43.72149649497339
 20
-29.85471650564415
 30
0.0
 42
0.0403760556491525
  0
VERTEX
  5
7E8
  8
1
  6
CONTINUOUS
 62
     7
 10
-43.95257658262499
 20
-29.41715482053109
 30
0.0
 42
0.0423856928129417
  0
VERTEX
  5
7E9
  8
1
  6
CONTINUOUS
 62
     7
 10
-44.23835149497341
 20
-29.04225650564416
 30
0.0
 42
0.0358760688746629
  0
VERTEX
  5
7EA
  8
1
  6
CONTINUOUS
 62
     7
 10
-44.52138759576074
 20
-28.77159957005845
 30
0.0
 42
0.035961899313313
  0
VERTEX
  5
7EB
  8
1
  6
CONTINUOUS
 62
     7
 10
-44.83945549497338
 20
-28.54480150564416
 30
0.0
 42
0.0590331326835872
  0
VERTEX
  5
7EC
  8
1
  6
CONTINUOUS
 62
     7
 10
-45.430542140973
 20
-28.27399503992314
 30
0.0
 42
0.0576384552566648
  0
VERTEX
  5
7ED
  8
1
  6
CONTINUOUS
 62
     7
 10
-46.08353149497339
 20
-28.14398350564417
 30
0.0
 42
0.0418004022616212
  0
VERTEX
  5
7EE
  8
1
  6
CONTINUOUS
 62
     7
 10
-46.57321215313505
 20
-28.14504566602619
 30
0.0
 42
0.0420317928924523
  0
VERTEX
  5
7EF
  8
1
  6
CONTINUOUS
 62
     7
 10
-47.05316149497338
 20
-28.22730150564417
 30
0.0
 42
0.0666748189894016
  0
VERTEX
  5
7F0
  8
1
  6
CONTINUOUS
 62
     7
 10
-47.74667351259524
 20
-28.50986522821768
 30
0.0
 42
0.0689692003060877
  0
VERTEX
  5
7F1
  8
1
  6
CONTINUOUS
 62
     7
 10
-48.31975249497338
 20
-28.95259550564413
 30
0.0
 42
0.0368813921500486
  0
VERTEX
  5
7F2
  8
1
  6
CONTINUOUS
 62
     7
 10
-48.56840970173268
 20
-29.24687196795896
 30
0.0
 42
0.0363463324347542
  0
VERTEX
  5
7F3
  8
1
  6
CONTINUOUS
 62
     7
 10
-48.7744184949734
 20
-29.57900650564414
 30
0.0
 42
0.0369630480505761
  0
VERTEX
  5
7F4
  8
1
  6
CONTINUOUS
 62
     7
 10
-48.93790965125067
 20
-29.95658516379922
 30
0.0
 42
0.0348821482985059
  0
VERTEX
  5
7F5
  8
1
  6
CONTINUOUS
 62
     7
 10
-49.05209272130639
 20
-30.37733764529423
 30
0.0
  0
VERTEX
  5
7F6
  8
1
  6
CONTINUOUS
 62
     7
 10
-49.1172050259776
 20
-30.93199801841956
 30
0.0
  0
VERTEX
  5
7F7
  8
1
  6
CONTINUOUS
 62
     7
 10
-49.05209349497339
 20
-31.45599650564418
 30
0.0
 42
0.0394803797241039
  0
VERTEX
  5
7F8
  8
1
  6
CONTINUOUS
 62
     7
 10
-48.91090452077277
 20
-31.94400649549761
 30
0.0
 42
0.0421106271498298
  0
VERTEX
  5
7F9
  8
1
  6
CONTINUOUS
 62
     7
 10
-48.7059604949734
 20
-32.37405850564414
 30
0.0
 42
0.0361525171431983
  0
VERTEX
  5
7FA
  8
1
  6
CONTINUOUS
 62
     7
 10
-48.48228017218183
 20
-32.70019834712708
 30
0.0
 42
0.0366595892354363
  0
VERTEX
  5
7FB
  8
1
  6
CONTINUOUS
 62
     7
 10
-48.21734949497342
 20
-32.98645850564414
 30
0.0
 42
0.060691825683187
  0
VERTEX
  5
7FC
  8
1
  6
CONTINUOUS
 62
     7
 10
-47.69436667668548
 20
-33.36741667902729
 30
0.0
 42
0.0594499174213561
  0
VERTEX
  5
7FD
  8
1
  6
CONTINUOUS
 62
     7
 10
-47.08338749497341
 20
-33.61824850564413
 30
0.0
 42
0.0427040769561776
  0
VERTEX
  5
7FE
  8
1
  6
CONTINUOUS
 62
     7
 10
-46.6071317277765
 20
-33.70759257746769
 30
0.0
 42
0.0425335848845809
  0
VERTEX
  5
7FF
  8
1
  6
CONTINUOUS
 62
     7
 10
-46.12048749497339
 20
-33.71492650564417
 30
0.0
 42
0.0660880474120435
  0
VERTEX
  5
800
  8
1
  6
CONTINUOUS
 62
     7
 10
-45.38988710754613
 20
-33.56535694375643
 30
0.0
 42
0.067202277729075
  0
VERTEX
  5
801
  8
1
  6
CONTINUOUS
 62
     7
 10
-44.73531249497341
 20
-33.23440350564414
 30
0.0
 42
0.0355287429169461
  0
VERTEX
  5
802
  8
1
  6
CONTINUOUS
 62
     7
 10
-44.43161010378302
 20
-32.99213453047639
 30
0.0
 42
0.0349903463563443
  0
VERTEX
  5
803
  8
1
  6
CONTINUOUS
 62
     7
 10
-44.1608664949734
 20
-32.70525450564417
 30
0.0
 42
0.0356307847074601
  0
VERTEX
  5
804
  8
1
  6
CONTINUOUS
 62
     7
 10
-43.92160346150099
 20
-32.3667446109423
 30
0.0
 42
0.033844580824824
  0
VERTEX
  5
805
  8
1
  6
CONTINUOUS
 62
     7
 10
-43.7214964769793
 20
-31.97896253638697
 30
0.0
  0
VERTEX
  5
806
  8
1
  6
CONTINUOUS
 62
     7
 10
-43.5578544414299
 20
-31.45599704172605
 30
0.0
  0
VERTEX
  5
807
  8
1
  6
CONTINUOUS
 62
     7
 10
-43.5251260343201
 20
-30.93199801841956
 30
0.0
  0
SEQEND
  5
808
  8
1
  6
CONTINUOUS
 62
     7
  0
LINE
  5
809
  8
1
  6
CONTINUOUS
 62
     7
 10
-45.51983632027969
 20
-29.78822631731657
 30
0.0
 11
-45.55290923693809
 21
-29.85471666018185
 31
0.0
  0
LINE
  5
80A
  8
1
  6
CONTINUOUS
 62
     7
 10
-46.95919721401708
 20
-32.27351820037575
 30
0.0
 11
-46.99158111157851
 21
-32.30659111703426
 31
0.0
  0
LINE
  5
80B
  8
1
  6
CONTINUOUS
 62
     7
 10
-46.76282677135788
 20
-32.56807386436464
 30
0.0
 11
-47.31852067312872
 21
-32.27351820037575
 31
0.0
  0
POLYLINE
  5
80C
  8
1
  6
CONTINUOUS
 62
     7
 66
     1
 10
0.0
 20
0.0
 30
0.0
  0
VERTEX
  5
80D
  8
1
  6
CONTINUOUS
 62
     7
 10
-47.18795155423771
 20
-32.17636650769174
 30
0.0
  0
VERTEX
  5
80E
  8
1
  6
CONTINUOUS
 62
     7
 10
-46.95919721401708
 20
-32.33863050504704
 30
0.0
  0
VERTEX
  5
80F
  8
1
  6
CONTINUOUS
 62
     7
 10
-46.69736995713811
 20
-32.43681572637666
 30
0.0
  0
SEQEND
  5
810
  8
1
  6
CONTINUOUS
 62
     7
  0
LINE
  5
811
  8
1
  6
CONTINUOUS
 62
     7
 10
-46.76282677135788
 20
-32.56807386436464
 30
0.0
 11
-47.31852067312872
 21
-32.27351820037575
 31
0.0
  0
POLYLINE
  5
812
  8
1
  6
CONTINUOUS
 62
     7
 66
     1
 10
0.0
 20
0.0
 30
0.0
  0
VERTEX
  5
813
  8
1
  6
CONTINUOUS
 62
     7
 10
-45.02925472318009
 20
-32.11022067437494
 30
0.0
  0
VERTEX
  5
814
  8
1
  6
CONTINUOUS
 62
     7
 10
-44.70231516162988
 20
-31.55418226305562
 30
0.0
  0
VERTEX
  5
815
  8
1
  6
CONTINUOUS
 62
     7
 10
-45.51983632027969
 20
-31.09667358261447
 30
0.0
  0
SEQEND
  5
816
  8
1
  6
CONTINUOUS
 62
     7
  0
POLYLINE
  5
817
  8
1
  6
CONTINUOUS
 62
     7
 66
     1
 10
0.0
 20
0.0
 30
0.0
  0
VERTEX
  5
818
  8
1
  6
CONTINUOUS
 62
     7
 10
-46.63191314291839
 20
-30.44244994996552
 30
0.0
  0
VERTEX
  5
819
  8
1
  6
CONTINUOUS
 62
     7
 10
-47.4494343015682
 20
-29.95152384331743
 30
0.0
  0
VERTEX
  5
81A
  8
1
  6
CONTINUOUS
 62
     7
 10
-47.77671837266689
 20
-30.50756225463675
 30
0.0
  0
VERTEX
  5
81B
  8
1
  6
CONTINUOUS
 62
     7
 10
-46.95919721401708
 20
-30.99848836128484
 30
0.0
  0
VERTEX
  5
81C
  8
1
  6
CONTINUOUS
 62
     7
 10
-46.82828358557759
 20
-31.42292412506765
 30
0.0
  0
SEQEND
  5
81D
  8
1
  6
CONTINUOUS
 62
     7
  0
POLYLINE
  5
81E
  8
1
  6
CONTINUOUS
 62
     7
 66
     1
 10
0.0
 20
0.0
 30
0.0
  0
VERTEX
  5
81F
  8
1
  6
CONTINUOUS
 62
     7
 10
-45.02925472318009
 20
-32.11022067437494
 30
0.0
  0
VERTEX
  5
820
  8
1
  6
CONTINUOUS
 62
     7
 10
-45.8467758818299
 20
-31.61929456772685
 30
0.0
  0
VERTEX
  5
821
  8
1
  6
CONTINUOUS
 62
     7
 10
-46.2722451742583
 20
-31.75055270571488
 30
0.0
  0
SEQEND
  5
822
  8
1
  6
CONTINUOUS
 62
     7
  0
POLYLINE
  5
823
  8
1
  6
CONTINUOUS
 62
     7
 66
     1
 10
0.0
 20
0.0
 30
0.0
  0
VERTEX
  5
824
  8
1
  6
CONTINUOUS
 62
     7
 10
-47.35090457068998
 20
-30.08278198130546
 30
0.0
  0
VERTEX
  5
825
  8
1
  6
CONTINUOUS
 62
     7
 10
-47.54796403244632
 20
-30.31222534062306
 30
0.0
  0
VERTEX
  5
826
  8
1
  6
CONTINUOUS
 62
     7
 10
-47.64580474422741
 20
-30.60574747596638
 30
0.0
  0
SEQEND
  5
827
  8
1
  6
CONTINUOUS
 62
     7
  0
POLYLINE
  5
828
  8
1
  6
CONTINUOUS
 62
     7
 66
     1
 10
0.0
 20
0.0
 30
0.0
  0
VERTEX
  5
829
  8
1
  6
CONTINUOUS
 62
     7
 10
-45.12778445405831
 20
-31.97896253638697
 30
0.0
  0
VERTEX
  5
82A
  8
1
  6
CONTINUOUS
 62
     7
 10
-44.93106950185052
 20
-31.75055270571488
 30
0.0
  0
VERTEX
  5
82B
  8
1
  6
CONTINUOUS
 62
     7
 10
-44.8332287900694
 20
-31.48941446793299
 30
0.0
  0
SEQEND
  5
82C
  8
1
  6
CONTINUOUS
 62
     7
  0
POLYLINE
  5
82D
  8
1
  6
CONTINUOUS
 62
     7
 66
     1
 10
0.0
 20
0.0
 30
0.0
  0
VERTEX
  5
82E
  8
1
  6
CONTINUOUS
 62
     7
 10
-46.63191314291839
 20
-30.54063517129515
 30
0.0
  0
VERTEX
  5
82F
  8
1
  6
CONTINUOUS
 62
     7
 10
-46.7952106689192
 20
-30.73700561395435
 30
0.0
  0
VERTEX
  5
830
  8
1
  6
CONTINUOUS
 62
     7
 10
-46.860667483139
 20
-30.93199801841956
 30
0.0
  0
SEQEND
  5
831
  8
1
  6
CONTINUOUS
 62
     7
  0
POLYLINE
  5
832
  8
1
  6
CONTINUOUS
 62
     7
 66
     1
 10
0.0
 20
0.0
 30
0.0
  0
VERTEX
  5
833
  8
1
  6
CONTINUOUS
 62
     7
 10
-45.8467758818299
 20
-31.52110934639722
 30
0.0
  0
VERTEX
  5
834
  8
1
  6
CONTINUOUS
 62
     7
 10
-45.6834783558291
 20
-31.35815632994496
 30
0.0
  0
VERTEX
  5
835
  8
1
  6
CONTINUOUS
 62
     7
 10
-45.61767703206078
 20
-31.12974649927287
 30
0.0
  0
SEQEND
  5
836
  8
1
  6
CONTINUOUS
 62
     7
  0
LINE
  5
837
  8
1
  6
CONTINUOUS
 62
     7
 10
-47.4494343015682
 20
-29.95152384331743
 30
0.0
 11
-47.77671837266689
 21
-30.50756225463675
 31
0.0
  0
LINE
  5
838
  8
1
  6
CONTINUOUS
 62
     7
 10
-45.02925472318009
 20
-32.11022067437494
 30
0.0
 11
-44.70231516162988
 21
-31.55418226305562
 31
0.0
  0
POLYLINE
  5
839
  8
1
  6
CONTINUOUS
 62
     7
 66
     1
 10
0.0
 20
0.0
 30
0.0
  0
VERTEX
  5
83A
  8
1
  6
CONTINUOUS
 62
     7
 10
-47.05738243534671
 20
-30.21404011929349
 30
0.0
  0
VERTEX
  5
83B
  8
1
  6
CONTINUOUS
 62
     7
 10
-46.63191314291839
 20
-30.54063517129515
 30
0.0
  0
VERTEX
  5
83C
  8
1
  6
CONTINUOUS
 62
     7
 10
-46.37077490513639
 20
-30.57267455930798
 30
0.0
  0
SEQEND
  5
83D
  8
1
  6
CONTINUOUS
 62
     7
  0
POLYLINE
  5
83E
  8
1
  6
CONTINUOUS
 62
     7
 66
     1
 10
0.0
 20
0.0
 30
0.0
  0
VERTEX
  5
83F
  8
1
  6
CONTINUOUS
 62
     7
 10
-46.40281429314928
 20
-30.44244994996552
 30
0.0
  0
VERTEX
  5
840
  8
1
  6
CONTINUOUS
 62
     7
 10
-46.63191314291839
 20
-30.44244994996552
 30
0.0
  0
VERTEX
  5
841
  8
1
  6
CONTINUOUS
 62
     7
 10
-46.63191314291839
 20
-30.54063517129515
 30
0.0
  0
SEQEND
  5
842
  8
1
  6
CONTINUOUS
 62
     7
  0
LINE
  5
843
  8
1
  6
CONTINUOUS
 62
     7
 10
-45.74893517004881
 20
-30.63882039262478
 30
0.0
 11
-45.78200808670721
 21
-30.90030313995527
 31
0.0
  0
LINE
  5
844
  8
1
  6
CONTINUOUS
 62
     7
 10
-45.51983632027969
 20
-31.09667358261447
 30
0.0
 11
-45.65074994871918
 21
-30.86723022329687
 31
0.0
  0
LINE
  5
845
  8
1
  6
CONTINUOUS
 62
     7
 10
-46.63191314291839
 20
-30.44244994996552
 30
0.0
 11
-46.40281429314928
 21
-30.44244994996552
 31
0.0
  0
LINE
  5
846
  8
1
  6
CONTINUOUS
 62
     7
 10
-46.1416760553673
 20
-30.40937703330712
 30
0.0
 11
-46.37077490513639
 21
-30.57267455930798
 31
0.0
  0
LINE
  5
847
  8
1
  6
CONTINUOUS
 62
     7
 10
-45.61767703206078
 20
-31.12974649927287
 30
0.0
 11
-45.78200808670721
 21
-30.90030313995527
 31
0.0
  0
POLYLINE
  5
848
  8
1
  6
CONTINUOUS
 62
     7
 66
     1
 10
0.0
 20
0.0
 30
0.0
  0
VERTEX
  5
849
  8
1
  6
CONTINUOUS
 62
     7
 10
-45.65074994871918
 20
-30.86723022329687
 30
0.0
  0
VERTEX
  5
84A
  8
1
  6
CONTINUOUS
 62
     7
 10
-45.51983632027969
 20
-31.09667358261447
 30
0.0
  0
VERTEX
  5
84B
  8
1
  6
CONTINUOUS
 62
     7
 10
-45.61767703206078
 20
-31.12974649927287
 30
0.0
  0
VERTEX
  5
84C
  8
1
  6
CONTINUOUS
 62
     7
 10
-45.09540055649688
 20
-31.32473890373808
 30
0.0
  0
SEQEND
  5
84D
  8
1
  6
CONTINUOUS
 62
     7
  0
LINE
  5
84E
  8
1
  6
CONTINUOUS
 62
     7
 10
-46.63191314291839
 20
-30.44244994996552
 30
0.0
 11
-47.4494343015682
 21
-29.95152384331743
 31
0.0
  0
LINE
  5
84F
  8
1
  6
CONTINUOUS
 62
     7
 10
-44.70231516162988
 20
-31.55418226305562
 30
0.0
 11
-45.51983632027969
 21
-31.09667358261447
 31
0.0
  0
LINE
  5
850
  8
1
  6
CONTINUOUS
 62
     7
 10
-46.73009836424799
 20
-31.42292412506765
 30
0.0
 11
-46.69736995713811
 21
-31.16178588728565
 31
0.0
  0
POLYLINE
  5
851
  8
1
  6
CONTINUOUS
 62
     7
 66
     1
 10
0.0
 20
0.0
 30
0.0
  0
VERTEX
  5
852
  8
1
  6
CONTINUOUS
 62
     7
 10
-46.82828358557759
 20
-31.42292412506765
 30
0.0
  0
VERTEX
  5
853
  8
1
  6
CONTINUOUS
 62
     7
 10
-46.82828358557759
 20
-31.19485880394404
 30
0.0
  0
VERTEX
  5
854
  8
1
  6
CONTINUOUS
 62
     7
 10
-46.95919721401708
 20
-30.99848836128484
 30
0.0
  0
SEQEND
  5
855
  8
1
  6
CONTINUOUS
 62
     7
  0
LINE
  5
856
  8
1
  6
CONTINUOUS
 62
     7
 10
-46.82828358557759
 20
-31.42292412506765
 30
0.0
 11
-46.73009836424799
 21
-31.42292412506765
 31
0.0
  0
LINE
  5
857
  8
1
  6
CONTINUOUS
 62
     7
 10
-46.2722451742583
 20
-31.75055270571488
 30
0.0
 11
-46.33770198847799
 21
-31.65236748438525
 31
0.0
  0
POLYLINE
  5
858
  8
1
  6
CONTINUOUS
 62
     7
 66
     1
 10
0.0
 20
0.0
 30
0.0
  0
VERTEX
  5
859
  8
1
  6
CONTINUOUS
 62
     7
 10
-45.8467758818299
 20
-31.61929456772685
 30
0.0
  0
VERTEX
  5
85A
  8
1
  6
CONTINUOUS
 62
     7
 10
-46.0755302220505
 20
-31.61929456772685
 30
0.0
  0
VERTEX
  5
85B
  8
1
  6
CONTINUOUS
 62
     7
 10
-46.2722451742583
 20
-31.75055270571488
 30
0.0
  0
SEQEND
  5
85C
  8
1
  6
CONTINUOUS
 62
     7
  0
LINE
  5
85D
  8
1
  6
CONTINUOUS
 62
     7
 10
-46.33770198847799
 20
-31.65236748438525
 30
0.0
 11
-46.1086031387089
 21
-31.52110934639722
 31
0.0
  0
POLYLINE
  5
85E
  8
1
  6
CONTINUOUS
 62
     7
 66
     1
 10
0.0
 20
0.0
 30
0.0
  0
VERTEX
  5
85F
  8
1
  6
CONTINUOUS
 62
     7
 10
-46.73009836424799
 20
-31.42292412506765
 30
0.0
  0
VERTEX
  5
860
  8
1
  6
CONTINUOUS
 62
     7
 10
-46.56645632869859
 20
-31.58759968926256
 30
0.0
  0
VERTEX
  5
861
  8
1
  6
CONTINUOUS
 62
     7
 10
-46.33770198847799
 20
-31.65236748438525
 30
0.0
  0
SEQEND
  5
862
  8
1
  6
CONTINUOUS
 62
     7
  0
POLYLINE
  5
863
  8
1
  6
CONTINUOUS
 62
     7
 66
     1
 10
0.0
 20
0.0
 30
0.0
  0
VERTEX
  5
864
  8
1
  6
CONTINUOUS
 62
     7
 10
-47.38397748734837
 20
-30.73700561395435
 30
0.0
  0
VERTEX
  5
865
  8
1
  6
CONTINUOUS
 62
     7
 10
-46.860667483139
 20
-30.93199801841956
 30
0.0
  0
VERTEX
  5
866
  8
1
  6
CONTINUOUS
 62
     7
 10
-46.95919721401708
 20
-30.99848836128484
 30
0.0
  0
SEQEND
  5
867
  8
1
  6
CONTINUOUS
 62
     7
  0
POLYLINE
  5
868
  8
1
  6
CONTINUOUS
 62
     7
 66
     1
 10
0.0
 20
0.0
 30
0.0
  0
VERTEX
  5
869
  8
1
  6
CONTINUOUS
 62
     7
 10
-46.82828358557759
 20
-31.42292412506765
 30
0.0
  0
VERTEX
  5
86A
  8
1
  6
CONTINUOUS
 62
     7
 10
-46.82828358557759
 20
-31.19485880394404
 30
0.0
  0
VERTEX
  5
86B
  8
1
  6
CONTINUOUS
 62
     7
 10
-46.95919721401708
 20
-30.99848836128484
 30
0.0
  0
SEQEND
  5
86C
  8
1
  6
CONTINUOUS
 62
     7
  0
LINE
  5
86D
  8
1
  6
CONTINUOUS
 62
     7
 10
-46.860667483139
 20
-30.93199801841956
 30
0.0
 11
-46.69736995713811
 21
-31.16178588728565
 31
0.0
  0
LINE
  5
86E
  8
1
  6
CONTINUOUS
 62
     7
 10
-45.8467758818299
 20
-31.61929456772685
 30
0.0
 11
-45.8467758818299
 21
-31.52110934639722
 31
0.0
  0
POLYLINE
  5
86F
  8
1
  6
CONTINUOUS
 62
     7
 66
     1
 10
0.0
 20
0.0
 30
0.0
  0
VERTEX
  5
870
  8
1
  6
CONTINUOUS
 62
     7
 10
-46.2722451742583
 20
-31.75055270571488
 30
0.0
  0
VERTEX
  5
871
  8
1
  6
CONTINUOUS
 62
     7
 10
-46.0755302220505
 20
-31.61929456772685
 30
0.0
  0
VERTEX
  5
872
  8
1
  6
CONTINUOUS
 62
     7
 10
-45.8467758818299
 20
-31.61929456772685
 30
0.0
  0
SEQEND
  5
873
  8
1
  6
CONTINUOUS
 62
     7
  0
POLYLINE
  5
874
  8
1
  6
CONTINUOUS
 62
     7
 66
     1
 10
0.0
 20
0.0
 30
0.0
  0
VERTEX
  5
875
  8
1
  6
CONTINUOUS
 62
     7
 10
-46.1086031387089
 20
-31.52110934639722
 30
0.0
  0
VERTEX
  5
876
  8
1
  6
CONTINUOUS
 62
     7
 10
-45.8467758818299
 20
-31.52110934639722
 30
0.0
  0
VERTEX
  5
877
  8
1
  6
CONTINUOUS
 62
     7
 10
-45.42199560849861
 20
-31.88077731505734
 30
0.0
  0
SEQEND
  5
878
  8
1
  6
CONTINUOUS
 62
     7
  0
LINE
  5
879
  8
1
  6
CONTINUOUS
 62
     7
 10
-45.02925472318009
 20
-32.11022067437494
 30
0.0
 11
-45.8467758818299
 21
-31.61929456772685
 31
0.0
  0
LINE
  5
87A
  8
1
  6
CONTINUOUS
 62
     7
 10
-47.77671837266689
 20
-30.50756225463675
 30
0.0
 11
-46.95919721401708
 21
-30.99848836128484
 31
0.0
  0
LINE
  5
87B
  8
1
  6
CONTINUOUS
 62
     7
 10
-47.3188651826772
 20
-32.27351820037575
 30
0.0
 11
-46.82828358557759
 21
-31.42292412506765
 31
0.0
  0
POLYLINE
  5
87C
  8
1
  6
CONTINUOUS
 62
     7
 66
     1
 10
0.0
 20
0.0
 30
0.0
  0
VERTEX
  5
87D
  8
1
  6
CONTINUOUS
 62
     7
 10
-46.2722451742583
 20
-31.75055270571488
 30
0.0
  0
VERTEX
  5
87E
  8
1
  6
CONTINUOUS
 62
     7
 10
-46.76282677135788
 20
-32.56807386436464
 30
0.0
  0
VERTEX
  5
87F
  8
1
  6
CONTINUOUS
 62
     7
 10
-46.2722451742583
 20
-31.75055270571488
 30
0.0
  0
SEQEND
  5
880
  8
1
  6
CONTINUOUS
 62
     7
  0
LINE
  5
881
  8
1
  6
CONTINUOUS
 62
     7
 10
-47.3188651826772
 20
-32.27351820037575
 30
0.0
 11
-46.82828358557759
 21
-31.42292412506765
 31
0.0
  0
LINE
  5
882
  8
1
  6
CONTINUOUS
 62
     7
 10
-47.08942182335949
 20
-31.84873792704457
 30
0.0
 11
-46.73009836424799
 21
-31.42292412506765
 31
0.0
  0
LINE
  5
883
  8
1
  6
CONTINUOUS
 62
     7
 10
-46.53338341204019
 20
-32.17636650769174
 30
0.0
 11
-46.33770198847799
 21
-31.65236748438525
 31
0.0
  0
POLYLINE
  5
884
  8
1
  6
CONTINUOUS
 62
     7
 66
     1
 10
0.0
 20
0.0
 30
0.0
  0
VERTEX
  5
885
  8
1
  6
CONTINUOUS
 62
     7
 10
-45.71586225339041
 20
-29.49367065332774
 30
0.0
  0
VERTEX
  5
886
  8
1
  6
CONTINUOUS
 62
     7
 10
-45.16016835161957
 20
-29.82129923397497
 30
0.0
  0
VERTEX
  5
887
  8
1
  6
CONTINUOUS
 62
     7
 10
-45.65074994871918
 20
-30.63882039262478
 30
0.0
  0
SEQEND
  5
888
  8
1
  6
CONTINUOUS
 62
     7
  0
LINE
  5
889
  8
1
  6
CONTINUOUS
 62
     7
 10
-46.20644385048999
 20
-30.31222534062306
 30
0.0
 11
-45.71586225339041
 21
-29.49367065332774
 31
0.0
  0
POLYLINE
  5
88A
  8
1
  6
CONTINUOUS
 62
     7
 66
     1
 10
0.0
 20
0.0
 30
0.0
  0
VERTEX
  5
88B
  8
1
  6
CONTINUOUS
 62
     7
 10
-45.29108198005909
 20
-29.91948445530454
 30
0.0
  0
VERTEX
  5
88C
  8
1
  6
CONTINUOUS
 62
     7
 10
-45.51983632027969
 20
-29.72311401264534
 30
0.0
  0
VERTEX
  5
88D
  8
1
  6
CONTINUOUS
 62
     7
 10
-45.78200808670721
 20
-29.62527330086425
 30
0.0
  0
SEQEND
  5
88E
  8
1
  6
CONTINUOUS
 62
     7
  0
LINE
  5
88F
  8
1
  6
CONTINUOUS
 62
     7
 10
-46.20644385048999
 20
-30.31222534062306
 30
0.0
 11
-45.71586225339041
 21
-29.49367065332774
 31
0.0
  0
POLYLINE
  5
890
  8
1
  6
CONTINUOUS
 62
     7
 66
     1
 10
0.0
 20
0.0
 30
0.0
  0
VERTEX
  5
891
  8
1
  6
CONTINUOUS
 62
     7
 10
-45.65074994871918
 20
-30.63882039262478
 30
0.0
  0
VERTEX
  5
892
  8
1
  6
CONTINUOUS
 62
     7
 10
-45.16016835161957
 20
-29.82129923397497
 30
0.0
  0
VERTEX
  5
893
  8
1
  6
CONTINUOUS
 62
     7
 10
-45.71586225339041
 20
-29.49367065332774
 30
0.0
  0
SEQEND
  5
894
  8
1
  6
CONTINUOUS
 62
     7
  0
LINE
  5
895
  8
1
  6
CONTINUOUS
 62
     7
 10
-45.51983632027969
 20
-31.09667358261447
 30
0.0
 11
-45.65074994871918
 21
-30.63882039262478
 31
0.0
  0
POLYLINE
  5
896
  8
1
  6
CONTINUOUS
 62
     7
 66
     1
 10
0.0
 20
0.0
 30
0.0
  0
VERTEX
  5
897
  8
1
  6
CONTINUOUS
 62
     7
 10
-46.63191314291839
 20
-30.44244994996552
 30
0.0
  0
VERTEX
  5
898
  8
1
  6
CONTINUOUS
 62
     7
 10
-46.20644385048999
 20
-30.31222534062306
 30
0.0
  0
VERTEX
  5
899
  8
1
  6
CONTINUOUS
 62
     7
 10
-46.40281429314928
 20
-30.44244994996552
 30
0.0
  0
SEQEND
  5
89A
  8
1
  6
CONTINUOUS
 62
     7
  0
LINE
  5
89B
  8
1
  6
CONTINUOUS
 62
     7
 10
-45.38892269184021
 20
-30.21404011929349
 30
0.0
 11
-45.74893517004881
 21
-30.63882039262478
 31
0.0
  0
POLYLINE
  5
89C
  8
1
  6
CONTINUOUS
 62
     7
 66
     1
 10
0.0
 20
0.0
 30
0.0
  0
VERTEX
  5
89D
  8
1
  6
CONTINUOUS
 62
     7
 10
-45.65074994871918
 20
-30.86723022329687
 30
0.0
  0
VERTEX
  5
89E
  8
1
  6
CONTINUOUS
 62
     7
 10
-45.65074994871918
 20
-30.63882039262478
 30
0.0
  0
VERTEX
  5
89F
  8
1
  6
CONTINUOUS
 62
     7
 10
-45.74893517004881
 20
-30.63882039262478
 30
0.0
  0
SEQEND
  5
8A0
  8
1
  6
CONTINUOUS
 62
     7
  0
LINE
  5
8A1
  8
1
  6
CONTINUOUS
 62
     7
 10
-46.20644385048999
 20
-30.31222534062306
 30
0.0
 11
-46.63191314291839
 21
-30.44244994996552
 31
0.0
  0
POLYLINE
  5
8A2
  8
1
  6
CONTINUOUS
 62
     7
 66
     1
 10
0.0
 20
0.0
 30
0.0
  0
VERTEX
  5
8A3
  8
1
  6
CONTINUOUS
 62
     7
 10
-45.9453056127081
 20
-29.91948445530454
 30
0.0
  0
VERTEX
  5
8A4
  8
1
  6
CONTINUOUS
 62
     7
 10
-46.1416760553673
 20
-30.40937703330712
 30
0.0
  0
VERTEX
  5
8A5
  8
1
  6
CONTINUOUS
 62
     7
 10
-46.20644385048999
 20
-30.31222534062306
 30
0.0
  0
VERTEX
  5
8A6
  8
1
  6
CONTINUOUS
 62
     7
 10
-46.40281429314928
 20
-30.44244994996552
 30
0.0
  0
SEQEND
  5
8A7
  8
1
  6
CONTINUOUS
 62
     7
  0
POLYLINE
  5
8A8
  8
1
  6
CONTINUOUS
 62
     7
 66
     1
 10
0.0
 20
0.0
 30
0.0
  0
VERTEX
  5
8A9
  8
1
  6
CONTINUOUS
 62
     7
 10
-45.74893517004881
 20
-30.63882039262478
 30
0.0
  0
VERTEX
  5
8AA
  8
1
  6
CONTINUOUS
 62
     7
 10
-45.91292171514669
 20
-30.50756225463675
 30
0.0
  0
VERTEX
  5
8AB
  8
1
  6
CONTINUOUS
 62
     7
 10
-46.1416760553673
 20
-30.40937703330712
 30
0.0
  0
SEQEND
  5
8AC
  8
1
  6
CONTINUOUS
 62
     7
  0
LINE
  5
8AD
  8
1
  6
CONTINUOUS
 62
     7
 10
-45.65074994871918
 20
-30.63882039262478
 30
0.0
 11
-45.65074994871918
 21
-30.86723022329687
 31
0.0
  0
LINE
  5
8AE
  8
1
  6
CONTINUOUS
 62
     7
 10
-46.20644385048999
 20
-30.31222534062306
 30
0.0
 11
-46.63191314291839
 21
-30.44244994996552
 31
0.0
  0
LINE
  5
8AF
  8
1
  6
CONTINUOUS
 62
     7
 10
-47.4494343015682
 20
-30.31222534062306
 30
0.0
 11
-47.4170504040068
 21
-30.34426472863584
 31
0.0
  0
LINE
  5
8B0
  8
1
  6
CONTINUOUS
 62
     7
 10
-44.9968708256188
 20
-31.75055270571488
 30
0.0
 11
-44.93106950185052
 21
-31.78259209372777
 31
0.0
  0
LINE
  5
8B1
  8
1
  6
CONTINUOUS
 62
     7
 10
-43.98263471476128
 20
-32.30659111703426
 30
0.0
 11
-43.9502508171999
 21
-32.33863050504704
 31
0.0
  0
POLYLINE
  5
8B2
  8
1
  6
CONTINUOUS
 62
     7
 66
     1
 10
0.0
 20
0.0
 30
0.0
  0
VERTEX
  5
8B3
  8
1
  6
CONTINUOUS
 62
     7
 10
-64.4079168277105
 20
-24.07935858870906
 30
0.0
  0
VERTEX
  5
8B4
  8
1
  6
CONTINUOUS
 62
     7
 10
-67.48404258649006
 20
-23.29043172258685
 30
0.0
  0
VERTEX
  5
8B5
  8
1
  6
CONTINUOUS
 62
     7
 10
-64.4079168277105
 20
-22.50253838511026
 30
0.0
  0
SEQEND
  5
8B6
  8
1
  6
CONTINUOUS
 62
     7
  0
POLYLINE
  5
8B7
  8
1
  6
CONTINUOUS
 62
     7
 66
     1
 10
0.0
 20
0.0
 30
0.0
  0
VERTEX
  5
8B8
  8
1
  6
CONTINUOUS
 62
     7
 10
83.49915837189465
 20
50.88970959636498
 30
0.0
  0
VERTEX
  5
8B9
  8
1
  6
CONTINUOUS
 62
     7
 10
83.49915837189465
 20
50.49765773014354
 30
0.0
  0
VERTEX
  5
8BA
  8
1
  6
CONTINUOUS
 62
     7
 10
78.65879921511853
 20
50.49765773014354
 30
0.0
  0
SEQEND
  5
8BB
  8
1
  6
CONTINUOUS
 62
     7
  0
LINE
  5
8BC
  8
1
  6
CONTINUOUS
 62
     7
 10
66.62439166604383
 20
54.42162148784314
 30
0.0
 11
66.62439166604383
 21
54.8143623731616
 31
0.0
  0
LINE
  5
8BD
  8
1
  6
CONTINUOUS
 62
     7
 10
83.49915837189465
 20
50.88970959636498
 30
0.0
 11
78.65879921511853
 21
50.88970959636498
 31
0.0
  0
LINE
  5
8BE
  8
1
  6
CONTINUOUS
 62
     7
 10
67.50771414846193
 20
54.42162148784314
 30
0.0
 11
66.62439166604383
 21
54.42162148784314
 31
0.0
  0
POLYLINE
  5
8BF
  8
1
  6
CONTINUOUS
 62
     7
 66
     1
 10
0.0
 20
0.0
 30
0.0
  0
VERTEX
  5
8C0
  8
1
  6
CONTINUOUS
 62
     7
 10
73.72128836565855
 20
54.38923759028177
 30
0.0
  0
VERTEX
  5
8C1
  8
1
  6
CONTINUOUS
 62
     7
 10
73.32854748034003
 20
54.84674627072297
 30
0.0
  0
VERTEX
  5
8C2
  8
1
  6
CONTINUOUS
 62
     7
 10
72.83796588324043
 20
55.27221556315129
 30
0.0
  0
VERTEX
  5
8C3
  8
1
  6
CONTINUOUS
 62
     7
 10
72.31500038857953
 20
55.59915512470155
 30
0.0
  0
VERTEX
  5
8C4
  8
1
  6
CONTINUOUS
 62
     7
 10
71.72588906060173
 20
55.82790946492213
 30
0.0
  0
SEQEND
  5
8C5
  8
1
  6
CONTINUOUS
 62
     7
  0
POLYLINE
  5
8C6
  8
1
  6
CONTINUOUS
 62
     7
 66
     1
 10
0.0
 20
0.0
 30
0.0
  0
VERTEX
  5
8C7
  8
1
  6
CONTINUOUS
 62
     7
 10
70.58073932130475
 20
55.99189601002001
 30
0.0
  0
VERTEX
  5
8C8
  8
1
  6
CONTINUOUS
 62
     7
 10
69.89378728154594
 20
55.95882309336162
 30
0.0
  0
VERTEX
  5
8C9
  8
1
  6
CONTINUOUS
 62
     7
 10
69.24059717754253
 20
55.79552556736081
 30
0.0
  0
VERTEX
  5
8CA
  8
1
  6
CONTINUOUS
 62
     7
 10
68.61841293290644
 20
55.50096990337192
 30
0.0
  0
SEQEND
  5
8CB
  8
1
  6
CONTINUOUS
 62
     7
  0
POLYLINE
  5
8CC
  8
1
  6
CONTINUOUS
 62
     7
 66
     1
 10
0.0
 20
0.0
 30
0.0
  0
VERTEX
  5
8CD
  8
1
  6
CONTINUOUS
 62
     7
 10
73.39400429455975
 20
54.16013874051265
 30
0.0
  0
VERTEX
  5
8CE
  8
1
  6
CONTINUOUS
 62
     7
 10
72.90411105263703
 20
54.68379376340761
 30
0.0
 42
0.0100768220620729
  0
VERTEX
  5
8CF
  8
1
  6
CONTINUOUS
 62
     7
 10
72.69508081270523
 20
54.848739574868
 30
0.0
 42
0.0112882022144729
  0
VERTEX
  5
8D0
  8
1
  6
CONTINUOUS
 62
     7
 10
72.50235705263704
 20
54.98788376340762
 30
0.0
 42
0.023314867960117
  0
VERTEX
  5
8D1
  8
1
  6
CONTINUOUS
 62
     7
 10
72.14199827456024
 20
55.21187368308106
 30
0.0
 42
0.0268369841691966
  0
VERTEX
  5
8D2
  8
1
  6
CONTINUOUS
 62
     7
 10
71.81097205263703
 20
55.37417276340762
 30
0.0
 42
0.0222353867661846
  0
VERTEX
  5
8D3
  8
1
  6
CONTINUOUS
 62
     7
 10
71.5467155202632
 20
55.47295466227426
 30
0.0
 42
0.0230520354696064
  0
VERTEX
  5
8D4
  8
1
  6
CONTINUOUS
 62
     7
 10
71.28422005263704
 20
55.54480276340766
 30
0.0
 42
0.0344666462189142
  0
VERTEX
  5
8D5
  8
1
  6
CONTINUOUS
 62
     7
 10
70.88275673650753
 20
55.6063665259195
 30
0.0
 42
0.0319773006330601
  0
VERTEX
  5
8D6
  8
1
  6
CONTINUOUS
 62
     7
 10
70.44511005263703
 20
55.61482476340759
 30
0.0
 42
0.0143335971286105
  0
VERTEX
  5
8D7
  8
1
  6
CONTINUOUS
 62
     7
 10
70.2265678967266
 20
55.59878297645495
 30
0.0
 42
0.0131599513189046
  0
VERTEX
  5
8D8
  8
1
  6
CONTINUOUS
 62
     7
 10
69.98986405263705
 20
55.56825676340765
 30
0.0
 42
0.0117813534961221
  0
VERTEX
  5
8D9
  8
1
  6
CONTINUOUS
 62
     7
 10
69.75807870528294
 20
55.52652519143711
 30
0.0
 42
0.010583374064868
  0
VERTEX
  5
8DA
  8
1
  6
CONTINUOUS
 62
     7
 10
69.50242443442153
 20
55.46858600581055
 30
0.0
  0
VERTEX
  5
8DB
  8
1
  6
CONTINUOUS
 62
     7
 10
68.81616141375974
 20
55.17403034182172
 30
0.0
  0
SEQEND
  5
8DC
  8
1
  6
CONTINUOUS
 62
     7
  0
POLYLINE
  5
8DD
  8
1
  6
CONTINUOUS
 62
     7
 66
     1
 10
0.0
 20
0.0
 30
0.0
  0
VERTEX
  5
8DE
  8
1
  6
CONTINUOUS
 62
     7
 10
66.62439166604383
 20
54.8143623731616
 30
0.0
  0
VERTEX
  5
8DF
  8
1
  6
CONTINUOUS
 62
     7
 10
67.40987343668073
 20
54.8143623731616
 30
0.0
  0
VERTEX
  5
8E0
  8
1
  6
CONTINUOUS
 62
     7
 10
68.61841293290644
 20
55.50096990337192
 30
0.0
  0
SEQEND
  5
8E1
  8
1
  6
CONTINUOUS
 62
     7
  0
LINE
  5
8E2
  8
1
  6
CONTINUOUS
 62
     7
 10
67.50771414846193
 20
54.42231050694016
 30
0.0
 11
68.81616141375974
 21
55.17403034182172
 31
0.0
  0
LINE
  5
8E3
  8
1
  6
CONTINUOUS
 62
     7
 10
74.50539209810134
 20
52.62293713499417
 30
0.0
 11
73.39400429455975
 21
54.16013874051265
 31
0.0
  0
POLYLINE
  5
8E4
  8
1
  6
CONTINUOUS
 62
     7
 66
     1
 10
0.0
 20
0.0
 30
0.0
  0
VERTEX
  5
8E5
  8
1
  6
CONTINUOUS
 62
     7
 10
73.72128836565855
 20
54.38923759028177
 30
0.0
  0
VERTEX
  5
8E6
  8
1
  6
CONTINUOUS
 62
     7
 10
74.83198705263703
 20
52.85203676340763
 30
0.0
 42
0.0189764603279727
  0
VERTEX
  5
8E7
  8
1
  6
CONTINUOUS
 62
     7
 10
75.14263139096711
 20
52.4834040586381
 30
0.0
 42
0.0201775559775433
  0
VERTEX
  5
8E8
  8
1
  6
CONTINUOUS
 62
     7
 10
75.46101805263703
 20
52.16061676340764
 30
0.0
 42
0.0342663012320399
  0
VERTEX
  5
8E9
  8
1
  6
CONTINUOUS
 62
     7
 10
76.01326188206296
 20
51.71092032352245
 30
0.0
 42
0.0369028941145082
  0
VERTEX
  5
8EA
  8
1
  6
CONTINUOUS
 62
     7
 10
76.58018405263702
 20
51.3702217634076
 30
0.0
 42
0.0411102427456492
  0
VERTEX
  5
8EB
  8
1
  6
CONTINUOUS
 62
     7
 10
77.22966779054603
 20
51.1069007456027
 30
0.0
 42
0.041457949551115
  0
VERTEX
  5
8EC
  8
1
  6
CONTINUOUS
 62
     7
 10
77.90776839933403
 20
50.95516641058475
 30
0.0
  0
VERTEX
  5
8ED
  8
1
  6
CONTINUOUS
 62
     7
 10
78.65879921511853
 20
50.88970959636498
 30
0.0
  0
SEQEND
  5
8EE
  8
1
  6
CONTINUOUS
 62
     7
  0
POLYLINE
  5
8EF
  8
1
  6
CONTINUOUS
 62
     7
 66
     1
 10
0.0
 20
0.0
 30
0.0
  0
VERTEX
  5
8F0
  8
1
  6
CONTINUOUS
 62
     7
 10
74.50539209810134
 20
52.62293713499417
 30
0.0
  0
VERTEX
  5
8F1
  8
1
  6
CONTINUOUS
 62
     7
 10
75.02835759276235
 20
52.00144190945514
 30
0.0
  0
VERTEX
  5
8F2
  8
1
  6
CONTINUOUS
 62
     7
 10
75.65054183739844
 20
51.47882092434276
 30
0.0
  0
VERTEX
  5
8F3
  8
1
  6
CONTINUOUS
 62
     7
 10
76.33680485806013
 20
51.05335163191438
 30
0.0
  0
VERTEX
  5
8F4
  8
1
  6
CONTINUOUS
 62
     7
 10
77.05682981447745
 20
50.75879596792555
 30
0.0
  0
VERTEX
  5
8F5
  8
1
  6
CONTINUOUS
 62
     7
 10
77.84162256601735
 20
50.56311454436332
 30
0.0
  0
VERTEX
  5
8F6
  8
1
  6
CONTINUOUS
 62
     7
 10
78.65879921511853
 20
50.49765773014354
 30
0.0
  0
SEQEND
  5
8F7
  8
1
  6
CONTINUOUS
 62
     7
  0
LINE
  5
8F8
  8
1
  6
CONTINUOUS
 62
     7
 10
71.72588906060173
 20
55.82790946492213
 30
0.0
 11
69.99162799332703
 21
56.77668876155991
 31
0.0
  0
POLYLINE
  5
8F9
  8
1
  6
CONTINUOUS
 62
     7
 66
     1
 10
0.0
 20
0.0
 30
0.0
  0
VERTEX
  5
8FA
  8
1
  6
CONTINUOUS
 62
     7
 10
71.52951861794253
 20
55.46858600581055
 30
0.0
  0
VERTEX
  5
8FB
  8
1
  6
CONTINUOUS
 62
     7
 10
69.79663558886185
 20
56.41667628335136
 30
0.0
  0
VERTEX
  5
8FC
  8
1
  6
CONTINUOUS
 62
     7
 10
69.99162799332703
 20
56.77668876155991
 30
0.0
  0
SEQEND
  5
8FD
  8
1
  6
CONTINUOUS
 62
     7
  0
LINE
  5
8FE
  8
1
  6
CONTINUOUS
 62
     7
 10
69.76356267220345
 20
55.53404282003032
 30
0.0
 11
69.76356267220345
 21
55.92609468625176
 31
0.0
  0
LINE
  5
8FF
  8
1
  6
CONTINUOUS
 62
     7
 10
66.62439166604383
 20
-15.99475219246938
 30
0.0
 11
67.40987343668073
 21
-15.99475219246938
 31
0.0
  0
LINE
  5
900
  8
1
  6
CONTINUOUS
 62
     7
 10
76.23827512718205
 20
-15.99475219246938
 30
0.0
 11
83.49915837189465
 21
-15.99475219246938
 31
0.0
  0
LINE
  5
901
  8
1
  6
CONTINUOUS
 62
     7
 10
66.62439166604383
 20
-22.79743773764381
 30
0.0
 11
67.40987343668073
 21
-22.79743773764381
 31
0.0
  0
POLYLINE
  5
902
  8
1
  6
CONTINUOUS
 62
     7
 66
     1
 10
0.0
 20
0.0
 30
0.0
  0
VERTEX
  5
903
  8
1
  6
CONTINUOUS
 62
     7
 10
76.23827512718205
 20
-22.79743773764381
 30
0.0
  0
VERTEX
  5
904
  8
1
  6
CONTINUOUS
 62
     7
 10
83.49915837189465
 20
-22.79743773764381
 30
0.0
  0
VERTEX
  5
905
  8
1
  6
CONTINUOUS
 62
     7
 10
83.49915837189465
 20
-15.99475219246938
 30
0.0
  0
SEQEND
  5
906
  8
1
  6
CONTINUOUS
 62
     7
  0
LINE
  5
907
  8
1
  6
CONTINUOUS
 62
     7
 10
66.62439166604383
 20
-22.79743773764381
 30
0.0
 11
66.62439166604383
 21
-15.99475219246938
 31
0.0
  0
POLYLINE
  5
908
  8
1
  6
CONTINUOUS
 62
     7
 66
     1
 10
0.0
 20
0.0
 30
0.0
  0
VERTEX
  5
909
  8
1
  6
CONTINUOUS
 62
     7
 10
72.18339774104294
 20
-18.3832368923932
 30
0.0
  0
VERTEX
  5
90A
  8
1
  6
CONTINUOUS
 62
     7
 10
71.59566405263705
 20
-18.67779223659241
 30
0.0
 42
-0.0473536891625423
  0
VERTEX
  5
90B
  8
1
  6
CONTINUOUS
 62
     7
 10
70.94389243268796
 20
-18.82018287847841
 30
0.0
 42
-0.0495691910877831
  0
VERTEX
  5
90C
  8
1
  6
CONTINUOUS
 62
     7
 10
70.30037305263704
 20
-18.8339522365924
 30
0.0
 42
-0.0718416820329053
  0
VERTEX
  5
90D
  8
1
  6
CONTINUOUS
 62
     7
 10
69.4152550923869
 20
-18.63499868954829
 30
0.0
 42
-0.0752085431130941
  0
VERTEX
  5
90E
  8
1
  6
CONTINUOUS
 62
     7
 10
68.59672205263702
 20
-18.17211023659241
 30
0.0
 42
-0.0363916829289553
  0
VERTEX
  5
90F
  8
1
  6
CONTINUOUS
 62
     7
 10
68.25437300718227
 20
-17.8610442492225
 30
0.0
 42
-0.0364111306991852
  0
VERTEX
  5
910
  8
1
  6
CONTINUOUS
 62
     7
 10
67.95236005263702
 20
-17.4933952365924
 30
0.0
 42
-0.0362528837744821
  0
VERTEX
  5
911
  8
1
  6
CONTINUOUS
 62
     7
 10
67.70271838254784
 20
-17.07921713234812
 30
0.0
 42
-0.0354019815014505
  0
VERTEX
  5
912
  8
1
  6
CONTINUOUS
 62
     7
 10
67.50771414846193
 20
-16.61693643710561
 30
0.0
  0
VERTEX
  5
913
  8
1
  6
CONTINUOUS
 62
     7
 10
67.40987343668073
 20
-15.99475219246938
 30
0.0
  0
SEQEND
  5
914
  8
1
  6
CONTINUOUS
 62
     7
  0
LINE
  5
915
  8
1
  6
CONTINUOUS
 62
     7
 10
76.23827512718205
 20
-15.99475219246938
 30
0.0
 11
72.18339774104294
 21
-18.3832368923932
 31
0.0
  0
POLYLINE
  5
916
  8
1
  6
CONTINUOUS
 62
     7
 66
     1
 10
0.0
 20
0.0
 30
0.0
  0
VERTEX
  5
917
  8
1
  6
CONTINUOUS
 62
     7
 10
72.18339774104294
 20
-25.21761731603181
 30
0.0
  0
VERTEX
  5
918
  8
1
  6
CONTINUOUS
 62
     7
 10
71.59566405263703
 20
-25.48013323659238
 30
0.0
 42
-0.0473874929935197
  0
VERTEX
  5
919
  8
1
  6
CONTINUOUS
 62
     7
 10
70.94394983013683
 20
-25.62258710051022
 30
0.0
 42
-0.04959990556066
  0
VERTEX
  5
91A
  8
1
  6
CONTINUOUS
 62
     7
 10
70.30037305263704
 20
-25.63634623659239
 30
0.0
 42
-0.071735809163962
  0
VERTEX
  5
91B
  8
1
  6
CONTINUOUS
 62
     7
 10
69.41667685151194
 20
-25.43783679617382
 30
0.0
 42
-0.0752987829932592
  0
VERTEX
  5
91C
  8
1
  6
CONTINUOUS
 62
     7
 10
68.59672205263703
 20
-24.97432323659239
 30
0.0
 42
-0.0363699038142166
  0
VERTEX
  5
91D
  8
1
  6
CONTINUOUS
 62
     7
 10
68.25439324347514
 20
-24.66329316867769
 30
0.0
 42
-0.0363970480174348
  0
VERTEX
  5
91E
  8
1
  6
CONTINUOUS
 62
     7
 10
67.95236005263703
 20
-24.2956942365924
 30
0.0
 42
-0.0362391091798861
  0
VERTEX
  5
91F
  8
1
  6
CONTINUOUS
 62
     7
 10
67.70271446689307
 20
-23.8816559086315
 30
0.0
 42
-0.0354020116995208
  0
VERTEX
  5
920
  8
1
  6
CONTINUOUS
 62
     7
 10
67.50771414846193
 20
-23.41962198227987
 30
0.0
  0
VERTEX
  5
921
  8
1
  6
CONTINUOUS
 62
     7
 10
67.40987343668073
 20
-22.79743773764381
 30
0.0
  0
SEQEND
  5
922
  8
1
  6
CONTINUOUS
 62
     7
  0
POLYLINE
  5
923
  8
1
  6
CONTINUOUS
 62
     7
 66
     1
 10
0.0
 20
0.0
 30
0.0
  0
VERTEX
  5
924
  8
1
  6
CONTINUOUS
 62
     7
 10
72.18339774104294
 20
-25.21761731603181
 30
0.0
  0
VERTEX
  5
925
  8
1
  6
CONTINUOUS
 62
     7
 10
76.23827512718205
 20
-22.79743773764381
 30
0.0
  0
VERTEX
  5
926
  8
1
  6
CONTINUOUS
 62
     7
 10
76.23827512718205
 20
-15.99475219246938
 30
0.0
  0
SEQEND
  5
927
  8
1
  6
CONTINUOUS
 62
     7
  0
LINE
  5
928
  8
1
  6
CONTINUOUS
 62
     7
 10
67.40987343668073
 20
-15.99475219246938
 30
0.0
 11
67.40987343668073
 21
-22.79743773764381
 31
0.0
  0
LINE
  5
929
  8
1
  6
CONTINUOUS
 62
     7
 10
71.72588906060173
 20
-21.29399806788075
 30
0.0
 11
71.72588906060173
 21
-23.22325153962067
 31
0.0
  0
POLYLINE
  5
92A
  8
1
  6
CONTINUOUS
 62
     7
 66
     1
 10
0.0
 20
0.0
 30
0.0
  0
VERTEX
  5
92B
  8
1
  6
CONTINUOUS
 62
     7
 10
70.05777382664385
 20
-22.07844630987205
 30
0.0
  0
VERTEX
  5
92C
  8
1
  6
CONTINUOUS
 62
     7
 10
71.39860498950304
 20
-21.09659409657587
 30
0.0
  0
VERTEX
  5
92D
  8
1
  6
CONTINUOUS
 62
     7
 10
71.52951861794253
 20
-21.0645547085631
 30
0.0
  0
VERTEX
  5
92E
  8
1
  6
CONTINUOUS
 62
     7
 10
71.65974322728505
 20
-21.12966701323427
 30
0.0
  0
VERTEX
  5
92F
  8
1
  6
CONTINUOUS
 62
     7
 10
71.72588906060173
 20
-21.29399806788075
 30
0.0
  0
SEQEND
  5
930
  8
1
  6
CONTINUOUS
 62
     7
  0
LINE
  5
931
  8
1
  6
CONTINUOUS
 62
     7
 10
70.05777382664385
 20
-22.40469685232529
 30
0.0
 11
71.39860498950304
 21
-23.38654906562147
 31
0.0
  0
POLYLINE
  5
932
  8
1
  6
CONTINUOUS
 62
     7
 66
     1
 10
0.0
 20
0.0
 30
0.0
  0
VERTEX
  5
933
  8
1
  6
CONTINUOUS
 62
     7
 10
71.72588906060173
 20
-23.22325153962067
 30
0.0
  0
VERTEX
  5
934
  8
1
  6
CONTINUOUS
 62
     7
 10
71.65974322728505
 20
-23.35347614896307
 30
0.0
  0
VERTEX
  5
935
  8
1
  6
CONTINUOUS
 62
     7
 10
71.52951861794253
 20
-23.41962198227987
 30
0.0
  0
VERTEX
  5
936
  8
1
  6
CONTINUOUS
 62
     7
 10
71.39860498950304
 20
-23.38654906562147
 30
0.0
  0
SEQEND
  5
937
  8
1
  6
CONTINUOUS
 62
     7
  0
POLYLINE
  5
938
  8
1
  6
CONTINUOUS
 62
     7
 66
     1
 10
0.0
 20
0.0
 30
0.0
  0
VERTEX
  5
939
  8
1
  6
CONTINUOUS
 62
     7
 10
70.05777382664385
 20
-22.40469685232529
 30
0.0
  0
VERTEX
  5
93A
  8
1
  6
CONTINUOUS
 62
     7
 10
69.95993311486274
 20
-22.24277736451848
 30
0.0
  0
VERTEX
  5
93B
  8
1
  6
CONTINUOUS
 62
     7
 10
70.05777382664385
 20
-22.07844630987205
 30
0.0
  0
SEQEND
  5
93C
  8
1
  6
CONTINUOUS
 62
     7
  0
POLYLINE
  5
93D
  8
1
  6
CONTINUOUS
 62
     7
 66
     1
 10
0.0
 20
0.0
 30
0.0
  0
VERTEX
  5
93E
  8
1
  6
CONTINUOUS
 62
     7
 10
70.28652816686443
 20
-22.373001973861
 30
0.0
  0
VERTEX
  5
93F
  8
1
  6
CONTINUOUS
 62
     7
 10
70.22244939083873
 20
-22.24277736451848
 30
0.0
  0
VERTEX
  5
940
  8
1
  6
CONTINUOUS
 62
     7
 10
70.28652816686443
 20
-22.11151922653051
 30
0.0
  0
SEQEND
  5
941
  8
1
  6
CONTINUOUS
 62
     7
  0
LINE
  5
942
  8
1
  6
CONTINUOUS
 62
     7
 10
71.39860498950304
 20
-23.38654906562147
 30
0.0
 11
70.28652816686443
 21
-22.373001973861
 31
0.0
  0
LINE
  5
943
  8
1
  6
CONTINUOUS
 62
     7
 10
71.39860498950304
 20
-21.09659409657587
 30
0.0
 11
70.28652816686443
 21
-22.11151922653051
 31
0.0
  0
POLYLINE
  5
944
  8
1
  6
CONTINUOUS
 62
     7
 66
     1
 10
0.0
 20
0.0
 30
0.0
  0
VERTEX
  5
945
  8
1
  6
CONTINUOUS
 62
     7
 10
79.73849214019583
 20
-21.81696356254168
 30
0.0
  0
VERTEX
  5
946
  8
1
  6
CONTINUOUS
 62
     7
 10
79.47597586421983
 20
-21.7518512578705
 30
0.0
  0
VERTEX
  5
947
  8
1
  6
CONTINUOUS
 62
     7
 10
79.96655746131944
 20
-21.7518512578705
 30
0.0
  0
SEQEND
  5
948
  8
1
  6
CONTINUOUS
 62
     7
  0
POLYLINE
  5
949
  8
1
  6
CONTINUOUS
 62
     7
 66
     1
 10
0.0
 20
0.0
 30
0.0
  0
VERTEX
  5
94A
  8
1
  6
CONTINUOUS
 62
     7
 10
79.47597586421983
 20
-21.7518512578705
 30
0.0
  0
VERTEX
  5
94B
  8
1
  6
CONTINUOUS
 62
     7
 10
79.28098345975465
 20
-21.55548081521119
 30
0.0
  0
VERTEX
  5
94C
  8
1
  6
CONTINUOUS
 62
     7
 10
80.16292790397864
 20
-21.55548081521119
 30
0.0
  0
SEQEND
  5
94D
  8
1
  6
CONTINUOUS
 62
     7
  0
POLYLINE
  5
94E
  8
1
  6
CONTINUOUS
 62
     7
 66
     1
 10
0.0
 20
0.0
 30
0.0
  0
VERTEX
  5
94F
  8
1
  6
CONTINUOUS
 62
     7
 10
79.47597586421983
 20
-21.7518512578705
 30
0.0
  0
VERTEX
  5
950
  8
1
  6
CONTINUOUS
 62
     7
 10
79.96655746131944
 20
-21.7518512578705
 30
0.0
  0
VERTEX
  5
951
  8
1
  6
CONTINUOUS
 62
     7
 10
80.16292790397864
 20
-21.55548081521119
 30
0.0
  0
SEQEND
  5
952
  8
1
  6
CONTINUOUS
 62
     7
  0
POLYLINE
  5
953
  8
1
  6
CONTINUOUS
 62
     7
 66
     1
 10
0.0
 20
0.0
 30
0.0
  0
VERTEX
  5
954
  8
1
  6
CONTINUOUS
 62
     7
 10
79.28098345975465
 20
-21.55548081521119
 30
0.0
  0
VERTEX
  5
955
  8
1
  6
CONTINUOUS
 62
     7
 10
79.21552664553494
 20
-21.32603745589359
 30
0.0
  0
VERTEX
  5
956
  8
1
  6
CONTINUOUS
 62
     7
 10
80.22976275639243
 20
-21.32603745589359
 30
0.0
  0
SEQEND
  5
957
  8
1
  6
CONTINUOUS
 62
     7
  0
POLYLINE
  5
958
  8
1
  6
CONTINUOUS
 62
     7
 66
     1
 10
0.0
 20
0.0
 30
0.0
  0
VERTEX
  5
959
  8
1
  6
CONTINUOUS
 62
     7
 10
79.28098345975465
 20
-21.55548081521119
 30
0.0
  0
VERTEX
  5
95A
  8
1
  6
CONTINUOUS
 62
     7
 10
80.16292790397864
 20
-21.55548081521119
 30
0.0
  0
VERTEX
  5
95B
  8
1
  6
CONTINUOUS
 62
     7
 10
80.22976275639243
 20
-21.32603745589359
 30
0.0
  0
SEQEND
  5
95C
  8
1
  6
CONTINUOUS
 62
     7
  0
POLYLINE
  5
95D
  8
1
  6
CONTINUOUS
 62
     7
 66
     1
 10
0.0
 20
0.0
 30
0.0
  0
VERTEX
  5
95E
  8
1
  6
CONTINUOUS
 62
     7
 10
79.21552664553494
 20
-21.32603745589359
 30
0.0
  0
VERTEX
  5
95F
  8
1
  6
CONTINUOUS
 62
     7
 10
79.28098345975465
 20
-21.0645547085631
 30
0.0
  0
VERTEX
  5
960
  8
1
  6
CONTINUOUS
 62
     7
 10
80.16292790397864
 20
-21.0645547085631
 30
0.0
  0
SEQEND
  5
961
  8
1
  6
CONTINUOUS
 62
     7
  0
POLYLINE
  5
962
  8
1
  6
CONTINUOUS
 62
     7
 66
     1
 10
0.0
 20
0.0
 30
0.0
  0
VERTEX
  5
963
  8
1
  6
CONTINUOUS
 62
     7
 10
79.21552664553494
 20
-21.32603745589359
 30
0.0
  0
VERTEX
  5
964
  8
1
  6
CONTINUOUS
 62
     7
 10
80.22976275639243
 20
-21.32603745589359
 30
0.0
  0
VERTEX
  5
965
  8
1
  6
CONTINUOUS
 62
     7
 10
80.16292790397864
 20
-21.0645547085631
 30
0.0
  0
SEQEND
  5
966
  8
1
  6
CONTINUOUS
 62
     7
  0
POLYLINE
  5
967
  8
1
  6
CONTINUOUS
 62
     7
 66
     1
 10
0.0
 20
0.0
 30
0.0
  0
VERTEX
  5
968
  8
1
  6
CONTINUOUS
 62
     7
 10
79.28098345975465
 20
-21.0645547085631
 30
0.0
  0
VERTEX
  5
969
  8
1
  6
CONTINUOUS
 62
     7
 10
79.47597586421983
 20
-20.8681842659039
 30
0.0
  0
VERTEX
  5
96A
  8
1
  6
CONTINUOUS
 62
     7
 10
79.96655746131944
 20
-20.8681842659039
 30
0.0
  0
SEQEND
  5
96B
  8
1
  6
CONTINUOUS
 62
     7
  0
POLYLINE
  5
96C
  8
1
  6
CONTINUOUS
 62
     7
 66
     1
 10
0.0
 20
0.0
 30
0.0
  0
VERTEX
  5
96D
  8
1
  6
CONTINUOUS
 62
     7
 10
79.28098345975465
 20
-21.0645547085631
 30
0.0
  0
VERTEX
  5
96E
  8
1
  6
CONTINUOUS
 62
     7
 10
80.16292790397864
 20
-21.0645547085631
 30
0.0
  0
VERTEX
  5
96F
  8
1
  6
CONTINUOUS
 62
     7
 10
79.96655746131944
 20
-20.8681842659039
 30
0.0
  0
SEQEND
  5
970
  8
1
  6
CONTINUOUS
 62
     7
  0
POLYLINE
  5
971
  8
1
  6
CONTINUOUS
 62
     7
 66
     1
 10
0.0
 20
0.0
 30
0.0
  0
VERTEX
  5
972
  8
1
  6
CONTINUOUS
 62
     7
 10
79.47597586421983
 20
-20.8681842659039
 30
0.0
  0
VERTEX
  5
973
  8
1
  6
CONTINUOUS
 62
     7
 10
79.96655746131944
 20
-20.8681842659039
 30
0.0
  0
VERTEX
  5
974
  8
1
  6
CONTINUOUS
 62
     7
 10
79.73849214019583
 20
-20.80307196123261
 30
0.0
  0
SEQEND
  5
975
  8
1
  6
CONTINUOUS
 62
     7
  0
POLYLINE
  5
976
  8
1
  6
CONTINUOUS
 62
     7
 66
     1
 10
0.0
 20
0.0
 30
0.0
  0
VERTEX
  5
977
  8
1
  6
CONTINUOUS
 62
     7
 10
79.73849214019583
 20
-18.51449503038117
 30
0.0
  0
VERTEX
  5
978
  8
1
  6
CONTINUOUS
 62
     7
 10
79.70541922353743
 20
-18.48142211372278
 30
0.0
  0
VERTEX
  5
979
  8
1
  6
CONTINUOUS
 62
     7
 10
79.80394895441563
 20
-18.48142211372278
 30
0.0
  0
SEQEND
  5
97A
  8
1
  6
CONTINUOUS
 62
     7
  0
POLYLINE
  5
97B
  8
1
  6
CONTINUOUS
 62
     7
 66
     1
 10
0.0
 20
0.0
 30
0.0
  0
VERTEX
  5
97C
  8
1
  6
CONTINUOUS
 62
     7
 10
79.70541922353743
 20
-18.48142211372278
 30
0.0
  0
VERTEX
  5
97D
  8
1
  6
CONTINUOUS
 62
     7
 10
79.64065142841474
 20
-18.48142211372278
 30
0.0
  0
VERTEX
  5
97E
  8
1
  6
CONTINUOUS
 62
     7
 10
79.90178966619675
 20
-18.48142211372278
 30
0.0
  0
SEQEND
  5
97F
  8
1
  6
CONTINUOUS
 62
     7
  0
LINE
  5
980
  8
1
  6
CONTINUOUS
 62
     7
 10
79.70541922353743
 20
-18.48142211372278
 30
0.0
 11
79.90178966619675
 21
-18.48142211372278
 31
0.0
  0
POLYLINE
  5
981
  8
1
  6
CONTINUOUS
 62
     7
 66
     1
 10
0.0
 20
0.0
 30
0.0
  0
VERTEX
  5
982
  8
1
  6
CONTINUOUS
 62
     7
 10
79.64065142841474
 20
-18.48142211372278
 30
0.0
  0
VERTEX
  5
983
  8
1
  6
CONTINUOUS
 62
     7
 10
79.44428098575554
 20
-18.4149317708575
 30
0.0
  0
VERTEX
  5
984
  8
1
  6
CONTINUOUS
 62
     7
 10
79.83564383287995
 20
-18.4149317708575
 30
0.0
  0
SEQEND
  5
985
  8
1
  6
CONTINUOUS
 62
     7
  0
POLYLINE
  5
986
  8
1
  6
CONTINUOUS
 62
     7
 66
     1
 10
0.0
 20
0.0
 30
0.0
  0
VERTEX
  5
987
  8
1
  6
CONTINUOUS
 62
     7
 10
79.64065142841474
 20
-18.48142211372278
 30
0.0
  0
VERTEX
  5
988
  8
1
  6
CONTINUOUS
 62
     7
 10
79.90178966619675
 20
-18.48142211372278
 30
0.0
  0
VERTEX
  5
989
  8
1
  6
CONTINUOUS
 62
     7
 10
79.83564383287995
 20
-18.4149317708575
 30
0.0
  0
SEQEND
  5
98A
  8
1
  6
CONTINUOUS
 62
     7
  0
POLYLINE
  5
98B
  8
1
  6
CONTINUOUS
 62
     7
 66
     1
 10
0.0
 20
0.0
 30
0.0
  0
VERTEX
  5
98C
  8
1
  6
CONTINUOUS
 62
     7
 10
79.90178966619675
 20
-18.48142211372278
 30
0.0
  0
VERTEX
  5
98D
  8
1
  6
CONTINUOUS
 62
     7
 10
79.83564383287995
 20
-18.4149317708575
 30
0.0
  0
VERTEX
  5
98E
  8
1
  6
CONTINUOUS
 62
     7
 10
79.96655746131944
 20
-18.4149317708575
 30
0.0
  0
SEQEND
  5
98F
  8
1
  6
CONTINUOUS
 62
     7
  0
POLYLINE
  5
990
  8
1
  6
CONTINUOUS
 62
     7
 66
     1
 10
0.0
 20
0.0
 30
0.0
  0
VERTEX
  5
991
  8
1
  6
CONTINUOUS
 62
     7
 10
79.44428098575554
 20
-18.4149317708575
 30
0.0
  0
VERTEX
  5
992
  8
1
  6
CONTINUOUS
 62
     7
 10
79.34575125487734
 20
-18.31674654952775
 30
0.0
  0
VERTEX
  5
993
  8
1
  6
CONTINUOUS
 62
     7
 10
79.70541922353743
 20
-18.31674654952775
 30
0.0
  0
SEQEND
  5
994
  8
1
  6
CONTINUOUS
 62
     7
  0
POLYLINE
  5
995
  8
1
  6
CONTINUOUS
 62
     7
 66
     1
 10
0.0
 20
0.0
 30
0.0
  0
VERTEX
  5
996
  8
1
  6
CONTINUOUS
 62
     7
 10
79.44428098575554
 20
-18.4149317708575
 30
0.0
  0
VERTEX
  5
997
  8
1
  6
CONTINUOUS
 62
     7
 10
79.83564383287995
 20
-18.4149317708575
 30
0.0
  0
VERTEX
  5
998
  8
1
  6
CONTINUOUS
 62
     7
 10
79.70541922353743
 20
-18.31674654952775
 30
0.0
  0
SEQEND
  5
999
  8
1
  6
CONTINUOUS
 62
     7
  0
POLYLINE
  5
99A
  8
1
  6
CONTINUOUS
 62
     7
 66
     1
 10
0.0
 20
0.0
 30
0.0
  0
VERTEX
  5
99B
  8
1
  6
CONTINUOUS
 62
     7
 10
79.83564383287995
 20
-18.4149317708575
 30
0.0
  0
VERTEX
  5
99C
  8
1
  6
CONTINUOUS
 62
     7
 10
79.70541922353743
 20
-18.31674654952775
 30
0.0
  0
VERTEX
  5
99D
  8
1
  6
CONTINUOUS
 62
     7
 10
80.13123302551435
 20
-18.31674654952775
 30
0.0
  0
SEQEND
  5
99E
  8
1
  6
CONTINUOUS
 62
     7
  0
POLYLINE
  5
99F
  8
1
  6
CONTINUOUS
 62
     7
 66
     1
 10
0.0
 20
0.0
 30
0.0
  0
VERTEX
  5
9A0
  8
1
  6
CONTINUOUS
 62
     7
 10
79.83564383287995
 20
-18.4149317708575
 30
0.0
  0
VERTEX
  5
9A1
  8
1
  6
CONTINUOUS
 62
     7
 10
79.96655746131944
 20
-18.4149317708575
 30
0.0
  0
VERTEX
  5
9A2
  8
1
  6
CONTINUOUS
 62
     7
 10
80.13123302551435
 20
-18.31674654952775
 30
0.0
  0
SEQEND
  5
9A3
  8
1
  6
CONTINUOUS
 62
     7
  0
POLYLINE
  5
9A4
  8
1
  6
CONTINUOUS
 62
     7
 66
     1
 10
0.0
 20
0.0
 30
0.0
  0
VERTEX
  5
9A5
  8
1
  6
CONTINUOUS
 62
     7
 10
79.34575125487734
 20
-18.31674654952775
 30
0.0
  0
VERTEX
  5
9A6
  8
1
  6
CONTINUOUS
 62
     7
 10
79.24791054309625
 20
-18.18686644973389
 30
0.0
  0
VERTEX
  5
9A7
  8
1
  6
CONTINUOUS
 62
     7
 10
79.57450559509795
 20
-18.18686644973389
 30
0.0
  0
SEQEND
  5
9A8
  8
1
  6
CONTINUOUS
 62
     7
  0
POLYLINE
  5
9A9
  8
1
  6
CONTINUOUS
 62
     7
 66
     1
 10
0.0
 20
0.0
 30
0.0
  0
VERTEX
  5
9AA
  8
1
  6
CONTINUOUS
 62
     7
 10
79.34575125487734
 20
-18.31674654952775
 30
0.0
  0
VERTEX
  5
9AB
  8
1
  6
CONTINUOUS
 62
     7
 10
79.70541922353743
 20
-18.31674654952775
 30
0.0
  0
VERTEX
  5
9AC
  8
1
  6
CONTINUOUS
 62
     7
 10
79.57450559509795
 20
-18.18686644973389
 30
0.0
  0
SEQEND
  5
9AD
  8
1
  6
CONTINUOUS
 62
     7
  0
POLYLINE
  5
9AE
  8
1
  6
CONTINUOUS
 62
     7
 66
     1
 10
0.0
 20
0.0
 30
0.0
  0
VERTEX
  5
9AF
  8
1
  6
CONTINUOUS
 62
     7
 10
79.70541922353743
 20
-18.31674654952775
 30
0.0
  0
VERTEX
  5
9B0
  8
1
  6
CONTINUOUS
 62
     7
 10
79.57450559509795
 20
-18.18686644973389
 30
0.0
  0
VERTEX
  5
9B1
  8
1
  6
CONTINUOUS
 62
     7
 10
80.16292790397864
 20
-18.18686644973389
 30
0.0
  0
SEQEND
  5
9B2
  8
1
  6
CONTINUOUS
 62
     7
  0
POLYLINE
  5
9B3
  8
1
  6
CONTINUOUS
 62
     7
 66
     1
 10
0.0
 20
0.0
 30
0.0
  0
VERTEX
  5
9B4
  8
1
  6
CONTINUOUS
 62
     7
 10
79.70541922353743
 20
-18.31674654952775
 30
0.0
  0
VERTEX
  5
9B5
  8
1
  6
CONTINUOUS
 62
     7
 10
80.13123302551435
 20
-18.31674654952775
 30
0.0
  0
VERTEX
  5
9B6
  8
1
  6
CONTINUOUS
 62
     7
 10
80.16292790397864
 20
-18.18686644973389
 30
0.0
  0
SEQEND
  5
9B7
  8
1
  6
CONTINUOUS
 62
     7
  0
POLYLINE
  5
9B8
  8
1
  6
CONTINUOUS
 62
     7
 66
     1
 10
0.0
 20
0.0
 30
0.0
  0
VERTEX
  5
9B9
  8
1
  6
CONTINUOUS
 62
     7
 10
79.24791054309625
 20
-18.18686644973389
 30
0.0
  0
VERTEX
  5
9BA
  8
1
  6
CONTINUOUS
 62
     7
 10
79.24791054309625
 20
-18.05560831174586
 30
0.0
  0
VERTEX
  5
9BB
  8
1
  6
CONTINUOUS
 62
     7
 10
79.41120806909714
 20
-18.05560831174586
 30
0.0
  0
SEQEND
  5
9BC
  8
1
  6
CONTINUOUS
 62
     7
  0
POLYLINE
  5
9BD
  8
1
  6
CONTINUOUS
 62
     7
 66
     1
 10
0.0
 20
0.0
 30
0.0
  0
VERTEX
  5
9BE
  8
1
  6
CONTINUOUS
 62
     7
 10
79.24791054309625
 20
-18.18686644973389
 30
0.0
  0
VERTEX
  5
9BF
  8
1
  6
CONTINUOUS
 62
     7
 10
79.57450559509795
 20
-18.18686644973389
 30
0.0
  0
VERTEX
  5
9C0
  8
1
  6
CONTINUOUS
 62
     7
 10
79.41120806909714
 20
-18.05560831174586
 30
0.0
  0
SEQEND
  5
9C1
  8
1
  6
CONTINUOUS
 62
     7
  0
POLYLINE
  5
9C2
  8
1
  6
CONTINUOUS
 62
     7
 66
     1
 10
0.0
 20
0.0
 30
0.0
  0
VERTEX
  5
9C3
  8
1
  6
CONTINUOUS
 62
     7
 10
79.57450559509795
 20
-18.18686644973389
 30
0.0
  0
VERTEX
  5
9C4
  8
1
  6
CONTINUOUS
 62
     7
 10
79.41120806909714
 20
-18.05560831174586
 30
0.0
  0
VERTEX
  5
9C5
  8
1
  6
CONTINUOUS
 62
     7
 10
80.22976275639243
 20
-18.05560831174586
 30
0.0
  0
SEQEND
  5
9C6
  8
1
  6
CONTINUOUS
 62
     7
  0
POLYLINE
  5
9C7
  8
1
  6
CONTINUOUS
 62
     7
 66
     1
 10
0.0
 20
0.0
 30
0.0
  0
VERTEX
  5
9C8
  8
1
  6
CONTINUOUS
 62
     7
 10
79.57450559509795
 20
-18.18686644973389
 30
0.0
  0
VERTEX
  5
9C9
  8
1
  6
CONTINUOUS
 62
     7
 10
80.16292790397864
 20
-18.18686644973389
 30
0.0
  0
VERTEX
  5
9CA
  8
1
  6
CONTINUOUS
 62
     7
 10
80.22976275639243
 20
-18.05560831174586
 30
0.0
  0
SEQEND
  5
9CB
  8
1
  6
CONTINUOUS
 62
     7
  0
POLYLINE
  5
9CC
  8
1
  6
CONTINUOUS
 62
     7
 66
     1
 10
0.0
 20
0.0
 30
0.0
  0
VERTEX
  5
9CD
  8
1
  6
CONTINUOUS
 62
     7
 10
79.24791054309625
 20
-18.05560831174586
 30
0.0
  0
VERTEX
  5
9CE
  8
1
  6
CONTINUOUS
 62
     7
 10
79.41120806909714
 20
-18.05560831174586
 30
0.0
  0
VERTEX
  5
9CF
  8
1
  6
CONTINUOUS
 62
     7
 10
79.24791054309625
 20
-17.89231078574511
 30
0.0
  0
SEQEND
  5
9D0
  8
1
  6
CONTINUOUS
 62
     7
  0
POLYLINE
  5
9D1
  8
1
  6
CONTINUOUS
 62
     7
 66
     1
 10
0.0
 20
0.0
 30
0.0
  0
VERTEX
  5
9D2
  8
1
  6
CONTINUOUS
 62
     7
 10
79.41120806909714
 20
-18.05560831174586
 30
0.0
  0
VERTEX
  5
9D3
  8
1
  6
CONTINUOUS
 62
     7
 10
79.24791054309625
 20
-17.89231078574511
 30
0.0
  0
VERTEX
  5
9D4
  8
1
  6
CONTINUOUS
 62
     7
 10
80.19668983973415
 20
-17.89231078574511
 30
0.0
  0
SEQEND
  5
9D5
  8
1
  6
CONTINUOUS
 62
     7
  0
POLYLINE
  5
9D6
  8
1
  6
CONTINUOUS
 62
     7
 66
     1
 10
0.0
 20
0.0
 30
0.0
  0
VERTEX
  5
9D7
  8
1
  6
CONTINUOUS
 62
     7
 10
79.41120806909714
 20
-18.05560831174586
 30
0.0
  0
VERTEX
  5
9D8
  8
1
  6
CONTINUOUS
 62
     7
 10
80.22976275639243
 20
-18.05560831174586
 30
0.0
  0
VERTEX
  5
9D9
  8
1
  6
CONTINUOUS
 62
     7
 10
80.19668983973415
 20
-17.89231078574511
 30
0.0
  0
SEQEND
  5
9DA
  8
1
  6
CONTINUOUS
 62
     7
  0
POLYLINE
  5
9DB
  8
1
  6
CONTINUOUS
 62
     7
 66
     1
 10
0.0
 20
0.0
 30
0.0
  0
VERTEX
  5
9DC
  8
1
  6
CONTINUOUS
 62
     7
 10
79.24791054309625
 20
-17.89231078574511
 30
0.0
  0
VERTEX
  5
9DD
  8
1
  6
CONTINUOUS
 62
     7
 10
79.28098345975465
 20
-17.76208617640259
 30
0.0
  0
VERTEX
  5
9DE
  8
1
  6
CONTINUOUS
 62
     7
 10
80.19668983973415
 20
-17.76208617640259
 30
0.0
  0
SEQEND
  5
9DF
  8
1
  6
CONTINUOUS
 62
     7
  0
POLYLINE
  5
9E0
  8
1
  6
CONTINUOUS
 62
     7
 66
     1
 10
0.0
 20
0.0
 30
0.0
  0
VERTEX
  5
9E1
  8
1
  6
CONTINUOUS
 62
     7
 10
79.24791054309625
 20
-17.89231078574511
 30
0.0
  0
VERTEX
  5
9E2
  8
1
  6
CONTINUOUS
 62
     7
 10
80.19668983973415
 20
-17.89231078574511
 30
0.0
  0
VERTEX
  5
9E3
  8
1
  6
CONTINUOUS
 62
     7
 10
80.19668983973415
 20
-17.76208617640259
 30
0.0
  0
SEQEND
  5
9E4
  8
1
  6
CONTINUOUS
 62
     7
  0
POLYLINE
  5
9E5
  8
1
  6
CONTINUOUS
 62
     7
 66
     1
 10
0.0
 20
0.0
 30
0.0
  0
VERTEX
  5
9E6
  8
1
  6
CONTINUOUS
 62
     7
 10
79.28098345975465
 20
-17.76208617640259
 30
0.0
  0
VERTEX
  5
9E7
  8
1
  6
CONTINUOUS
 62
     7
 10
79.31405637641305
 20
-17.69697387173136
 30
0.0
  0
VERTEX
  5
9E8
  8
1
  6
CONTINUOUS
 62
     7
 10
80.09816010885595
 20
-17.69697387173136
 30
0.0
  0
SEQEND
  5
9E9
  8
1
  6
CONTINUOUS
 62
     7
  0
POLYLINE
  5
9EA
  8
1
  6
CONTINUOUS
 62
     7
 66
     1
 10
0.0
 20
0.0
 30
0.0
  0
VERTEX
  5
9EB
  8
1
  6
CONTINUOUS
 62
     7
 10
79.28098345975465
 20
-17.76208617640259
 30
0.0
  0
VERTEX
  5
9EC
  8
1
  6
CONTINUOUS
 62
     7
 10
80.19668983973415
 20
-17.76208617640259
 30
0.0
  0
VERTEX
  5
9ED
  8
1
  6
CONTINUOUS
 62
     7
 10
80.09816010885595
 20
-17.69697387173136
 30
0.0
  0
SEQEND
  5
9EE
  8
1
  6
CONTINUOUS
 62
     7
  0
POLYLINE
  5
9EF
  8
1
  6
CONTINUOUS
 62
     7
 66
     1
 10
0.0
 20
0.0
 30
0.0
  0
VERTEX
  5
9F0
  8
1
  6
CONTINUOUS
 62
     7
 10
79.31405637641305
 20
-17.69697387173136
 30
0.0
  0
VERTEX
  5
9F1
  8
1
  6
CONTINUOUS
 62
     7
 10
79.47597586421983
 20
-17.56571573374339
 30
0.0
  0
VERTEX
  5
9F2
  8
1
  6
CONTINUOUS
 62
     7
 10
80.00031939707483
 20
-17.56571573374339
 30
0.0
  0
SEQEND
  5
9F3
  8
1
  6
CONTINUOUS
 62
     7
  0
POLYLINE
  5
9F4
  8
1
  6
CONTINUOUS
 62
     7
 66
     1
 10
0.0
 20
0.0
 30
0.0
  0
VERTEX
  5
9F5
  8
1
  6
CONTINUOUS
 62
     7
 10
79.31405637641305
 20
-17.69697387173136
 30
0.0
  0
VERTEX
  5
9F6
  8
1
  6
CONTINUOUS
 62
     7
 10
80.09816010885595
 20
-17.69697387173136
 30
0.0
  0
VERTEX
  5
9F7
  8
1
  6
CONTINUOUS
 62
     7
 10
80.00031939707483
 20
-17.56571573374339
 30
0.0
  0
SEQEND
  5
9F8
  8
1
  6
CONTINUOUS
 62
     7
  0
POLYLINE
  5
9F9
  8
1
  6
CONTINUOUS
 62
     7
 66
     1
 10
0.0
 20
0.0
 30
0.0
  0
VERTEX
  5
9FA
  8
1
  6
CONTINUOUS
 62
     7
 10
79.47597586421983
 20
-17.56571573374339
 30
0.0
  0
VERTEX
  5
9FB
  8
1
  6
CONTINUOUS
 62
     7
 10
79.50904878087823
 20
-17.53264281708499
 30
0.0
  0
VERTEX
  5
9FC
  8
1
  6
CONTINUOUS
 62
     7
 10
79.90178966619675
 20
-17.53264281708499
 30
0.0
  0
SEQEND
  5
9FD
  8
1
  6
CONTINUOUS
 62
     7
  0
POLYLINE
  5
9FE
  8
1
  6
CONTINUOUS
 62
     7
 66
     1
 10
0.0
 20
0.0
 30
0.0
  0
VERTEX
  5
9FF
  8
1
  6
CONTINUOUS
 62
     7
 10
79.47597586421983
 20
-17.56571573374339
 30
0.0
  0
VERTEX
  5
A00
  8
1
  6
CONTINUOUS
 62
     7
 10
80.00031939707483
 20
-17.56571573374339
 30
0.0
  0
VERTEX
  5
A01
  8
1
  6
CONTINUOUS
 62
     7
 10
79.90178966619675
 20
-17.53264281708499
 30
0.0
  0
SEQEND
  5
A02
  8
1
  6
CONTINUOUS
 62
     7
  0
POLYLINE
  5
A03
  8
1
  6
CONTINUOUS
 62
     7
 66
     1
 10
0.0
 20
0.0
 30
0.0
  0
VERTEX
  5
A04
  8
1
  6
CONTINUOUS
 62
     7
 10
79.50904878087823
 20
-17.53264281708499
 30
0.0
  0
VERTEX
  5
A05
  8
1
  6
CONTINUOUS
 62
     7
 10
79.90178966619675
 20
-17.53264281708499
 30
0.0
  0
VERTEX
  5
A06
  8
1
  6
CONTINUOUS
 62
     7
 10
79.73849214019583
 20
-17.4995699004266
 30
0.0
  0
SEQEND
  5
A07
  8
1
  6
CONTINUOUS
 62
     7
  0
POLYLINE
  5
A08
  8
1
  6
CONTINUOUS
 62
     7
 66
     1
 10
0.0
 20
0.0
 30
0.0
  0
VERTEX
  5
A09
  8
1
  6
CONTINUOUS
 62
     7
 10
80.22976275639243
 20
-17.99049600707469
 30
0.0
  0
VERTEX
  5
A0A
  8
1
  6
CONTINUOUS
 62
     7
 10
80.16292790397864
 20
-18.25163424485658
 30
0.0
  0
VERTEX
  5
A0B
  8
1
  6
CONTINUOUS
 62
     7
 10
79.96655746131944
 20
-18.4149317708575
 30
0.0
  0
VERTEX
  5
A0C
  8
1
  6
CONTINUOUS
 62
     7
 10
79.73849214019583
 20
-18.51449503038117
 30
0.0
  0
VERTEX
  5
A0D
  8
1
  6
CONTINUOUS
 62
     7
 10
79.47597586421983
 20
-18.4149317708575
 30
0.0
  0
VERTEX
  5
A0E
  8
1
  6
CONTINUOUS
 62
     7
 10
79.28098345975465
 20
-18.25163424485658
 30
0.0
  0
VERTEX
  5
A0F
  8
1
  6
CONTINUOUS
 62
     7
 10
79.21552664553494
 20
-17.99049600707469
 30
0.0
  0
VERTEX
  5
A10
  8
1
  6
CONTINUOUS
 62
     7
 10
79.28098345975465
 20
-17.7290132597442
 30
0.0
  0
VERTEX
  5
A11
  8
1
  6
CONTINUOUS
 62
     7
 10
79.47597586421983
 20
-17.56571573374339
 30
0.0
  0
VERTEX
  5
A12
  8
1
  6
CONTINUOUS
 62
     7
 10
79.73849214019583
 20
-17.4995699004266
 30
0.0
  0
VERTEX
  5
A13
  8
1
  6
CONTINUOUS
 62
     7
 10
79.96655746131944
 20
-17.56571573374339
 30
0.0
  0
VERTEX
  5
A14
  8
1
  6
CONTINUOUS
 62
     7
 10
80.16292790397864
 20
-17.7290132597442
 30
0.0
  0
VERTEX
  5
A15
  8
1
  6
CONTINUOUS
 62
     7
 10
80.22976275639243
 20
-17.99049600707469
 30
0.0
  0
SEQEND
  5
A16
  8
1
  6
CONTINUOUS
 62
     7
  0
POLYLINE
  5
A17
  8
1
  6
CONTINUOUS
 62
     7
 66
     1
 10
0.0
 20
0.0
 30
0.0
  0
VERTEX
  5
A18
  8
1
  6
CONTINUOUS
 62
     7
 10
80.22976275639243
 20
-21.32603745589359
 30
0.0
  0
VERTEX
  5
A19
  8
1
  6
CONTINUOUS
 62
     7
 10
80.16292790397864
 20
-21.55548081521119
 30
0.0
  0
VERTEX
  5
A1A
  8
1
  6
CONTINUOUS
 62
     7
 10
79.96655746131944
 20
-21.7518512578705
 30
0.0
  0
VERTEX
  5
A1B
  8
1
  6
CONTINUOUS
 62
     7
 10
79.73849214019583
 20
-21.81696356254168
 30
0.0
  0
VERTEX
  5
A1C
  8
1
  6
CONTINUOUS
 62
     7
 10
79.47597586421983
 20
-21.7518512578705
 30
0.0
  0
VERTEX
  5
A1D
  8
1
  6
CONTINUOUS
 62
     7
 10
79.28098345975465
 20
-21.55548081521119
 30
0.0
  0
VERTEX
  5
A1E
  8
1
  6
CONTINUOUS
 62
     7
 10
79.21552664553494
 20
-21.32603745589359
 30
0.0
  0
VERTEX
  5
A1F
  8
1
  6
CONTINUOUS
 62
     7
 10
79.28098345975465
 20
-21.0645547085631
 30
0.0
  0
VERTEX
  5
A20
  8
1
  6
CONTINUOUS
 62
     7
 10
79.47597586421983
 20
-20.8681842659039
 30
0.0
  0
VERTEX
  5
A21
  8
1
  6
CONTINUOUS
 62
     7
 10
79.73849214019583
 20
-20.80307196123261
 30
0.0
  0
VERTEX
  5
A22
  8
1
  6
CONTINUOUS
 62
     7
 10
79.96655746131944
 20
-20.8681842659039
 30
0.0
  0
VERTEX
  5
A23
  8
1
  6
CONTINUOUS
 62
     7
 10
80.16292790397864
 20
-21.0645547085631
 30
0.0
  0
VERTEX
  5
A24
  8
1
  6
CONTINUOUS
 62
     7
 10
80.22976275639243
 20
-21.32603745589359
 30
0.0
  0
SEQEND
  5
A25
  8
1
  6
CONTINUOUS
 62
     7
  0
LINE
  5
A26
  8
1
  6
CONTINUOUS
 62
     7
 10
40.26527708930024
 20
66.68547239623553
 30
0.0
 11
41.73564384240493
 21
66.68547239623553
 31
0.0
  0
LINE
  5
A27
  8
1
  6
CONTINUOUS
 62
     7
 10
40.26527708930024
 20
69.20383719595316
 30
0.0
 11
41.73564384240493
 21
69.20383719595316
 31
0.0
  0
POLYLINE
  5
A28
  8
1
  6
CONTINUOUS
 62
     7
 66
     1
 10
0.0
 20
0.0
 30
0.0
  0
VERTEX
  5
A29
  8
1
  6
CONTINUOUS
 62
     7
 10
83.49915837189465
 20
50.88970959636498
 30
0.0
  0
VERTEX
  5
A2A
  8
1
  6
CONTINUOUS
 62
     7
 10
83.49915837189465
 20
50.49765773014354
 30
0.0
  0
VERTEX
  5
A2B
  8
1
  6
CONTINUOUS
 62
     7
 10
78.65879921511853
 20
50.49765773014354
 30
0.0
  0
SEQEND
  5
A2C
  8
1
  6
CONTINUOUS
 62
     7
  0
LINE
  5
A2D
  8
1
  6
CONTINUOUS
 62
     7
 10
83.49915837189465
 20
50.88970959636498
 30
0.0
 11
78.65879921511853
 21
50.88970959636498
 31
0.0
  0
POLYLINE
  5
A2E
  8
1
  6
CONTINUOUS
 62
     7
 66
     1
 10
0.0
 20
0.0
 30
0.0
  0
VERTEX
  5
A2F
  8
1
  6
CONTINUOUS
 62
     7
 10
74.83198715010303
 20
52.85203598476329
 30
0.0
  0
VERTEX
  5
A30
  8
1
  6
CONTINUOUS
 62
     7
 10
75.32325776629963
 20
52.29599757344403
 30
0.0
  0
VERTEX
  5
A31
  8
1
  6
CONTINUOUS
 62
     7
 10
75.87860715852193
 20
51.80507146679588
 30
0.0
  0
VERTEX
  5
A32
  8
1
  6
CONTINUOUS
 62
     7
 10
76.50079140315805
 20
51.41301960057444
 30
0.0
  0
VERTEX
  5
A33
  8
1
  6
CONTINUOUS
 62
     7
 10
77.18705442381983
 20
51.11915295568264
 30
0.0
  0
VERTEX
  5
A34
  8
1
  6
CONTINUOUS
 62
     7
 10
77.90776839933403
 20
50.95516641058475
 30
0.0
  0
VERTEX
  5
A35
  8
1
  6
CONTINUOUS
 62
     7
 10
78.65879921511853
 20
50.88970959636498
 30
0.0
  0
SEQEND
  5
A36
  8
1
  6
CONTINUOUS
 62
     7
  0
POLYLINE
  5
A37
  8
1
  6
CONTINUOUS
 62
     7
 66
     1
 10
0.0
 20
0.0
 30
0.0
  0
VERTEX
  5
A38
  8
1
  6
CONTINUOUS
 62
     7
 10
74.50539209810134
 20
52.62293713499417
 30
0.0
  0
VERTEX
  5
A39
  8
1
  6
CONTINUOUS
 62
     7
 10
75.02835759276235
 20
52.00144190945514
 30
0.0
  0
VERTEX
  5
A3A
  8
1
  6
CONTINUOUS
 62
     7
 10
75.65054183739844
 20
51.47882092434276
 30
0.0
  0
VERTEX
  5
A3B
  8
1
  6
CONTINUOUS
 62
     7
 10
76.33680485806013
 20
51.05335163191438
 30
0.0
  0
VERTEX
  5
A3C
  8
1
  6
CONTINUOUS
 62
     7
 10
77.05682981447745
 20
50.75879596792555
 30
0.0
  0
VERTEX
  5
A3D
  8
1
  6
CONTINUOUS
 62
     7
 10
77.84162256601735
 20
50.56311454436332
 30
0.0
  0
VERTEX
  5
A3E
  8
1
  6
CONTINUOUS
 62
     7
 10
78.65879921511853
 20
50.49765773014354
 30
0.0
  0
SEQEND
  5
A3F
  8
1
  6
CONTINUOUS
 62
     7
  0
LINE
  5
A40
  8
1
  6
CONTINUOUS
 62
     7
 10
66.62439166604383
 20
-15.99475219246938
 30
0.0
 11
67.40987343668073
 21
-15.99475219246938
 31
0.0
  0
LINE
  5
A41
  8
1
  6
CONTINUOUS
 62
     7
 10
76.23827512718205
 20
-15.99475219246938
 30
0.0
 11
83.49915837189465
 21
-15.99475219246938
 31
0.0
  0
LINE
  5
A42
  8
1
  6
CONTINUOUS
 62
     7
 10
66.62439166604383
 20
-22.79743773764381
 30
0.0
 11
67.40987343668073
 21
-22.79743773764381
 31
0.0
  0
POLYLINE
  5
A43
  8
1
  6
CONTINUOUS
 62
     7
 66
     1
 10
0.0
 20
0.0
 30
0.0
  0
VERTEX
  5
A44
  8
1
  6
CONTINUOUS
 62
     7
 10
76.23827512718205
 20
-22.79743773764381
 30
0.0
  0
VERTEX
  5
A45
  8
1
  6
CONTINUOUS
 62
     7
 10
83.49915837189465
 20
-22.79743773764381
 30
0.0
  0
VERTEX
  5
A46
  8
1
  6
CONTINUOUS
 62
     7
 10
83.49915837189465
 20
-15.99475219246938
 30
0.0
  0
SEQEND
  5
A47
  8
1
  6
CONTINUOUS
 62
     7
  0
LINE
  5
A48
  8
1
  6
CONTINUOUS
 62
     7
 10
66.62439166604383
 20
-22.79743773764381
 30
0.0
 11
66.62439166604383
 21
-15.99475219246938
 31
0.0
  0
POLYLINE
  5
A49
  8
1
  6
CONTINUOUS
 62
     7
 66
     1
 10
0.0
 20
0.0
 30
0.0
  0
VERTEX
  5
A4A
  8
1
  6
CONTINUOUS
 62
     7
 10
72.18339774104294
 20
-18.3832368923932
 30
0.0
  0
VERTEX
  5
A4B
  8
1
  6
CONTINUOUS
 62
     7
 10
71.59566405263705
 20
-18.67779223659241
 30
0.0
 42
-0.0473536891625423
  0
VERTEX
  5
A4C
  8
1
  6
CONTINUOUS
 62
     7
 10
70.94389243268796
 20
-18.82018287847841
 30
0.0
 42
-0.0495691910877831
  0
VERTEX
  5
A4D
  8
1
  6
CONTINUOUS
 62
     7
 10
70.30037305263704
 20
-18.8339522365924
 30
0.0
 42
-0.0718416820329053
  0
VERTEX
  5
A4E
  8
1
  6
CONTINUOUS
 62
     7
 10
69.4152550923869
 20
-18.63499868954829
 30
0.0
 42
-0.0752085431130941
  0
VERTEX
  5
A4F
  8
1
  6
CONTINUOUS
 62
     7
 10
68.59672205263702
 20
-18.17211023659241
 30
0.0
 42
-0.0363916829289553
  0
VERTEX
  5
A50
  8
1
  6
CONTINUOUS
 62
     7
 10
68.25437300718227
 20
-17.8610442492225
 30
0.0
 42
-0.0364111306991852
  0
VERTEX
  5
A51
  8
1
  6
CONTINUOUS
 62
     7
 10
67.95236005263702
 20
-17.4933952365924
 30
0.0
 42
-0.0362528837744821
  0
VERTEX
  5
A52
  8
1
  6
CONTINUOUS
 62
     7
 10
67.70271838254784
 20
-17.07921713234812
 30
0.0
 42
-0.0354019815014505
  0
VERTEX
  5
A53
  8
1
  6
CONTINUOUS
 62
     7
 10
67.50771414846193
 20
-16.61693643710561
 30
0.0
  0
VERTEX
  5
A54
  8
1
  6
CONTINUOUS
 62
     7
 10
67.40987343668073
 20
-15.99475219246938
 30
0.0
  0
SEQEND
  5
A55
  8
1
  6
CONTINUOUS
 62
     7
  0
LINE
  5
A56
  8
1
  6
CONTINUOUS
 62
     7
 10
76.23827512718205
 20
-15.99475219246938
 30
0.0
 11
72.18339774104294
 21
-18.3832368923932
 31
0.0
  0
POLYLINE
  5
A57
  8
1
  6
CONTINUOUS
 62
     7
 66
     1
 10
0.0
 20
0.0
 30
0.0
  0
VERTEX
  5
A58
  8
1
  6
CONTINUOUS
 62
     7
 10
72.18339774104294
 20
-25.21761731603181
 30
0.0
  0
VERTEX
  5
A59
  8
1
  6
CONTINUOUS
 62
     7
 10
71.59566405263703
 20
-25.48013323659238
 30
0.0
 42
-0.0473874929935197
  0
VERTEX
  5
A5A
  8
1
  6
CONTINUOUS
 62
     7
 10
70.94394983013683
 20
-25.62258710051022
 30
0.0
 42
-0.04959990556066
  0
VERTEX
  5
A5B
  8
1
  6
CONTINUOUS
 62
     7
 10
70.30037305263704
 20
-25.63634623659239
 30
0.0
 42
-0.071735809163962
  0
VERTEX
  5
A5C
  8
1
  6
CONTINUOUS
 62
     7
 10
69.41667685151194
 20
-25.43783679617382
 30
0.0
 42
-0.0752987829932592
  0
VERTEX
  5
A5D
  8
1
  6
CONTINUOUS
 62
     7
 10
68.59672205263703
 20
-24.97432323659239
 30
0.0
 42
-0.0363699038142166
  0
VERTEX
  5
A5E
  8
1
  6
CONTINUOUS
 62
     7
 10
68.25439324347514
 20
-24.66329316867769
 30
0.0
 42
-0.0363970480174348
  0
VERTEX
  5
A5F
  8
1
  6
CONTINUOUS
 62
     7
 10
67.95236005263703
 20
-24.2956942365924
 30
0.0
 42
-0.0362391091798861
  0
VERTEX
  5
A60
  8
1
  6
CONTINUOUS
 62
     7
 10
67.70271446689307
 20
-23.8816559086315
 30
0.0
 42
-0.0354020116995208
  0
VERTEX
  5
A61
  8
1
  6
CONTINUOUS
 62
     7
 10
67.50771414846193
 20
-23.41962198227987
 30
0.0
  0
VERTEX
  5
A62
  8
1
  6
CONTINUOUS
 62
     7
 10
67.40987343668073
 20
-22.79743773764381
 30
0.0
  0
SEQEND
  5
A63
  8
1
  6
CONTINUOUS
 62
     7
  0
POLYLINE
  5
A64
  8
1
  6
CONTINUOUS
 62
     7
 66
     1
 10
0.0
 20
0.0
 30
0.0
  0
VERTEX
  5
A65
  8
1
  6
CONTINUOUS
 62
     7
 10
72.18339774104294
 20
-25.21761731603181
 30
0.0
  0
VERTEX
  5
A66
  8
1
  6
CONTINUOUS
 62
     7
 10
76.23827512718205
 20
-22.79743773764381
 30
0.0
  0
VERTEX
  5
A67
  8
1
  6
CONTINUOUS
 62
     7
 10
76.23827512718205
 20
-15.99475219246938
 30
0.0
  0
SEQEND
  5
A68
  8
1
  6
CONTINUOUS
 62
     7
  0
LINE
  5
A69
  8
1
  6
CONTINUOUS
 62
     7
 10
67.40987343668073
 20
-15.99475219246938
 30
0.0
 11
67.40987343668073
 21
-22.79743773764381
 31
0.0
  0
LINE
  5
A6A
  8
1
  6
CONTINUOUS
 62
     7
 10
71.72588906060173
 20
-21.29399806788075
 30
0.0
 11
71.72588906060173
 21
-23.22325153962067
 31
0.0
  0
POLYLINE
  5
A6B
  8
1
  6
CONTINUOUS
 62
     7
 66
     1
 10
0.0
 20
0.0
 30
0.0
  0
VERTEX
  5
A6C
  8
1
  6
CONTINUOUS
 62
     7
 10
70.05777382664385
 20
-22.07844630987205
 30
0.0
  0
VERTEX
  5
A6D
  8
1
  6
CONTINUOUS
 62
     7
 10
71.39860498950304
 20
-21.09659409657587
 30
0.0
  0
VERTEX
  5
A6E
  8
1
  6
CONTINUOUS
 62
     7
 10
71.52951861794253
 20
-21.0645547085631
 30
0.0
  0
VERTEX
  5
A6F
  8
1
  6
CONTINUOUS
 62
     7
 10
71.65974322728505
 20
-21.12966701323427
 30
0.0
  0
VERTEX
  5
A70
  8
1
  6
CONTINUOUS
 62
     7
 10
71.72588906060173
 20
-21.29399806788075
 30
0.0
  0
SEQEND
  5
A71
  8
1
  6
CONTINUOUS
 62
     7
  0
LINE
  5
A72
  8
1
  6
CONTINUOUS
 62
     7
 10
70.05777382664385
 20
-22.40469685232529
 30
0.0
 11
71.39860498950304
 21
-23.38654906562147
 31
0.0
  0
POLYLINE
  5
A73
  8
1
  6
CONTINUOUS
 62
     7
 66
     1
 10
0.0
 20
0.0
 30
0.0
  0
VERTEX
  5
A74
  8
1
  6
CONTINUOUS
 62
     7
 10
71.72588906060173
 20
-23.22325153962067
 30
0.0
  0
VERTEX
  5
A75
  8
1
  6
CONTINUOUS
 62
     7
 10
71.65974322728505
 20
-23.35347614896307
 30
0.0
  0
VERTEX
  5
A76
  8
1
  6
CONTINUOUS
 62
     7
 10
71.52951861794253
 20
-23.41962198227987
 30
0.0
  0
VERTEX
  5
A77
  8
1
  6
CONTINUOUS
 62
     7
 10
71.39860498950304
 20
-23.38654906562147
 30
0.0
  0
SEQEND
  5
A78
  8
1
  6
CONTINUOUS
 62
     7
  0
POLYLINE
  5
A79
  8
1
  6
CONTINUOUS
 62
     7
 66
     1
 10
0.0
 20
0.0
 30
0.0
  0
VERTEX
  5
A7A
  8
1
  6
CONTINUOUS
 62
     7
 10
70.05777382664385
 20
-22.40469685232529
 30
0.0
  0
VERTEX
  5
A7B
  8
1
  6
CONTINUOUS
 62
     7
 10
69.95993311486274
 20
-22.24277736451848
 30
0.0
  0
VERTEX
  5
A7C
  8
1
  6
CONTINUOUS
 62
     7
 10
70.05777382664385
 20
-22.07844630987205
 30
0.0
  0
SEQEND
  5
A7D
  8
1
  6
CONTINUOUS
 62
     7
  0
POLYLINE
  5
A7E
  8
1
  6
CONTINUOUS
 62
     7
 66
     1
 10
0.0
 20
0.0
 30
0.0
  0
VERTEX
  5
A7F
  8
1
  6
CONTINUOUS
 62
     7
 10
70.28652816686443
 20
-22.373001973861
 30
0.0
  0
VERTEX
  5
A80
  8
1
  6
CONTINUOUS
 62
     7
 10
70.22244939083873
 20
-22.24277736451848
 30
0.0
  0
VERTEX
  5
A81
  8
1
  6
CONTINUOUS
 62
     7
 10
70.28652816686443
 20
-22.11151922653051
 30
0.0
  0
SEQEND
  5
A82
  8
1
  6
CONTINUOUS
 62
     7
  0
LINE
  5
A83
  8
1
  6
CONTINUOUS
 62
     7
 10
71.39860498950304
 20
-23.38654906562147
 30
0.0
 11
70.28652816686443
 21
-22.373001973861
 31
0.0
  0
LINE
  5
A84
  8
1
  6
CONTINUOUS
 62
     7
 10
71.39860498950304
 20
-21.09659409657587
 30
0.0
 11
70.28652816686443
 21
-22.11151922653051
 31
0.0
  0
POLYLINE
  5
A85
  8
1
  6
CONTINUOUS
 62
     7
 66
     1
 10
0.0
 20
0.0
 30
0.0
  0
VERTEX
  5
A86
  8
1
  6
CONTINUOUS
 62
     7
 10
79.73849214019583
 20
-21.81696356254168
 30
0.0
  0
VERTEX
  5
A87
  8
1
  6
CONTINUOUS
 62
     7
 10
79.47597586421983
 20
-21.7518512578705
 30
0.0
  0
VERTEX
  5
A88
  8
1
  6
CONTINUOUS
 62
     7
 10
79.96655746131944
 20
-21.7518512578705
 30
0.0
  0
SEQEND
  5
A89
  8
1
  6
CONTINUOUS
 62
     7
  0
POLYLINE
  5
A8A
  8
1
  6
CONTINUOUS
 62
     7
 66
     1
 10
0.0
 20
0.0
 30
0.0
  0
VERTEX
  5
A8B
  8
1
  6
CONTINUOUS
 62
     7
 10
79.47597586421983
 20
-21.7518512578705
 30
0.0
  0
VERTEX
  5
A8C
  8
1
  6
CONTINUOUS
 62
     7
 10
79.28098345975465
 20
-21.55548081521119
 30
0.0
  0
VERTEX
  5
A8D
  8
1
  6
CONTINUOUS
 62
     7
 10
80.16292790397864
 20
-21.55548081521119
 30
0.0
  0
SEQEND
  5
A8E
  8
1
  6
CONTINUOUS
 62
     7
  0
POLYLINE
  5
A8F
  8
1
  6
CONTINUOUS
 62
     7
 66
     1
 10
0.0
 20
0.0
 30
0.0
  0
VERTEX
  5
A90
  8
1
  6
CONTINUOUS
 62
     7
 10
79.47597586421983
 20
-21.7518512578705
 30
0.0
  0
VERTEX
  5
A91
  8
1
  6
CONTINUOUS
 62
     7
 10
79.96655746131944
 20
-21.7518512578705
 30
0.0
  0
VERTEX
  5
A92
  8
1
  6
CONTINUOUS
 62
     7
 10
80.16292790397864
 20
-21.55548081521119
 30
0.0
  0
SEQEND
  5
A93
  8
1
  6
CONTINUOUS
 62
     7
  0
POLYLINE
  5
A94
  8
1
  6
CONTINUOUS
 62
     7
 66
     1
 10
0.0
 20
0.0
 30
0.0
  0
VERTEX
  5
A95
  8
1
  6
CONTINUOUS
 62
     7
 10
79.28098345975465
 20
-21.55548081521119
 30
0.0
  0
VERTEX
  5
A96
  8
1
  6
CONTINUOUS
 62
     7
 10
79.21552664553494
 20
-21.32603745589359
 30
0.0
  0
VERTEX
  5
A97
  8
1
  6
CONTINUOUS
 62
     7
 10
80.22976275639243
 20
-21.32603745589359
 30
0.0
  0
SEQEND
  5
A98
  8
1
  6
CONTINUOUS
 62
     7
  0
POLYLINE
  5
A99
  8
1
  6
CONTINUOUS
 62
     7
 66
     1
 10
0.0
 20
0.0
 30
0.0
  0
VERTEX
  5
A9A
  8
1
  6
CONTINUOUS
 62
     7
 10
79.28098345975465
 20
-21.55548081521119
 30
0.0
  0
VERTEX
  5
A9B
  8
1
  6
CONTINUOUS
 62
     7
 10
80.16292790397864
 20
-21.55548081521119
 30
0.0
  0
VERTEX
  5
A9C
  8
1
  6
CONTINUOUS
 62
     7
 10
80.22976275639243
 20
-21.32603745589359
 30
0.0
  0
SEQEND
  5
A9D
  8
1
  6
CONTINUOUS
 62
     7
  0
POLYLINE
  5
A9E
  8
1
  6
CONTINUOUS
 62
     7
 66
     1
 10
0.0
 20
0.0
 30
0.0
  0
VERTEX
  5
A9F
  8
1
  6
CONTINUOUS
 62
     7
 10
79.21552664553494
 20
-21.32603745589359
 30
0.0
  0
VERTEX
  5
AA0
  8
1
  6
CONTINUOUS
 62
     7
 10
79.28098345975465
 20
-21.0645547085631
 30
0.0
  0
VERTEX
  5
AA1
  8
1
  6
CONTINUOUS
 62
     7
 10
80.16292790397864
 20
-21.0645547085631
 30
0.0
  0
SEQEND
  5
AA2
  8
1
  6
CONTINUOUS
 62
     7
  0
POLYLINE
  5
AA3
  8
1
  6
CONTINUOUS
 62
     7
 66
     1
 10
0.0
 20
0.0
 30
0.0
  0
VERTEX
  5
AA4
  8
1
  6
CONTINUOUS
 62
     7
 10
79.21552664553494
 20
-21.32603745589359
 30
0.0
  0
VERTEX
  5
AA5
  8
1
  6
CONTINUOUS
 62
     7
 10
80.22976275639243
 20
-21.32603745589359
 30
0.0
  0
VERTEX
  5
AA6
  8
1
  6
CONTINUOUS
 62
     7
 10
80.16292790397864
 20
-21.0645547085631
 30
0.0
  0
SEQEND
  5
AA7
  8
1
  6
CONTINUOUS
 62
     7
  0
POLYLINE
  5
AA8
  8
1
  6
CONTINUOUS
 62
     7
 66
     1
 10
0.0
 20
0.0
 30
0.0
  0
VERTEX
  5
AA9
  8
1
  6
CONTINUOUS
 62
     7
 10
79.28098345975465
 20
-21.0645547085631
 30
0.0
  0
VERTEX
  5
AAA
  8
1
  6
CONTINUOUS
 62
     7
 10
79.47597586421983
 20
-20.8681842659039
 30
0.0
  0
VERTEX
  5
AAB
  8
1
  6
CONTINUOUS
 62
     7
 10
79.96655746131944
 20
-20.8681842659039
 30
0.0
  0
SEQEND
  5
AAC
  8
1
  6
CONTINUOUS
 62
     7
  0
POLYLINE
  5
AAD
  8
1
  6
CONTINUOUS
 62
     7
 66
     1
 10
0.0
 20
0.0
 30
0.0
  0
VERTEX
  5
AAE
  8
1
  6
CONTINUOUS
 62
     7
 10
79.28098345975465
 20
-21.0645547085631
 30
0.0
  0
VERTEX
  5
AAF
  8
1
  6
CONTINUOUS
 62
     7
 10
80.16292790397864
 20
-21.0645547085631
 30
0.0
  0
VERTEX
  5
AB0
  8
1
  6
CONTINUOUS
 62
     7
 10
79.96655746131944
 20
-20.8681842659039
 30
0.0
  0
SEQEND
  5
AB1
  8
1
  6
CONTINUOUS
 62
     7
  0
POLYLINE
  5
AB2
  8
1
  6
CONTINUOUS
 62
     7
 66
     1
 10
0.0
 20
0.0
 30
0.0
  0
VERTEX
  5
AB3
  8
1
  6
CONTINUOUS
 62
     7
 10
79.47597586421983
 20
-20.8681842659039
 30
0.0
  0
VERTEX
  5
AB4
  8
1
  6
CONTINUOUS
 62
     7
 10
79.96655746131944
 20
-20.8681842659039
 30
0.0
  0
VERTEX
  5
AB5
  8
1
  6
CONTINUOUS
 62
     7
 10
79.73849214019583
 20
-20.80307196123261
 30
0.0
  0
SEQEND
  5
AB6
  8
1
  6
CONTINUOUS
 62
     7
  0
POLYLINE
  5
AB7
  8
1
  6
CONTINUOUS
 62
     7
 66
     1
 10
0.0
 20
0.0
 30
0.0
  0
VERTEX
  5
AB8
  8
1
  6
CONTINUOUS
 62
     7
 10
79.73849214019583
 20
-18.51449503038117
 30
0.0
  0
VERTEX
  5
AB9
  8
1
  6
CONTINUOUS
 62
     7
 10
79.70541922353743
 20
-18.48142211372278
 30
0.0
  0
VERTEX
  5
ABA
  8
1
  6
CONTINUOUS
 62
     7
 10
79.80394895441563
 20
-18.48142211372278
 30
0.0
  0
SEQEND
  5
ABB
  8
1
  6
CONTINUOUS
 62
     7
  0
POLYLINE
  5
ABC
  8
1
  6
CONTINUOUS
 62
     7
 66
     1
 10
0.0
 20
0.0
 30
0.0
  0
VERTEX
  5
ABD
  8
1
  6
CONTINUOUS
 62
     7
 10
79.70541922353743
 20
-18.48142211372278
 30
0.0
  0
VERTEX
  5
ABE
  8
1
  6
CONTINUOUS
 62
     7
 10
79.64065142841474
 20
-18.48142211372278
 30
0.0
  0
VERTEX
  5
ABF
  8
1
  6
CONTINUOUS
 62
     7
 10
79.90178966619675
 20
-18.48142211372278
 30
0.0
  0
SEQEND
  5
AC0
  8
1
  6
CONTINUOUS
 62
     7
  0
LINE
  5
AC1
  8
1
  6
CONTINUOUS
 62
     7
 10
79.70541922353743
 20
-18.48142211372278
 30
0.0
 11
79.90178966619675
 21
-18.48142211372278
 31
0.0
  0
POLYLINE
  5
AC2
  8
1
  6
CONTINUOUS
 62
     7
 66
     1
 10
0.0
 20
0.0
 30
0.0
  0
VERTEX
  5
AC3
  8
1
  6
CONTINUOUS
 62
     7
 10
79.64065142841474
 20
-18.48142211372278
 30
0.0
  0
VERTEX
  5
AC4
  8
1
  6
CONTINUOUS
 62
     7
 10
79.44428098575554
 20
-18.4149317708575
 30
0.0
  0
VERTEX
  5
AC5
  8
1
  6
CONTINUOUS
 62
     7
 10
79.83564383287995
 20
-18.4149317708575
 30
0.0
  0
SEQEND
  5
AC6
  8
1
  6
CONTINUOUS
 62
     7
  0
POLYLINE
  5
AC7
  8
1
  6
CONTINUOUS
 62
     7
 66
     1
 10
0.0
 20
0.0
 30
0.0
  0
VERTEX
  5
AC8
  8
1
  6
CONTINUOUS
 62
     7
 10
79.64065142841474
 20
-18.48142211372278
 30
0.0
  0
VERTEX
  5
AC9
  8
1
  6
CONTINUOUS
 62
     7
 10
79.90178966619675
 20
-18.48142211372278
 30
0.0
  0
VERTEX
  5
ACA
  8
1
  6
CONTINUOUS
 62
     7
 10
79.83564383287995
 20
-18.4149317708575
 30
0.0
  0
SEQEND
  5
ACB
  8
1
  6
CONTINUOUS
 62
     7
  0
POLYLINE
  5
ACC
  8
1
  6
CONTINUOUS
 62
     7
 66
     1
 10
0.0
 20
0.0
 30
0.0
  0
VERTEX
  5
ACD
  8
1
  6
CONTINUOUS
 62
     7
 10
79.90178966619675
 20
-18.48142211372278
 30
0.0
  0
VERTEX
  5
ACE
  8
1
  6
CONTINUOUS
 62
     7
 10
79.83564383287995
 20
-18.4149317708575
 30
0.0
  0
VERTEX
  5
ACF
  8
1
  6
CONTINUOUS
 62
     7
 10
79.96655746131944
 20
-18.4149317708575
 30
0.0
  0
SEQEND
  5
AD0
  8
1
  6
CONTINUOUS
 62
     7
  0
POLYLINE
  5
AD1
  8
1
  6
CONTINUOUS
 62
     7
 66
     1
 10
0.0
 20
0.0
 30
0.0
  0
VERTEX
  5
AD2
  8
1
  6
CONTINUOUS
 62
     7
 10
79.44428098575554
 20
-18.4149317708575
 30
0.0
  0
VERTEX
  5
AD3
  8
1
  6
CONTINUOUS
 62
     7
 10
79.34575125487734
 20
-18.31674654952775
 30
0.0
  0
VERTEX
  5
AD4
  8
1
  6
CONTINUOUS
 62
     7
 10
79.70541922353743
 20
-18.31674654952775
 30
0.0
  0
SEQEND
  5
AD5
  8
1
  6
CONTINUOUS
 62
     7
  0
POLYLINE
  5
AD6
  8
1
  6
CONTINUOUS
 62
     7
 66
     1
 10
0.0
 20
0.0
 30
0.0
  0
VERTEX
  5
AD7
  8
1
  6
CONTINUOUS
 62
     7
 10
79.44428098575554
 20
-18.4149317708575
 30
0.0
  0
VERTEX
  5
AD8
  8
1
  6
CONTINUOUS
 62
     7
 10
79.83564383287995
 20
-18.4149317708575
 30
0.0
  0
VERTEX
  5
AD9
  8
1
  6
CONTINUOUS
 62
     7
 10
79.70541922353743
 20
-18.31674654952775
 30
0.0
  0
SEQEND
  5
ADA
  8
1
  6
CONTINUOUS
 62
     7
  0
POLYLINE
  5
ADB
  8
1
  6
CONTINUOUS
 62
     7
 66
     1
 10
0.0
 20
0.0
 30
0.0
  0
VERTEX
  5
ADC
  8
1
  6
CONTINUOUS
 62
     7
 10
79.83564383287995
 20
-18.4149317708575
 30
0.0
  0
VERTEX
  5
ADD
  8
1
  6
CONTINUOUS
 62
     7
 10
79.70541922353743
 20
-18.31674654952775
 30
0.0
  0
VERTEX
  5
ADE
  8
1
  6
CONTINUOUS
 62
     7
 10
80.13123302551435
 20
-18.31674654952775
 30
0.0
  0
SEQEND
  5
ADF
  8
1
  6
CONTINUOUS
 62
     7
  0
POLYLINE
  5
AE0
  8
1
  6
CONTINUOUS
 62
     7
 66
     1
 10
0.0
 20
0.0
 30
0.0
  0
VERTEX
  5
AE1
  8
1
  6
CONTINUOUS
 62
     7
 10
79.83564383287995
 20
-18.4149317708575
 30
0.0
  0
VERTEX
  5
AE2
  8
1
  6
CONTINUOUS
 62
     7
 10
79.96655746131944
 20
-18.4149317708575
 30
0.0
  0
VERTEX
  5
AE3
  8
1
  6
CONTINUOUS
 62
     7
 10
80.13123302551435
 20
-18.31674654952775
 30
0.0
  0
SEQEND
  5
AE4
  8
1
  6
CONTINUOUS
 62
     7
  0
POLYLINE
  5
AE5
  8
1
  6
CONTINUOUS
 62
     7
 66
     1
 10
0.0
 20
0.0
 30
0.0
  0
VERTEX
  5
AE6
  8
1
  6
CONTINUOUS
 62
     7
 10
79.34575125487734
 20
-18.31674654952775
 30
0.0
  0
VERTEX
  5
AE7
  8
1
  6
CONTINUOUS
 62
     7
 10
79.24791054309625
 20
-18.18686644973389
 30
0.0
  0
VERTEX
  5
AE8
  8
1
  6
CONTINUOUS
 62
     7
 10
79.57450559509795
 20
-18.18686644973389
 30
0.0
  0
SEQEND
  5
AE9
  8
1
  6
CONTINUOUS
 62
     7
  0
POLYLINE
  5
AEA
  8
1
  6
CONTINUOUS
 62
     7
 66
     1
 10
0.0
 20
0.0
 30
0.0
  0
VERTEX
  5
AEB
  8
1
  6
CONTINUOUS
 62
     7
 10
79.34575125487734
 20
-18.31674654952775
 30
0.0
  0
VERTEX
  5
AEC
  8
1
  6
CONTINUOUS
 62
     7
 10
79.70541922353743
 20
-18.31674654952775
 30
0.0
  0
VERTEX
  5
AED
  8
1
  6
CONTINUOUS
 62
     7
 10
79.57450559509795
 20
-18.18686644973389
 30
0.0
  0
SEQEND
  5
AEE
  8
1
  6
CONTINUOUS
 62
     7
  0
POLYLINE
  5
AEF
  8
1
  6
CONTINUOUS
 62
     7
 66
     1
 10
0.0
 20
0.0
 30
0.0
  0
VERTEX
  5
AF0
  8
1
  6
CONTINUOUS
 62
     7
 10
79.70541922353743
 20
-18.31674654952775
 30
0.0
  0
VERTEX
  5
AF1
  8
1
  6
CONTINUOUS
 62
     7
 10
79.57450559509795
 20
-18.18686644973389
 30
0.0
  0
VERTEX
  5
AF2
  8
1
  6
CONTINUOUS
 62
     7
 10
80.16292790397864
 20
-18.18686644973389
 30
0.0
  0
SEQEND
  5
AF3
  8
1
  6
CONTINUOUS
 62
     7
  0
POLYLINE
  5
AF4
  8
1
  6
CONTINUOUS
 62
     7
 66
     1
 10
0.0
 20
0.0
 30
0.0
  0
VERTEX
  5
AF5
  8
1
  6
CONTINUOUS
 62
     7
 10
79.70541922353743
 20
-18.31674654952775
 30
0.0
  0
VERTEX
  5
AF6
  8
1
  6
CONTINUOUS
 62
     7
 10
80.13123302551435
 20
-18.31674654952775
 30
0.0
  0
VERTEX
  5
AF7
  8
1
  6
CONTINUOUS
 62
     7
 10
80.16292790397864
 20
-18.18686644973389
 30
0.0
  0
SEQEND
  5
AF8
  8
1
  6
CONTINUOUS
 62
     7
  0
POLYLINE
  5
AF9
  8
1
  6
CONTINUOUS
 62
     7
 66
     1
 10
0.0
 20
0.0
 30
0.0
  0
VERTEX
  5
AFA
  8
1
  6
CONTINUOUS
 62
     7
 10
79.24791054309625
 20
-18.18686644973389
 30
0.0
  0
VERTEX
  5
AFB
  8
1
  6
CONTINUOUS
 62
     7
 10
79.24791054309625
 20
-18.05560831174586
 30
0.0
  0
VERTEX
  5
AFC
  8
1
  6
CONTINUOUS
 62
     7
 10
79.41120806909714
 20
-18.05560831174586
 30
0.0
  0
SEQEND
  5
AFD
  8
1
  6
CONTINUOUS
 62
     7
  0
POLYLINE
  5
AFE
  8
1
  6
CONTINUOUS
 62
     7
 66
     1
 10
0.0
 20
0.0
 30
0.0
  0
VERTEX
  5
AFF
  8
1
  6
CONTINUOUS
 62
     7
 10
79.24791054309625
 20
-18.18686644973389
 30
0.0
  0
VERTEX
  5
B00
  8
1
  6
CONTINUOUS
 62
     7
 10
79.57450559509795
 20
-18.18686644973389
 30
0.0
  0
VERTEX
  5
B01
  8
1
  6
CONTINUOUS
 62
     7
 10
79.41120806909714
 20
-18.05560831174586
 30
0.0
  0
SEQEND
  5
B02
  8
1
  6
CONTINUOUS
 62
     7
  0
POLYLINE
  5
B03
  8
1
  6
CONTINUOUS
 62
     7
 66
     1
 10
0.0
 20
0.0
 30
0.0
  0
VERTEX
  5
B04
  8
1
  6
CONTINUOUS
 62
     7
 10
79.57450559509795
 20
-18.18686644973389
 30
0.0
  0
VERTEX
  5
B05
  8
1
  6
CONTINUOUS
 62
     7
 10
79.41120806909714
 20
-18.05560831174586
 30
0.0
  0
VERTEX
  5
B06
  8
1
  6
CONTINUOUS
 62
     7
 10
80.22976275639243
 20
-18.05560831174586
 30
0.0
  0
SEQEND
  5
B07
  8
1
  6
CONTINUOUS
 62
     7
  0
POLYLINE
  5
B08
  8
1
  6
CONTINUOUS
 62
     7
 66
     1
 10
0.0
 20
0.0
 30
0.0
  0
VERTEX
  5
B09
  8
1
  6
CONTINUOUS
 62
     7
 10
79.57450559509795
 20
-18.18686644973389
 30
0.0
  0
VERTEX
  5
B0A
  8
1
  6
CONTINUOUS
 62
     7
 10
80.16292790397864
 20
-18.18686644973389
 30
0.0
  0
VERTEX
  5
B0B
  8
1
  6
CONTINUOUS
 62
     7
 10
80.22976275639243
 20
-18.05560831174586
 30
0.0
  0
SEQEND
  5
B0C
  8
1
  6
CONTINUOUS
 62
     7
  0
POLYLINE
  5
B0D
  8
1
  6
CONTINUOUS
 62
     7
 66
     1
 10
0.0
 20
0.0
 30
0.0
  0
VERTEX
  5
B0E
  8
1
  6
CONTINUOUS
 62
     7
 10
79.24791054309625
 20
-18.05560831174586
 30
0.0
  0
VERTEX
  5
B0F
  8
1
  6
CONTINUOUS
 62
     7
 10
79.41120806909714
 20
-18.05560831174586
 30
0.0
  0
VERTEX
  5
B10
  8
1
  6
CONTINUOUS
 62
     7
 10
79.24791054309625
 20
-17.89231078574511
 30
0.0
  0
SEQEND
  5
B11
  8
1
  6
CONTINUOUS
 62
     7
  0
POLYLINE
  5
B12
  8
1
  6
CONTINUOUS
 62
     7
 66
     1
 10
0.0
 20
0.0
 30
0.0
  0
VERTEX
  5
B13
  8
1
  6
CONTINUOUS
 62
     7
 10
79.41120806909714
 20
-18.05560831174586
 30
0.0
  0
VERTEX
  5
B14
  8
1
  6
CONTINUOUS
 62
     7
 10
79.24791054309625
 20
-17.89231078574511
 30
0.0
  0
VERTEX
  5
B15
  8
1
  6
CONTINUOUS
 62
     7
 10
80.19668983973415
 20
-17.89231078574511
 30
0.0
  0
SEQEND
  5
B16
  8
1
  6
CONTINUOUS
 62
     7
  0
POLYLINE
  5
B17
  8
1
  6
CONTINUOUS
 62
     7
 66
     1
 10
0.0
 20
0.0
 30
0.0
  0
VERTEX
  5
B18
  8
1
  6
CONTINUOUS
 62
     7
 10
79.41120806909714
 20
-18.05560831174586
 30
0.0
  0
VERTEX
  5
B19
  8
1
  6
CONTINUOUS
 62
     7
 10
80.22976275639243
 20
-18.05560831174586
 30
0.0
  0
VERTEX
  5
B1A
  8
1
  6
CONTINUOUS
 62
     7
 10
80.19668983973415
 20
-17.89231078574511
 30
0.0
  0
SEQEND
  5
B1B
  8
1
  6
CONTINUOUS
 62
     7
  0
POLYLINE
  5
B1C
  8
1
  6
CONTINUOUS
 62
     7
 66
     1
 10
0.0
 20
0.0
 30
0.0
  0
VERTEX
  5
B1D
  8
1
  6
CONTINUOUS
 62
     7
 10
79.24791054309625
 20
-17.89231078574511
 30
0.0
  0
VERTEX
  5
B1E
  8
1
  6
CONTINUOUS
 62
     7
 10
79.28098345975465
 20
-17.76208617640259
 30
0.0
  0
VERTEX
  5
B1F
  8
1
  6
CONTINUOUS
 62
     7
 10
80.19668983973415
 20
-17.76208617640259
 30
0.0
  0
SEQEND
  5
B20
  8
1
  6
CONTINUOUS
 62
     7
  0
POLYLINE
  5
B21
  8
1
  6
CONTINUOUS
 62
     7
 66
     1
 10
0.0
 20
0.0
 30
0.0
  0
VERTEX
  5
B22
  8
1
  6
CONTINUOUS
 62
     7
 10
79.24791054309625
 20
-17.89231078574511
 30
0.0
  0
VERTEX
  5
B23
  8
1
  6
CONTINUOUS
 62
     7
 10
80.19668983973415
 20
-17.89231078574511
 30
0.0
  0
VERTEX
  5
B24
  8
1
  6
CONTINUOUS
 62
     7
 10
80.19668983973415
 20
-17.76208617640259
 30
0.0
  0
SEQEND
  5
B25
  8
1
  6
CONTINUOUS
 62
     7
  0
POLYLINE
  5
B26
  8
1
  6
CONTINUOUS
 62
     7
 66
     1
 10
0.0
 20
0.0
 30
0.0
  0
VERTEX
  5
B27
  8
1
  6
CONTINUOUS
 62
     7
 10
79.28098345975465
 20
-17.76208617640259
 30
0.0
  0
VERTEX
  5
B28
  8
1
  6
CONTINUOUS
 62
     7
 10
79.31405637641305
 20
-17.69697387173136
 30
0.0
  0
VERTEX
  5
B29
  8
1
  6
CONTINUOUS
 62
     7
 10
80.09816010885595
 20
-17.69697387173136
 30
0.0
  0
SEQEND
  5
B2A
  8
1
  6
CONTINUOUS
 62
     7
  0
POLYLINE
  5
B2B
  8
1
  6
CONTINUOUS
 62
     7
 66
     1
 10
0.0
 20
0.0
 30
0.0
  0
VERTEX
  5
B2C
  8
1
  6
CONTINUOUS
 62
     7
 10
79.28098345975465
 20
-17.76208617640259
 30
0.0
  0
VERTEX
  5
B2D
  8
1
  6
CONTINUOUS
 62
     7
 10
80.19668983973415
 20
-17.76208617640259
 30
0.0
  0
VERTEX
  5
B2E
  8
1
  6
CONTINUOUS
 62
     7
 10
80.09816010885595
 20
-17.69697387173136
 30
0.0
  0
SEQEND
  5
B2F
  8
1
  6
CONTINUOUS
 62
     7
  0
POLYLINE
  5
B30
  8
1
  6
CONTINUOUS
 62
     7
 66
     1
 10
0.0
 20
0.0
 30
0.0
  0
VERTEX
  5
B31
  8
1
  6
CONTINUOUS
 62
     7
 10
79.31405637641305
 20
-17.69697387173136
 30
0.0
  0
VERTEX
  5
B32
  8
1
  6
CONTINUOUS
 62
     7
 10
79.47597586421983
 20
-17.56571573374339
 30
0.0
  0
VERTEX
  5
B33
  8
1
  6
CONTINUOUS
 62
     7
 10
80.00031939707483
 20
-17.56571573374339
 30
0.0
  0
SEQEND
  5
B34
  8
1
  6
CONTINUOUS
 62
     7
  0
POLYLINE
  5
B35
  8
1
  6
CONTINUOUS
 62
     7
 66
     1
 10
0.0
 20
0.0
 30
0.0
  0
VERTEX
  5
B36
  8
1
  6
CONTINUOUS
 62
     7
 10
79.31405637641305
 20
-17.69697387173136
 30
0.0
  0
VERTEX
  5
B37
  8
1
  6
CONTINUOUS
 62
     7
 10
80.09816010885595
 20
-17.69697387173136
 30
0.0
  0
VERTEX
  5
B38
  8
1
  6
CONTINUOUS
 62
     7
 10
80.00031939707483
 20
-17.56571573374339
 30
0.0
  0
SEQEND
  5
B39
  8
1
  6
CONTINUOUS
 62
     7
  0
POLYLINE
  5
B3A
  8
1
  6
CONTINUOUS
 62
     7
 66
     1
 10
0.0
 20
0.0
 30
0.0
  0
VERTEX
  5
B3B
  8
1
  6
CONTINUOUS
 62
     7
 10
79.47597586421983
 20
-17.56571573374339
 30
0.0
  0
VERTEX
  5
B3C
  8
1
  6
CONTINUOUS
 62
     7
 10
79.50904878087823
 20
-17.53264281708499
 30
0.0
  0
VERTEX
  5
B3D
  8
1
  6
CONTINUOUS
 62
     7
 10
79.90178966619675
 20
-17.53264281708499
 30
0.0
  0
SEQEND
  5
B3E
  8
1
  6
CONTINUOUS
 62
     7
  0
POLYLINE
  5
B3F
  8
1
  6
CONTINUOUS
 62
     7
 66
     1
 10
0.0
 20
0.0
 30
0.0
  0
VERTEX
  5
B40
  8
1
  6
CONTINUOUS
 62
     7
 10
79.47597586421983
 20
-17.56571573374339
 30
0.0
  0
VERTEX
  5
B41
  8
1
  6
CONTINUOUS
 62
     7
 10
80.00031939707483
 20
-17.56571573374339
 30
0.0
  0
VERTEX
  5
B42
  8
1
  6
CONTINUOUS
 62
     7
 10
79.90178966619675
 20
-17.53264281708499
 30
0.0
  0
SEQEND
  5
B43
  8
1
  6
CONTINUOUS
 62
     7
  0
POLYLINE
  5
B44
  8
1
  6
CONTINUOUS
 62
     7
 66
     1
 10
0.0
 20
0.0
 30
0.0
  0
VERTEX
  5
B45
  8
1
  6
CONTINUOUS
 62
     7
 10
79.50904878087823
 20
-17.53264281708499
 30
0.0
  0
VERTEX
  5
B46
  8
1
  6
CONTINUOUS
 62
     7
 10
79.90178966619675
 20
-17.53264281708499
 30
0.0
  0
VERTEX
  5
B47
  8
1
  6
CONTINUOUS
 62
     7
 10
79.73849214019583
 20
-17.4995699004266
 30
0.0
  0
SEQEND
  5
B48
  8
1
  6
CONTINUOUS
 62
     7
  0
POLYLINE
  5
B49
  8
1
  6
CONTINUOUS
 62
     7
 66
     1
 10
0.0
 20
0.0
 30
0.0
  0
VERTEX
  5
B4A
  8
1
  6
CONTINUOUS
 62
     7
 10
80.22976275639243
 20
-17.99049600707469
 30
0.0
  0
VERTEX
  5
B4B
  8
1
  6
CONTINUOUS
 62
     7
 10
80.16292790397864
 20
-18.25163424485658
 30
0.0
  0
VERTEX
  5
B4C
  8
1
  6
CONTINUOUS
 62
     7
 10
79.96655746131944
 20
-18.4149317708575
 30
0.0
  0
VERTEX
  5
B4D
  8
1
  6
CONTINUOUS
 62
     7
 10
79.73849214019583
 20
-18.51449503038117
 30
0.0
  0
VERTEX
  5
B4E
  8
1
  6
CONTINUOUS
 62
     7
 10
79.47597586421983
 20
-18.4149317708575
 30
0.0
  0
VERTEX
  5
B4F
  8
1
  6
CONTINUOUS
 62
     7
 10
79.28098345975465
 20
-18.25163424485658
 30
0.0
  0
VERTEX
  5
B50
  8
1
  6
CONTINUOUS
 62
     7
 10
79.21552664553494
 20
-17.99049600707469
 30
0.0
  0
VERTEX
  5
B51
  8
1
  6
CONTINUOUS
 62
     7
 10
79.28098345975465
 20
-17.7290132597442
 30
0.0
  0
VERTEX
  5
B52
  8
1
  6
CONTINUOUS
 62
     7
 10
79.47597586421983
 20
-17.56571573374339
 30
0.0
  0
VERTEX
  5
B53
  8
1
  6
CONTINUOUS
 62
     7
 10
79.73849214019583
 20
-17.4995699004266
 30
0.0
  0
VERTEX
  5
B54
  8
1
  6
CONTINUOUS
 62
     7
 10
79.96655746131944
 20
-17.56571573374339
 30
0.0
  0
VERTEX
  5
B55
  8
1
  6
CONTINUOUS
 62
     7
 10
80.16292790397864
 20
-17.7290132597442
 30
0.0
  0
VERTEX
  5
B56
  8
1
  6
CONTINUOUS
 62
     7
 10
80.22976275639243
 20
-17.99049600707469
 30
0.0
  0
SEQEND
  5
B57
  8
1
  6
CONTINUOUS
 62
     7
  0
POLYLINE
  5
B58
  8
1
  6
CONTINUOUS
 62
     7
 66
     1
 10
0.0
 20
0.0
 30
0.0
  0
VERTEX
  5
B59
  8
1
  6
CONTINUOUS
 62
     7
 10
80.22976275639243
 20
-21.32603745589359
 30
0.0
  0
VERTEX
  5
B5A
  8
1
  6
CONTINUOUS
 62
     7
 10
80.16292790397864
 20
-21.55548081521119
 30
0.0
  0
VERTEX
  5
B5B
  8
1
  6
CONTINUOUS
 62
     7
 10
79.96655746131944
 20
-21.7518512578705
 30
0.0
  0
VERTEX
  5
B5C
  8
1
  6
CONTINUOUS
 62
     7
 10
79.73849214019583
 20
-21.81696356254168
 30
0.0
  0
VERTEX
  5
B5D
  8
1
  6
CONTINUOUS
 62
     7
 10
79.47597586421983
 20
-21.7518512578705
 30
0.0
  0
VERTEX
  5
B5E
  8
1
  6
CONTINUOUS
 62
     7
 10
79.28098345975465
 20
-21.55548081521119
 30
0.0
  0
VERTEX
  5
B5F
  8
1
  6
CONTINUOUS
 62
     7
 10
79.21552664553494
 20
-21.32603745589359
 30
0.0
  0
VERTEX
  5
B60
  8
1
  6
CONTINUOUS
 62
     7
 10
79.28098345975465
 20
-21.0645547085631
 30
0.0
  0
VERTEX
  5
B61
  8
1
  6
CONTINUOUS
 62
     7
 10
79.47597586421983
 20
-20.8681842659039
 30
0.0
  0
VERTEX
  5
B62
  8
1
  6
CONTINUOUS
 62
     7
 10
79.73849214019583
 20
-20.80307196123261
 30
0.0
  0
VERTEX
  5
B63
  8
1
  6
CONTINUOUS
 62
     7
 10
79.96655746131944
 20
-20.8681842659039
 30
0.0
  0
VERTEX
  5
B64
  8
1
  6
CONTINUOUS
 62
     7
 10
80.16292790397864
 20
-21.0645547085631
 30
0.0
  0
VERTEX
  5
B65
  8
1
  6
CONTINUOUS
 62
     7
 10
80.22976275639243
 20
-21.32603745589359
 30
0.0
  0
SEQEND
  5
B66
  8
1
  6
CONTINUOUS
 62
     7
  0
LINE
  5
B67
  8
1
  6
CONTINUOUS
 62
     7
 10
29.43730400051319
 20
-41.54001492455126
 30
0.0
 11
36.92031723935042
 21
-37.21412881503585
 31
0.0
  0
LINE
  5
B68
  8
1
  6
CONTINUOUS
 62
     7
 10
29.43730399936493
 20
-27.31260605942504
 30
0.0
 11
36.92031723935042
 21
-22.98795151824516
 31
0.0
  0
LINE
  5
B69
  8
1
  6
CONTINUOUS
 62
     7
 10
29.43730400051319
 20
-13.08766033096987
 30
0.0
 11
36.92031723935042
 21
-8.761774221454461
 31
0.0
  0
LINE
  5
B6A
  8
1
  6
CONTINUOUS
 62
     7
 10
36.92031723935042
 20
-37.80186210481946
 30
0.0
 11
29.70024204653632
 21
-41.99491571267583
 31
0.0
  0
LINE
  5
B6B
  8
1
  6
CONTINUOUS
 62
     7
 10
29.43730400064204
 20
1.13913275039482
 30
0.0
 11
36.92031723935042
 21
5.464403075336234
 31
0.0
  0
LINE
  5
B6C
  8
1
  6
CONTINUOUS
 62
     7
 10
29.68777779363612
 20
0.7057959717853333
 30
0.0
 11
36.92031723935042
 21
4.875980766455539
 31
0.0
  0
LINE
  5
B6D
  8
1
  6
CONTINUOUS
 62
     7
 10
29.43730400051319
 20
15.36500215486126
 30
0.0
 11
36.92031723935042
 21
19.69058037212693
 31
0.0
  0
LINE
  5
B6E
  8
1
  6
CONTINUOUS
 62
     7
 10
29.68794302275464
 20
14.9313795183624
 30
0.0
 11
36.92031723935042
 21
19.10146904414915
 31
0.0
  0
LINE
  5
B6F
  8
1
  6
CONTINUOUS
 62
     7
 10
29.43730399998799
 20
29.59117945134835
 30
0.0
 11
36.92031723935042
 21
33.91675766891757
 31
0.0
  0
LINE
  5
B70
  8
1
  6
CONTINUOUS
 62
     7
 10
29.68612750042547
 20
29.16069779163842
 30
0.0
 11
36.92031723935042
 21
33.36071925759825
 31
0.0
  0
LINE
  5
B71
  8
1
  6
CONTINUOUS
 62
     7
 10
29.4373040012332
 20
43.84970402912137
 30
0.0
 11
36.92031723935042
 21
48.1749743537211
 31
0.0
  0
POLYLINE
  5
B72
  8
1
  6
CONTINUOUS
 62
     7
 66
     1
 10
0.0
 20
0.0
 30
0.0
  0
VERTEX
  5
B73
  8
1
  6
CONTINUOUS
 62
     7
 10
43.92741359012084
 20
-67.23606891142992
 30
0.0
  0
VERTEX
  5
B74
  8
1
  6
CONTINUOUS
 62
     7
 10
40.92857461530113
 20
-67.23606891142992
 30
0.0
 42
-0.414213562373095
  0
VERTEX
  5
B75
  8
1
  6
CONTINUOUS
 62
     7
 10
40.42857461530113
 20
-66.73606891142992
 30
0.0
  0
VERTEX
  5
B76
  8
1
  6
CONTINUOUS
 62
     7
 10
40.42857461530113
 20
-49.5017617334538
 30
0.0
  0
SEQEND
  5
B77
  8
1
  6
CONTINUOUS
 62
     7
  0
LINE
  5
B78
  8
1
  6
CONTINUOUS
 62
     7
 10
37.41020981735306
 20
-46.50176173372085
 30
0.0
 11
36.9203172393504
 21
-46.50176173372085
 31
0.0
  0
POLYLINE
  5
B79
  8
1
  6
CONTINUOUS
 62
     7
 66
     1
 10
0.0
 20
0.0
 30
0.0
  0
VERTEX
  5
B7A
  8
1
  6
CONTINUOUS
 62
     7
 10
40.42857461530113
 20
53.49765773014354
 30
0.0
  0
VERTEX
  5
B7B
  8
1
  6
CONTINUOUS
 62
     7
 10
40.42857461530113
 20
65.95671805601495
 30
0.0
 42
-0.414213562373095
  0
VERTEX
  5
B7C
  8
1
  6
CONTINUOUS
 62
     7
 10
40.92857461530113
 20
66.45671805601495
 30
0.0
  0
VERTEX
  5
B7D
  8
1
  6
CONTINUOUS
 62
     7
 10
41.73564384240493
 20
66.45671805601495
 30
0.0
  0
SEQEND
  5
B7E
  8
1
  6
CONTINUOUS
 62
     7
  0
CIRCLE
  5
B7F
  8
1
  6
CONTINUOUS
 62
     7
 10
-169.393823
 20
1.997947998344898
 30
0.0
 40
2.25
  0
CIRCLE
  5
B80
  8
1
  6
CONTINUOUS
 62
     7
 10
-169.393823
 20
1.997947998344898
 30
0.0
 40
2.5
  0
CIRCLE
  5
B81
  8
1
  6
CONTINUOUS
 62
     7
 10
-37.393823
 20
1.997947998344898
 30
0.0
 40
2.25
  0
CIRCLE
  5
B82
  8
1
  6
CONTINUOUS
 62
     7
 10
-37.393823
 20
1.997947998344898
 30
0.0
 40
2.5
  0
POLYLINE
  5
B83
  8
1
  6
CONTINUOUS
 62
     7
 66
     1
 10
0.0
 20
0.0
 30
0.0
  0
VERTEX
  5
B84
  8
1
  6
CONTINUOUS
 62
     7
 10
43.42857461530113
 20
49.99765773014354
 30
0.0
 42
-0.414213562373095
  0
VERTEX
  5
B85
  8
1
  6
CONTINUOUS
 62
     7
 10
39.92857461530113
 20
53.49765773014354
 30
0.0
  0
VERTEX
  5
B86
  8
1
  6
CONTINUOUS
 62
     7
 10
39.92857461530113
 20
65.95671805601495
 30
0.0
 42
-0.414213562373095
  0
VERTEX
  5
B87
  8
1
  6
CONTINUOUS
 62
     7
 10
40.92857461530113
 20
66.95671805601495
 30
0.0
  0
VERTEX
  5
B88
  8
1
  6
CONTINUOUS
 62
     7
 10
41.73564384240493
 20
66.95671805601495
 30
0.0
  0
SEQEND
  5
B89
  8
1
  6
CONTINUOUS
 62
     7
  0
POLYLINE
  5
B8A
  8
1
  6
CONTINUOUS
 62
     7
 66
     1
 10
0.0
 20
0.0
 30
0.0
  0
VERTEX
  5
B8B
  8
1
  6
CONTINUOUS
 62
     7
 10
50.94688517456706
 20
-46.5017617334538
 30
0.0
  0
VERTEX
  5
B8C
  8
1
  6
CONTINUOUS
 62
     7
 10
43.43821003121533
 20
-46.5017617334538
 30
0.0
  0
VERTEX
  5
B8D
  8
1
  6
CONTINUOUS
 62
     7
 10
86.93730400130153
 20
-46.5017617334538
 30
0.0
 42
0.414213562373095
  0
VERTEX
  5
B8E
  8
1
  6
CONTINUOUS
 62
     7
 10
89.43730400130153
 20
-44.0017617334538
 30
0.0
  0
VERTEX
  5
B8F
  8
1
  6
CONTINUOUS
 62
     7
 10
89.43730400130153
 20
47.99765773014354
 30
0.0
 42
0.414213562373095
  0
VERTEX
  5
B90
  8
1
  6
CONTINUOUS
 62
     7
 10
86.93730400130153
 20
50.49765773014354
 30
0.0
  0
VERTEX
  5
B91
  8
1
  6
CONTINUOUS
 62
     7
 10
43.43821003121533
 20
50.49765773014354
 30
0.0
  0
VERTEX
  5
B92
  8
1
  6
CONTINUOUS
 62
     7
 10
83.49915837189465
 20
50.49765773014354
 30
0.0
  0
SEQEND
  5
B93
  8
1
  6
CONTINUOUS
 62
     7
  0
POLYLINE
  5
B94
  8
1
  6
CONTINUOUS
 62
     2
 66
     1
 10
0.0
 20
0.0
 30
0.0
  0
VERTEX
  5
B95
  8
1
  6
CONTINUOUS
 62
     2
 10
-174.893823
 20
96.235875
 30
0.0
  0
VERTEX
  5
B96
  8
1
  6
CONTINUOUS
 62
     2
 10
-171.393823
 20
94.985875
 30
0.0
  0
VERTEX
  5
B97
  8
1
  6
CONTINUOUS
 62
     2
 10
-171.393823
 20
97.485875
 30
0.0
  0
VERTEX
  5
B98
  8
1
  6
CONTINUOUS
 62
     2
 10
-174.893823
 20
96.235875
 30
0.0
  0
SEQEND
  5
B99
  8
1
  6
CONTINUOUS
 62
     2
  0
POLYLINE
  5
B9A
  8
1
  6
CONTINUOUS
 62
     2
 66
     1
 10
0.0
 20
0.0
 30
0.0
  0
VERTEX
  5
B9B
  8
1
  6
CONTINUOUS
 62
     2
 10
-31.893823
 20
96.235875
 30
0.0
  0
VERTEX
  5
B9C
  8
1
  6
CONTINUOUS
 62
     2
 10
-35.393823
 20
97.485875
 30
0.0
  0
VERTEX
  5
B9D
  8
1
  6
CONTINUOUS
 62
     2
 10
-35.393823
 20
94.985875
 30
0.0
  0
VERTEX
  5
B9E
  8
1
  6
CONTINUOUS
 62
     2
 10
-31.893823
 20
96.235875
 30
0.0
  0
SEQEND
  5
B9F
  8
1
  6
CONTINUOUS
 62
     2
  0
LINE
  5
BA0
  8
1
  6
CONTINUOUS
 62
     2
 10
-171.393823
 20
96.235875
 30
0.0
 11
-35.393823
 21
96.235875
 31
0.0
  0
POLYLINE
  5
BA1
  8
1
  6
CONTINUOUS
 62
     2
 66
     1
 10
0.0
 20
0.0
 30
0.0
  0
VERTEX
  5
BA2
  8
1
  6
CONTINUOUS
 62
     2
 10
-174.893823
 20
2.297947998344898
 30
0.0
  0
VERTEX
  5
BA3
  8
1
  6
CONTINUOUS
 62
     2
 10
-174.893823
 20
96.735875
 30
0.0
  0
SEQEND
  5
BA4
  8
1
  6
CONTINUOUS
 62
     2
  0
POLYLINE
  5
BA5
  8
1
  6
CONTINUOUS
 62
     2
 66
     1
 10
0.0
 20
0.0
 30
0.0
  0
VERTEX
  5
BA6
  8
1
  6
CONTINUOUS
 62
     2
 10
-31.893823
 20
2.297947998344898
 30
0.0
  0
VERTEX
  5
BA7
  8
1
  6
CONTINUOUS
 62
     2
 10
-31.893823
 20
96.735875
 30
0.0
  0
SEQEND
  5
BA8
  8
1
  6
CONTINUOUS
 62
     2
  0
TEXT
  5
BAA
  8
1
  6
CONTINUOUS
 62
     7
 10
-107.893823
 20
96.735875
 30
0.0
 40
5.0
  1
1
 41
0.6
  7
EXCESS_STANDARD
  0
TEXT
  5
BAB
  8
1
  6
CONTINUOUS
 62
     7
 10
-104.893823
 20
96.735875
 30
0.0
 40
5.0
  1
4
 41
0.6
  7
EXCESS_STANDARD
  0
TEXT
  5
BAC
  8
1
  6
CONTINUOUS
 62
     7
 10
-101.893823
 20
96.735875
 30
0.0
 40
5.0
  1
3
 41
0.6
  7
EXCESS_STANDARD
  0
POLYLINE
  5
BAD
  8
1
  6
CONTINUOUS
 62
     2
 66
     1
 10
0.0
 20
0.0
 30
0.0
  0
VERTEX
  5
BAE
  8
1
  6
CONTINUOUS
 62
     2
 10
-169.393823
 20
-83.488039
 30
0.0
  0
VERTEX
  5
BAF
  8
1
  6
CONTINUOUS
 62
     2
 10
-165.893823
 20
-84.738039
 30
0.0
  0
VERTEX
  5
BB0
  8
1
  6
CONTINUOUS
 62
     2
 10
-165.893823
 20
-82.238039
 30
0.0
  0
VERTEX
  5
BB1
  8
1
  6
CONTINUOUS
 62
     2
 10
-169.393823
 20
-83.488039
 30
0.0
  0
SEQEND
  5
BB2
  8
1
  6
CONTINUOUS
 62
     2
  0
POLYLINE
  5
BB3
  8
1
  6
CONTINUOUS
 62
     2
 66
     1
 10
0.0
 20
0.0
 30
0.0
  0
VERTEX
  5
BB4
  8
1
  6
CONTINUOUS
 62
     2
 10
-37.393823
 20
-83.488039
 30
0.0
  0
VERTEX
  5
BB5
  8
1
  6
CONTINUOUS
 62
     2
 10
-40.893823
 20
-82.238039
 30
0.0
  0
VERTEX
  5
BB6
  8
1
  6
CONTINUOUS
 62
     2
 10
-40.893823
 20
-84.738039
 30
0.0
  0
VERTEX
  5
BB7
  8
1
  6
CONTINUOUS
 62
     2
 10
-37.393823
 20
-83.488039
 30
0.0
  0
SEQEND
  5
BB8
  8
1
  6
CONTINUOUS
 62
     2
  0
LINE
  5
BB9
  8
1
  6
CONTINUOUS
 62
     2
 10
-165.893823
 20
-83.488039
 30
0.0
 11
-40.893823
 21
-83.488039
 31
0.0
  0
POLYLINE
  5
BBA
  8
1
  6
CONTINUOUS
 62
     2
 66
     1
 10
0.0
 20
0.0
 30
0.0
  0
VERTEX
  5
BBB
  8
1
  6
CONTINUOUS
 62
     2
 10
-169.393823
 20
1.697947998344898
 30
0.0
  0
VERTEX
  5
BBC
  8
1
  6
CONTINUOUS
 62
     2
 10
-169.393823
 20
-83.988039
 30
0.0
  0
SEQEND
  5
BBD
  8
1
  6
CONTINUOUS
 62
     2
  0
POLYLINE
  5
BBE
  8
1
  6
CONTINUOUS
 62
     2
 66
     1
 10
0.0
 20
0.0
 30
0.0
  0
VERTEX
  5
BBF
  8
1
  6
CONTINUOUS
 62
     2
 10
-37.393823
 20
1.697947998344898
 30
0.0
  0
VERTEX
  5
BC0
  8
1
  6
CONTINUOUS
 62
     2
 10
-37.393823
 20
-83.988039
 30
0.0
  0
SEQEND
  5
BC1
  8
1
  6
CONTINUOUS
 62
     2
  0
TEXT
  5
BC2
  8
1
  6
CONTINUOUS
 62
     7
 10
-107.893823
 20
-82.988039
 30
0.0
 40
5.0
  1
1
 41
0.6
  7
EXCESS_STANDARD
  0
TEXT
  5
BC3
  8
1
  6
CONTINUOUS
 62
     7
 10
-104.893823
 20
-82.988039
 30
0.0
 40
5.0
  1
3
 41
0.6
  7
EXCESS_STANDARD
  0
TEXT
  5
BC4
  8
1
  6
CONTINUOUS
 62
     7
 10
-101.893823
 20
-82.988039
 30
0.0
 40
5.0
  1
2
 41
0.6
  7
EXCESS_STANDARD
  0
POLYLINE
  5
BC5
  8
1
  6
CONTINUOUS
 62
     2
 66
     1
 10
0.0
 20
0.0
 30
0.0
  0
VERTEX
  5
BC6
  8
1
  6
CONTINUOUS
 62
     2
 10
29.4373040005132
 20
96.235875
 30
0.0
  0
VERTEX
  5
BC7
  8
1
  6
CONTINUOUS
 62
     2
 10
32.93730400051319
 20
94.985875
 30
0.0
  0
VERTEX
  5
BC8
  8
1
  6
CONTINUOUS
 62
     2
 10
32.93730400051319
 20
97.485875
 30
0.0
  0
VERTEX
  5
BC9
  8
1
  6
CONTINUOUS
 62
     2
 10
29.4373040005132
 20
96.235875
 30
0.0
  0
SEQEND
  5
BCA
  8
1
  6
CONTINUOUS
 62
     2
  0
POLYLINE
  5
BCB
  8
1
  6
CONTINUOUS
 62
     2
 66
     1
 10
0.0
 20
0.0
 30
0.0
  0
VERTEX
  5
BCC
  8
1
  6
CONTINUOUS
 62
     2
 10
89.43730400130153
 20
96.235875
 30
0.0
  0
VERTEX
  5
BCD
  8
1
  6
CONTINUOUS
 62
     2
 10
85.93730400130153
 20
97.485875
 30
0.0
  0
VERTEX
  5
BCE
  8
1
  6
CONTINUOUS
 62
     2
 10
85.93730400130153
 20
94.985875
 30
0.0
  0
VERTEX
  5
BCF
  8
1
  6
CONTINUOUS
 62
     2
 10
89.43730400130153
 20
96.235875
 30
0.0
  0
SEQEND
  5
BD0
  8
1
  6
CONTINUOUS
 62
     2
  0
LINE
  5
BD1
  8
1
  6
CONTINUOUS
 62
     2
 10
32.93730400051319
 20
96.235875
 30
0.0
 11
85.93730400130153
 21
96.235875
 31
0.0
  0
POLYLINE
  5
BD2
  8
1
  6
CONTINUOUS
 62
     2
 66
     1
 10
0.0
 20
0.0
 30
0.0
  0
VERTEX
  5
BD3
  8
1
  6
CONTINUOUS
 62
     2
 10
29.43730400051319
 20
44.14970403036703
 30
0.0
  0
VERTEX
  5
BD4
  8
1
  6
CONTINUOUS
 62
     2
 10
29.4373040005132
 20
96.735875
 30
0.0
  0
SEQEND
  5
BD5
  8
1
  6
CONTINUOUS
 62
     2
  0
POLYLINE
  5
BD6
  8
1
  6
CONTINUOUS
 62
     2
 66
     1
 10
0.0
 20
0.0
 30
0.0
  0
VERTEX
  5
BD7
  8
1
  6
CONTINUOUS
 62
     2
 10
89.43730400130153
 20
48.29765773014354
 30
0.0
  0
VERTEX
  5
BD8
  8
1
  6
CONTINUOUS
 62
     2
 10
89.43730400130153
 20
96.735875
 30
0.0
  0
SEQEND
  5
BD9
  8
1
  6
CONTINUOUS
 62
     2
  0
TEXT
  5
BDA
  8
1
  6
CONTINUOUS
 62
     7
 10
56.43730400090736
 20
96.735875
 30
0.0
 40
5.0
  1
6
 41
0.6
  7
EXCESS_STANDARD
  0
TEXT
  5
BDB
  8
1
  6
CONTINUOUS
 62
     7
 10
59.43730400090736
 20
96.735875
 30
0.0
 40
5.0
  1
0
 41
0.6
  7
EXCESS_STANDARD
  0
POLYLINE
  5
BDC
  8
1
  6
CONTINUOUS
 62
     2
 66
     1
 10
0.0
 20
0.0
 30
0.0
  0
VERTEX
  5
BDD
  8
1
  6
CONTINUOUS
 62
     2
 10
113.092369
 20
50.49765773014354
 30
0.0
  0
VERTEX
  5
BDE
  8
1
  6
CONTINUOUS
 62
     2
 10
111.842369
 20
46.99765773014354
 30
0.0
  0
VERTEX
  5
BDF
  8
1
  6
CONTINUOUS
 62
     2
 10
114.342369
 20
46.99765773014354
 30
0.0
  0
VERTEX
  5
BE0
  8
1
  6
CONTINUOUS
 62
     2
 10
113.092369
 20
50.49765773014354
 30
0.0
  0
SEQEND
  5
BE1
  8
1
  6
CONTINUOUS
 62
     2
  0
POLYLINE
  5
BE2
  8
1
  6
CONTINUOUS
 62
     2
 66
     1
 10
0.0
 20
0.0
 30
0.0
  0
VERTEX
  5
BE3
  8
1
  6
CONTINUOUS
 62
     2
 10
113.092369
 20
-46.5017617334538
 30
0.0
  0
VERTEX
  5
BE4
  8
1
  6
CONTINUOUS
 62
     2
 10
114.342369
 20
-43.0017617334538
 30
0.0
  0
VERTEX
  5
BE5
  8
1
  6
CONTINUOUS
 62
     2
 10
111.842369
 20
-43.0017617334538
 30
0.0
  0
VERTEX
  5
BE6
  8
1
  6
CONTINUOUS
 62
     2
 10
113.092369
 20
-46.5017617334538
 30
0.0
  0
SEQEND
  5
BE7
  8
1
  6
CONTINUOUS
 62
     2
  0
LINE
  5
BE8
  8
1
  6
CONTINUOUS
 62
     2
 10
113.092369
 20
46.99765773014354
 30
0.0
 11
113.092369
 21
-43.0017617334538
 31
0.0
  0
POLYLINE
  5
BE9
  8
1
  6
CONTINUOUS
 62
     2
 66
     1
 10
0.0
 20
0.0
 30
0.0
  0
VERTEX
  5
BEA
  8
1
  6
CONTINUOUS
 62
     2
 10
87.23730400130152
 20
50.49765773014354
 30
0.0
  0
VERTEX
  5
BEB
  8
1
  6
CONTINUOUS
 62
     2
 10
113.592369
 20
50.49765773014354
 30
0.0
  0
SEQEND
  5
BEC
  8
1
  6
CONTINUOUS
 62
     2
  0
POLYLINE
  5
BED
  8
1
  6
CONTINUOUS
 62
     2
 66
     1
 10
0.0
 20
0.0
 30
0.0
  0
VERTEX
  5
BEE
  8
1
  6
CONTINUOUS
 62
     2
 10
87.23730400130152
 20
-46.5017617334538
 30
0.0
  0
VERTEX
  5
BEF
  8
1
  6
CONTINUOUS
 62
     2
 10
113.592369
 20
-46.5017617334538
 30
0.0
  0
SEQEND
  5
BF0
  8
1
  6
CONTINUOUS
 62
     2
  0
TEXT
  5
BF1
  8
1
  6
CONTINUOUS
 62
     7
 10
112.592369
 20
-1.00205200165513
 30
0.0
 40
5.0
  1
9
 50
90.0
 41
0.6
  7
EXCESS_STANDARD
  0
TEXT
  5
BF2
  8
1
  6
CONTINUOUS
 62
     7
 10
112.592369
 20
1.99794799834487
 30
0.0
 40
5.0
  1
7
 50
90.0
 41
0.6
  7
EXCESS_STANDARD
  0
POLYLINE
  5
BF3
  8
1
  6
CONTINUOUS
 62
     2
 66
     1
 10
0.0
 20
0.0
 30
0.0
  0
VERTEX
  5
BF4
  8
1
  6
CONTINUOUS
 62
     2
 10
47.43730400051319
 20
-77.607354
 30
0.0
  0
VERTEX
  5
BF5
  8
1
  6
CONTINUOUS
 62
     2
 10
50.93730400051319
 20
-78.857354
 30
0.0
  0
VERTEX
  5
BF6
  8
1
  6
CONTINUOUS
 62
     2
 10
50.93730400051319
 20
-76.357354
 30
0.0
  0
VERTEX
  5
BF7
  8
1
  6
CONTINUOUS
 62
     2
 10
47.43730400051319
 20
-77.607354
 30
0.0
  0
SEQEND
  5
BF8
  8
1
  6
CONTINUOUS
 62
     2
  0
POLYLINE
  5
BF9
  8
1
  6
CONTINUOUS
 62
     2
 66
     1
 10
0.0
 20
0.0
 30
0.0
  0
VERTEX
  5
BFA
  8
1
  6
CONTINUOUS
 62
     2
 10
89.43730400130153
 20
-77.607354
 30
0.0
  0
VERTEX
  5
BFB
  8
1
  6
CONTINUOUS
 62
     2
 10
85.93730400130153
 20
-76.357354
 30
0.0
  0
VERTEX
  5
BFC
  8
1
  6
CONTINUOUS
 62
     2
 10
85.93730400130153
 20
-78.857354
 30
0.0
  0
VERTEX
  5
BFD
  8
1
  6
CONTINUOUS
 62
     2
 10
89.43730400130153
 20
-77.607354
 30
0.0
  0
SEQEND
  5
BFE
  8
1
  6
CONTINUOUS
 62
     2
  0
LINE
  5
BFF
  8
1
  6
CONTINUOUS
 62
     2
 10
50.93730400051319
 20
-77.607354
 30
0.0
 11
85.93730400130153
 21
-77.607354
 31
0.0
  0
POLYLINE
  5
C00
  8
1
  6
CONTINUOUS
 62
     2
 66
     1
 10
0.0
 20
0.0
 30
0.0
  0
VERTEX
  5
C01
  8
1
  6
CONTINUOUS
 62
     2
 10
47.43730400051319
 20
-69.30014208310614
 30
0.0
  0
VERTEX
  5
C02
  8
1
  6
CONTINUOUS
 62
     2
 10
47.43730400051319
 20
-78.107354
 30
0.0
  0
SEQEND
  5
C03
  8
1
  6
CONTINUOUS
 62
     2
  0
POLYLINE
  5
C04
  8
1
  6
CONTINUOUS
 62
     2
 66
     1
 10
0.0
 20
0.0
 30
0.0
  0
VERTEX
  5
C05
  8
1
  6
CONTINUOUS
 62
     2
 10
89.43730400130153
 20
-44.3017617334538
 30
0.0
  0
VERTEX
  5
C06
  8
1
  6
CONTINUOUS
 62
     2
 10
89.43730400130153
 20
-78.107354
 30
0.0
  0
SEQEND
  5
C07
  8
1
  6
CONTINUOUS
 62
     2
  0
TEXT
  5
C08
  8
1
  6
CONTINUOUS
 62
     7
 10
65.43730400090736
 20
-77.107354
 30
0.0
 40
5.0
  1
4
 41
0.6
  7
EXCESS_STANDARD
  0
TEXT
  5
C09
  8
1
  6
CONTINUOUS
 62
     7
 10
68.43730400090736
 20
-77.107354
 30
0.0
 40
5.0
  1
2
 41
0.6
  7
EXCESS_STANDARD
  0
POLYLINE
  5
C0A
  8
1
  6
CONTINUOUS
 62
     2
 66
     1
 10
0.0
 20
0.0
 30
0.0
  0
VERTEX
  5
C0B
  8
1
  6
CONTINUOUS
 62
     2
 10
124.159154
 20
56.7766887615599
 30
0.0
  0
VERTEX
  5
C0C
  8
1
  6
CONTINUOUS
 62
     2
 10
122.909154
 20
53.2766887615599
 30
0.0
  0
VERTEX
  5
C0D
  8
1
  6
CONTINUOUS
 62
     2
 10
125.409154
 20
53.2766887615599
 30
0.0
  0
VERTEX
  5
C0E
  8
1
  6
CONTINUOUS
 62
     2
 10
124.159154
 20
56.7766887615599
 30
0.0
  0
SEQEND
  5
C0F
  8
1
  6
CONTINUOUS
 62
     2
  0
POLYLINE
  5
C10
  8
1
  6
CONTINUOUS
 62
     2
 66
     1
 10
0.0
 20
0.0
 30
0.0
  0
VERTEX
  5
C11
  8
1
  6
CONTINUOUS
 62
     2
 10
124.159154
 20
-52.78079276487023
 30
0.0
  0
VERTEX
  5
C12
  8
1
  6
CONTINUOUS
 62
     2
 10
125.409154
 20
-49.28079276487023
 30
0.0
  0
VERTEX
  5
C13
  8
1
  6
CONTINUOUS
 62
     2
 10
122.909154
 20
-49.28079276487023
 30
0.0
  0
VERTEX
  5
C14
  8
1
  6
CONTINUOUS
 62
     2
 10
124.159154
 20
-52.78079276487023
 30
0.0
  0
SEQEND
  5
C15
  8
1
  6
CONTINUOUS
 62
     2
  0
LINE
  5
C16
  8
1
  6
CONTINUOUS
 62
     2
 10
124.159154
 20
53.2766887615599
 30
0.0
 11
124.159154
 21
-49.28079276487023
 31
0.0
  0
POLYLINE
  5
C17
  8
1
  6
CONTINUOUS
 62
     2
 66
     1
 10
0.0
 20
0.0
 30
0.0
  0
VERTEX
  5
C18
  8
1
  6
CONTINUOUS
 62
     2
 10
70.29162799332703
 20
56.77668876155991
 30
0.0
  0
VERTEX
  5
C19
  8
1
  6
CONTINUOUS
 62
     2
 10
124.659154
 20
56.7766887615599
 30
0.0
  0
SEQEND
  5
C1A
  8
1
  6
CONTINUOUS
 62
     2
  0
POLYLINE
  5
C1B
  8
1
  6
CONTINUOUS
 62
     2
 66
     1
 10
0.0
 20
0.0
 30
0.0
  0
VERTEX
  5
C1C
  8
1
  6
CONTINUOUS
 62
     2
 10
70.29162799306214
 20
-52.78079276487023
 30
0.0
  0
VERTEX
  5
C1D
  8
1
  6
CONTINUOUS
 62
     2
 10
124.659154
 20
-52.78079276487023
 30
0.0
  0
SEQEND
  5
C1E
  8
1
  6
CONTINUOUS
 62
     2
  0
TEXT
  5
C1F
  8
1
  6
CONTINUOUS
 62
     7
 10
123.659154
 20
-5.502052001655166
 30
0.0
 40
5.0
  1
(
 50
90.0
 41
0.6
  7
EXCESS_STANDARD
  0
TEXT
  5
C20
  8
1
  6
CONTINUOUS
 62
     7
 10
123.659154
 20
-2.502052001655166
 30
0.0
 40
5.0
  1
1
 50
90.0
 41
0.6
  7
EXCESS_STANDARD
  0
TEXT
  5
C21
  8
1
  6
CONTINUOUS
 62
     7
 10
123.659154
 20
0.4979479983448343
 30
0.0
 40
5.0
  1
1
 50
90.0
 41
0.6
  7
EXCESS_STANDARD
  0
TEXT
  5
C22
  8
1
  6
CONTINUOUS
 62
     7
 10
123.659154
 20
3.497947998344834
 30
0.0
 40
5.0
  1
1
 50
90.0
 41
0.6
  7
EXCESS_STANDARD
  0
TEXT
  5
C23
  8
1
  6
CONTINUOUS
 62
     7
 10
123.659154
 20
6.497947998344834
 30
0.0
 40
5.0
  1
)
 50
90.0
 41
0.6
  7
EXCESS_STANDARD
  0
POLYLINE
  5
C24
  8
1
  6
CONTINUOUS
 62
     2
 66
     1
 10
0.0
 20
0.0
 30
0.0
  0
VERTEX
  5
C25
  8
1
  6
CONTINUOUS
 62
     2
 10
47.43730400051319
 20
-77.607354
 30
0.0
  0
VERTEX
  5
C26
  8
1
  6
CONTINUOUS
 62
     2
 10
50.93730400051319
 20
-78.857354
 30
0.0
  0
VERTEX
  5
C27
  8
1
  6
CONTINUOUS
 62
     2
 10
50.93730400051319
 20
-76.357354
 30
0.0
  0
VERTEX
  5
C28
  8
1
  6
CONTINUOUS
 62
     2
 10
47.43730400051319
 20
-77.607354
 30
0.0
  0
SEQEND
  5
C29
  8
1
  6
CONTINUOUS
 62
     2
  0
LINE
  5
C2A
  8
1
  6
CONTINUOUS
 62
     2
 10
50.93730400051319
 20
-77.607354
 30
0.0
 11
51.93730400051319
 21
-77.607354
 31
0.0
  0
POLYLINE
  5
C2B
  8
1
  6
CONTINUOUS
 62
     2
 66
     1
 10
0.0
 20
0.0
 30
0.0
  0
VERTEX
  5
C2C
  8
1
  6
CONTINUOUS
 62
     2
 10
39.43730400087404
 20
-77.607354
 30
0.0
  0
VERTEX
  5
C2D
  8
1
  6
CONTINUOUS
 62
     2
 10
35.93730400087404
 20
-76.357354
 30
0.0
  0
VERTEX
  5
C2E
  8
1
  6
CONTINUOUS
 62
     2
 10
35.93730400087404
 20
-78.857354
 30
0.0
  0
VERTEX
  5
C2F
  8
1
  6
CONTINUOUS
 62
     2
 10
39.43730400087404
 20
-77.607354
 30
0.0
  0
SEQEND
  5
C30
  8
1
  6
CONTINUOUS
 62
     2
  0
LINE
  5
C31
  8
1
  6
CONTINUOUS
 62
     2
 10
35.93730400087404
 20
-77.607354
 30
0.0
 11
24.998423
 21
-77.607354
 31
0.0
  0
LINE
  5
C32
  8
1
  6
CONTINUOUS
 62
     2
 10
47.43730400051319
 20
-77.607354
 30
0.0
 11
39.43730400087404
 21
-77.607354
 31
0.0
  0
POLYLINE
  5
C33
  8
1
  6
CONTINUOUS
 62
     2
 66
     1
 10
0.0
 20
0.0
 30
0.0
  0
VERTEX
  5
C34
  8
1
  6
CONTINUOUS
 62
     2
 10
47.43730400051319
 20
-69.30014208310614
 30
0.0
  0
VERTEX
  5
C35
  8
1
  6
CONTINUOUS
 62
     2
 10
47.43730400051319
 20
-78.107354
 30
0.0
  0
SEQEND
  5
C36
  8
1
  6
CONTINUOUS
 62
     2
  0
POLYLINE
  5
C37
  8
1
  6
CONTINUOUS
 62
     2
 66
     1
 10
0.0
 20
0.0
 30
0.0
  0
VERTEX
  5
C38
  8
1
  6
CONTINUOUS
 62
     2
 10
39.43730400087404
 20
-68.18581151931657
 30
0.0
  0
VERTEX
  5
C39
  8
1
  6
CONTINUOUS
 62
     2
 10
39.43730400087404
 20
-78.107354
 30
0.0
  0
SEQEND
  5
C3A
  8
1
  6
CONTINUOUS
 62
     2
  0
TEXT
  5
C3B
  8
1
  6
CONTINUOUS
 62
     7
 10
24.998423
 20
-77.107354
 30
0.0
 40
5.0
  1
(
 41
0.6
  7
EXCESS_STANDARD
  0
TEXT
  5
C3C
  8
1
  6
CONTINUOUS
 62
     7
 10
27.998423
 20
-77.107354
 30
0.0
 40
5.0
  1
8
 41
0.6
  7
EXCESS_STANDARD
  0
TEXT
  5
C3D
  8
1
  6
CONTINUOUS
 62
     7
 10
30.998423
 20
-77.107354
 30
0.0
 40
5.0
  1
)
 41
0.6
  7
EXCESS_STANDARD
  0
TEXT
  5
C3E
  8
1
  6
CONTINUOUS
 62
     7
 10
-18.67995866856958
 20
-24.91927286801297
 30
0.0
 40
4.94187317470346
  1
②
  7
EXCESS_STANDARD
  0
TEXT
  5
C3F
  8
1
  6
CONTINUOUS
 62
     7
 10
95.17630951914893
 20
-9.301448428951803
 30
0.0
 40
4.94187317470346
  1
④
 41
0.9999999999999942
  7
EXCESS_STANDARD
  0
TEXT
  5
C40
  8
1
  6
CONTINUOUS
 62
     7
 10
100.7115444352999
 20
29.71391343195409
 30
0.0
 40
4.941873174703463
  1
⑤
 41
0.9999999999999993
  7
EXCESS_STANDARD
  0
TEXT
  5
C41
  8
1
  6
CONTINUOUS
 62
     7
 10
93.19503510558175
 20
43.89530448743653
 30
0.0
 40
4.941873174703453
  1
⑥
 41
0.9999999999999957
  7
EXCESS_STANDARD
  0
TEXT
  5
C42
  8
1
  6
CONTINUOUS
 62
     7
 10
100.6271395959112
 20
15.88185505867597
 30
0.0
 40
4.941873174703462
  1
①
 41
0.9999999999999997
  7
EXCESS_STANDARD
  0
TEXT
  5
C43
  8
レイヤー_1
  6
CONTINUOUS
 62
     7
 10
-207.5533345819573
 20
-27.92639469800986
 30
0.0
 40
4.94187317470346
  1
②
  7
EXCESS_STANDARD
  0
ENDBLK
  5
C45
  8
0
  0
ENDSEC
  0
SECTION
  2
ENTITIES
  0
INSERT
  5
C46
  8
0
  2
0-NONE
 10
0.0
 20
0.0
 30
0.0
  0
ENDSEC
  0
EOF
