  0
SECTION
  2
HEADER
  9
$ACADVER
  1
AC1009
  9
$DWGCODEPAGE
  3
dos932
  9
$INSBASE
 10
0.0
 20
0.0
 30
0.0
  9
$EXTMIN
 10
-183.571795
 20
-96.993106
 30
0.0
  9
$EXTMAX
 10
196.2395555664617
 20
114.942891
 30
0.0
  9
$LIMMIN
 10
0.0
 20
0.0
  9
$LIMMAX
 10
420.0
 20
297.0
  9
$ORTHOMODE
 70
     0
  9
$REGENMODE
 70
     1
  9
$FILLMODE
 70
     1
  9
$QTEXTMODE
 70
     0
  9
$MIRRTEXT
 70
     1
  9
$DRAGMODE
 70
     2
  9
$LTSCALE
 40
1.0
  9
$OSMODE
 70
    37
  9
$ATTMODE
 70
     1
  9
$TEXTSIZE
 40
0.2
  9
$TRACEWID
 40
0.05
  9
$TEXTSTYLE
  7
STANDARD
  9
$CLAYER
  8
0
  9
$CELTYPE
  6
BYLAYER
  9
$CECOLOR
 62
   256
  9
$DIMSCALE
 40
1.0
  9
$DIMASZ
 40
0.18
  9
$DIMEXO
 40
0.0625
  9
$DIMDLI
 40
0.38
  9
$DIMRND
 40
0.0
  9
$DIMDLE
 40
0.0
  9
$DIMEXE
 40
0.18
  9
$DIMTP
 40
0.0
  9
$DIMTM
 40
0.0
  9
$DIMTXT
 40
0.18
  9
$DIMCEN
 40
0.09
  9
$DIMTSZ
 40
0.0
  9
$DIMTOL
 70
     0
  9
$DIMLIM
 70
     0
  9
$DIMTIH
 70
     1
  9
$DIMTOH
 70
     1
  9
$DIMSE1
 70
     0
  9
$DIMSE2
 70
     0
  9
$DIMTAD
 70
     0
  9
$DIMZIN
 70
     0
  9
$DIMBLK
  1

  9
$DIMASO
 70
     1
  9
$DIMSHO
 70
     1
  9
$DIMPOST
  1

  9
$DIMAPOST
  1

  9
$DIMALT
 70
     0
  9
$DIMALTD
 70
     3
  9
$DIMALTF
 40
0.0393700787401575
  9
$DIMLFAC
 40
1.0
  9
$DIMTOFL
 70
     0
  9
$DIMTVP
 40
0.0
  9
$DIMTIX
 70
     0
  9
$DIMSOXD
 70
     0
  9
$DIMSAH
 70
     0
  9
$DIMBLK1
  1

  9
$DIMBLK2
  1

  9
$DIMSTYLE
  2
STANDARD
  9
$DIMCLRD
 70
     0
  9
$DIMCLRE
 70
     0
  9
$DIMCLRT
 70
     0
  9
$DIMTFAC
 40
1.0
  9
$DIMGAP
 40
0.09
  9
$LUNITS
 70
     2
  9
$LUPREC
 70
     4
  9
$SKETCHINC
 40
0.1
  9
$FILLETRAD
 40
0.5
  9
$AUNITS
 70
     0
  9
$AUPREC
 70
     0
  9
$MENU
  1
.
  9
$ELEVATION
 40
0.0
  9
$PELEVATION
 40
0.0
  9
$THICKNESS
 40
0.0
  9
$LIMCHECK
 70
     0
  9
$CHAMFERA
 40
0.0
  9
$CHAMFERB
 40
0.0
  9
$SKPOLY
 70
     0
  9
$TDCREATE
 40
2459136.751460047
  9
$TDUPDATE
 40
2459136.751460405
  9
$TDINDWG
 40
0.0000000116
  9
$TDUSRTIMER
 40
0.0000000116
  9
$USRTIMER
 70
     1
  9
$ANGBASE
 50
0.0
  9
$ANGDIR
 70
     0
  9
$PDMODE
 70
     0
  9
$PDSIZE
 40
0.0
  9
$PLINEWID
 40
0.0
  9
$COORDS
 70
     1
  9
$SPLFRAME
 70
     0
  9
$SPLINETYPE
 70
     6
  9
$SPLINESEGS
 70
     8
  9
$ATTDIA
 70
     0
  9
$ATTREQ
 70
     1
  9
$HANDLING
 70
     1
  9
$HANDSEED
  5
A59
  9
$SURFTAB1
 70
     6
  9
$SURFTAB2
 70
     6
  9
$SURFTYPE
 70
     6
  9
$SURFU
 70
     6
  9
$SURFV
 70
     6
  9
$UCSNAME
  2

  9
$UCSORG
 10
0.0
 20
0.0
 30
0.0
  9
$UCSXDIR
 10
1.0
 20
0.0
 30
0.0
  9
$UCSYDIR
 10
0.0
 20
1.0
 30
0.0
  9
$PUCSNAME
  2

  9
$PUCSORG
 10
0.0
 20
0.0
 30
0.0
  9
$PUCSXDIR
 10
1.0
 20
0.0
 30
0.0
  9
$PUCSYDIR
 10
0.0
 20
1.0
 30
0.0
  9
$USERI1
 70
     0
  9
$USERI2
 70
     0
  9
$USERI3
 70
     0
  9
$USERI4
 70
     0
  9
$USERI5
 70
     0
  9
$USERR1
 40
0.0
  9
$USERR2
 40
0.0
  9
$USERR3
 40
0.0
  9
$USERR4
 40
0.0
  9
$USERR5
 40
0.0
  9
$WORLDVIEW
 70
     1
  9
$SHADEDGE
 70
     3
  9
$SHADEDIF
 70
    70
  9
$TILEMODE
 70
     1
  9
$MAXACTVP
 70
    64
  9
$PLIMCHECK
 70
     0
  9
$PEXTMIN
 10
1.000000000000000E+20
 20
1.000000000000000E+20
 30
1.000000000000000E+20
  9
$PEXTMAX
 10
-1.000000000000000E+20
 20
-1.000000000000000E+20
 30
-1.000000000000000E+20
  9
$PLIMMIN
 10
0.0
 20
0.0
  9
$PLIMMAX
 10
12.0
 20
9.0
  9
$UNITMODE
 70
     0
  9
$VISRETAIN
 70
     1
  9
$PLINEGEN
 70
     0
  9
$PSLTSCALE
 70
     1
  0
ENDSEC
  0
SECTION
  2
TABLES
  0
TABLE
  2
VPORT
 70
     1
  0
VPORT
  2
*ACTIVE
 70
     0
 10
0.0
 20
0.0
 11
1.0
 21
1.0
 12
10.42990654205607
 22
4.5
 13
0.0
 23
0.0
 14
0.5
 24
0.5
 15
0.5
 25
0.5
 16
0.0
 26
0.0
 36
1.0
 17
0.0
 27
0.0
 37
0.0
 40
9.0
 41
1.972972972850329
 42
50.0
 43
0.0
 44
0.0
 50
0.0
 51
0.0
 71
     0
 72
   100
 73
     1
 74
     3
 75
     0
 76
     0
 77
     0
 78
     0
  0
ENDTAB
  0
TABLE
  2
LTYPE
 70
    25
  0
LTYPE
  2
CONTINUOUS
 70
     0
  3
Solid line
 72
    65
 73
     0
 40
0.0
  0
LTYPE
  2
BORDER
 70
     0
  3
__ __ . __ __ . __ __ . __ __ . __ __ . __ __ .
 72
    65
 73
     6
 40
8.75
 49
2.5
 49
-1.25
 49
2.5
 49
-1.25
 49
0.0
 49
-1.25
  0
LTYPE
  2
CENTER
 70
     0
  3
____ _ ____ _ ____ _ ____ _ ____ _ ____ _ ____ 
 72
    65
 73
     4
 40
10.0
 49
6.25
 49
-1.25
 49
1.25
 49
-1.25
  0
LTYPE
  2
DASHDOT
 70
     0
  3
__ . __ . __ . __ . __ . __ . __ . __ . __ . __
 72
    65
 73
     4
 40
5.0
 49
2.5
 49
-1.25
 49
0.0
 49
-1.25
  0
LTYPE
  2
DASHED
 70
     0
  3
__ __ __ __ __ __ __ __ __ __ __ __ __ __ __ __
 72
    65
 73
     2
 40
3.75
 49
2.5
 49
-1.25
  0
LTYPE
  2
DIVIDE
 70
     0
  3
____ . . ____ . . ____ . . ____ . . ____ . . __
 72
    65
 73
     6
 40
6.25
 49
2.5
 49
-1.25
 49
0.0
 49
-1.25
 49
0.0
 49
-1.25
  0
LTYPE
  2
DOT
 70
     0
  3
. . . . . . . . . . . . . . . . . . . . . . . .
 72
    65
 73
     2
 40
1.25
 49
0.0
 49
-1.25
  0
LTYPE
  2
HIDDEN
 70
     0
  3
__ __ __ __ __ __ __ __ __ __ __ __ __ __ __ __
 72
    65
 73
     2
 40
1.875
 49
1.25
 49
-0.625
  0
LTYPE
  2
PHANTOM
 70
     0
  3
______  __  __  ______  __  __  ______  __  __ 
 72
    65
 73
     6
 40
12.5
 49
6.25
 49
-1.25
 49
1.25
 49
-1.25
 49
1.25
 49
-1.25
  0
LTYPE
  2
BORDER2
 70
     0
  3
__.__.__.__.__.__.__.__.__.__.__.__.__.__.__.__
 72
    65
 73
     2
 40
2.5
 49
2.5
 49
0.0
  0
LTYPE
  2
BORDERX2
 70
     0
  3
____ ____ . ____ ____ . ____ ____ . ____ ____ .
 72
    65
 73
     6
 40
13.75
 49
5.0
 49
-1.25
 49
5.0
 49
-1.25
 49
0.0
 49
-1.25
  0
LTYPE
  2
CENTER2
 70
     0
  3
___ _ ___ _ ___ _ ___ _ ___ _ ___ _ ___ _ ___ _
 72
    65
 73
     4
 40
8.4
 49
4.65
 49
-1.25
 49
1.25
 49
-1.25
  0
LTYPE
  2
CENTERX2
 70
     0
  3
_________ _ _________ _ _________ _ _________ _
 72
    65
 73
     4
 40
16.8
 49
13.05
 49
-1.25
 49
1.25
 49
-1.25
  0
LTYPE
  2
DASHDOT2
 70
     0
  3
_ . _ . _ . _ . _ . _ . _ . _ . _ . _ . _ . _ .
 72
    65
 73
     4
 40
3.75
 49
1.25
 49
-1.25
 49
0.0
 49
-1.25
  0
LTYPE
  2
DASHDOTX2
 70
     0
  3
________ . ________ . ________ . ________ . ___
 72
    65
 73
     4
 40
12.5
 49
10.0
 49
-1.25
 49
0.0
 49
-1.25
  0
LTYPE
  2
DASHED2
 70
     0
  3
_ _ _ _ _ _ _ _ _ _ _ _ _ _ _ _ _ _ _ _ _ _ _ _
 72
    65
 73
     2
 40
2.5
 49
1.25
 49
-1.25
  0
LTYPE
  2
DASHEDX2
 70
     0
  3
____ ____ ____ ____ ____ ____ ____ ____ ____ __
 72
    65
 73
     4
 40
2.5
 49
10.0
 49
-1.25
 49
0.0
 49
-1.25
  0
LTYPE
  2
DIVIDE2
 70
     0
  3
_ _ . . _ _ . . _ _ . . _ _ . . _ _ . . _ _ . .
 72
    65
 73
     8
 40
7.5
 49
1.25
 49
-1.25
 49
1.25
 49
-1.25
 49
0.0
 49
-1.25
 49
0.0
 49
-1.25
  0
LTYPE
  2
DIVIDEX2
 70
     0
  3
________________ . . ________________ . . _____
 72
    65
 73
     7
 40
13.75
 49
0.625
 49
10.0
 49
-1.25
 49
0.0
 49
-1.25
 49
0.0
 49
-1.25
  0
LTYPE
  2
DOT2
 70
     0
  3
...............................................
 72
    65
 73
     2
 40
0.625
 49
0.0
 49
-0.625
  0
LTYPE
  2
DOTX2
 70
     0
  3
.  .  .  .  .  .  .  .  .  .  .  .  .  .  .  . 
 72
    65
 73
     2
 40
2.5
 49
0.0
 49
-2.5
  0
LTYPE
  2
HIDDEN2
 70
     0
  3
_ _ _ _ _ _ _ _ _ _ _ _ _ _ _ _ _ _ _ _ _ _ _ _
 72
    65
 73
     2
 40
1.25
 49
0.625
 49
-0.625
  0
LTYPE
  2
HIDDENX2
 70
     0
  3
____ ____ ____ ____ ____ ____ ____ ____ ____ __
 72
    65
 73
     2
 40
3.125
 49
2.5
 49
-0.625
  0
LTYPE
  2
PHANTOM2
 70
     0
  3
___  __  __  ___  __  __  ___  __  __ ___  __  
 72
    65
 73
     6
 40
9.375
 49
3.125
 49
-1.25
 49
1.25
 49
-1.25
 49
1.25
 49
-1.25
  0
LTYPE
  2
PHANTOMX2
 70
     0
  3
____________  __  __  ____________  __  __  ___
 72
    65
 73
     6
 40
18.75
 49
12.5
 49
-1.25
 49
1.25
 49
-1.25
 49
1.25
 49
-1.25
  0
ENDTAB
  0
TABLE
  2
LAYER
 70
     2
  0
LAYER
  2
0
 70
     0
 62
     7
  6
CONTINUOUS
  0
LAYER
  2
2
 70
     0
 62
     7
  6
CONTINUOUS
  0
ENDTAB
  0
TABLE
  2
STYLE
 70
     2
  0
STYLE
  2
STANDARD
 70
     0
 40
0.0
 41
1.0
 50
0.0
 71
     0
 42
0.2
  3
txt
  4

  0
STYLE
  2
EXCESS_STANDARD
 70
     0
 40
0.2
 41
1.0
 50
0.0
 71
     0
 42
0.2
  3
txt
  4
BIGFONT
  0
ENDTAB
  0
TABLE
  2
VIEW
 70
     0
  0
ENDTAB
  0
TABLE
  2
UCS
 70
     0
  0
ENDTAB
  0
TABLE
  2
APPID
 70
     1
  0
APPID
  2
ACAD
 70
     0
  0
ENDTAB
  0
TABLE
  2
DIMSTYLE
 70
     2
  0
DIMSTYLE
  2
STANDARD
 70
     0
  3

  4

  5

  6

  7

 40
1.0
 41
0.18
 42
0.0625
 43
0.38
 44
0.18
 45
0.0
 46
0.0
 47
0.0
 48
0.0
140
0.18
141
0.09
142
0.0
143
25.4
144
1.0
145
0.0
146
1.0
147
0.09
 71
     0
 72
     0
 73
     1
 74
     1
 75
     0
 76
     0
 77
     0
 78
     0
170
     0
171
     2
172
     0
173
     0
174
     0
175
     0
176
     0
177
     0
178
     0
  0
DIMSTYLE
  2
ISO-25
 70
     0
  3

  4

  5

  6

  7

 40
1.0
 41
3.5
 42
0.3
 43
9.0
 44
0.18
 45
0.0
 46
0.0
 47
0.0
 48
0.0
140
5.0
141
0.09
142
0.0
143
25.4
144
1.0
145
0.0
146
0.5
147
0.5
 71
     0
 72
     0
 73
     1
 74
     1
 75
     0
 76
     0
 77
     1
 78
     0
170
     0
171
     2
172
     0
173
     0
174
     0
175
     0
176
     0
177
     0
178
     0
  0
ENDTAB
  0
ENDSEC
  0
SECTION
  2
BLOCKS
  0
BLOCK
  8
0
  2
$MODEL_SPACE
 70
     0
 10
0.0
 20
0.0
 30
0.0
  3
$MODEL_SPACE
  1

  0
ENDBLK
  5
21
  8
0
  0
BLOCK
 67
     1
  8
0
  2
$PAPER_SPACE
 70
     0
 10
0.0
 20
0.0
 30
0.0
  3
$PAPER_SPACE
  1

  0
ENDBLK
  5
1D
 67
     1
  8
0
  0
BLOCK
  8
0
  2
0-NONE
 70
     0
 10
0.0
 20
0.0
 30
0.0
  3
0-NONE
  1

  0
LINE
  5
89
  8
0
  6
CONTINUOUS
 62
     7
 10
-40.05287395379997
 20
8.215261456500002
 30
0.0
 11
-40.05287395379997
 21
9.04011800890001
 31
0.0
  0
LINE
  5
8A
  8
0
  6
CONTINUOUS
 62
     7
 10
-120.0528721656
 20
9.04011800890001
 30
0.0
 11
-120.0528721656
 21
8.215261456500002
 31
0.0
  0
LINE
  5
8B
  8
0
  6
CONTINUOUS
 62
     7
 10
-153.7827904667
 20
77.4818939607
 30
0.0
 11
-153.7866498675
 21
77.47417046449999
 31
0.0
  0
LINE
  5
8C
  8
0
  6
CONTINUOUS
 62
     7
 10
-6.319088801299984
 20
77.47416415039999
 30
0.0
 11
-6.322955652699989
 21
77.4818939607
 31
0.0
  0
LINE
  5
8D
  8
0
  6
CONTINUOUS
 62
     7
 10
-59.76280191499998
 20
-21.9397669107
 30
0.0
 11
-100.3044638183
 21
-21.9397669107
 31
0.0
  0
CIRCLE
  5
8E
  8
0
  6
CONTINUOUS
 62
     7
 10
-80.05356344849997
 20
8.19969771129999
 30
0.0
 40
37.87618369561918
  0
CIRCLE
  5
8F
  8
0
  6
CONTINUOUS
 62
     7
 10
-80.05355937619998
 20
8.205957179999984
 30
0.0
 40
40.00440651659713
  0
ARC
  5
90
  8
0
  6
CONTINUOUS
 62
     7
 10
-80.05287305969998
 20
9.050818381699997
 30
0.0
 40
40.00000053715509
 50
359.984672845
 51
180.0153271550999
  0
POLYLINE
  5
91
  8
0
  6
CONTINUOUS
 62
     7
 66
     1
 10
0.0
 20
0.0
 30
0.0
  0
VERTEX
  5
92
  8
0
  6
CONTINUOUS
 62
     7
 10
-59.79943641979997
 20
-21.9399382311
 30
0.0
  0
VERTEX
  5
93
  8
0
  6
CONTINUOUS
 62
     7
 10
-59.81410475029998
 20
-21.95281514610001
 30
0.0
  0
VERTEX
  5
94
  8
0
  6
CONTINUOUS
 62
     7
 10
-59.84522582549999
 20
-21.9752191677
 30
0.0
  0
SEQEND
  5
95
  8
0
  6
CONTINUOUS
 62
     7
  0
ARC
  5
96
  8
0
  6
CONTINUOUS
 62
     7
 10
-80.0778945745
 20
9.609474943999999
 30
0.0
 40
37.47497173192534
 50
165.5515811715
 51
187.6630259222999
  0
ARC
  5
97
  8
0
  6
CONTINUOUS
 62
     7
 10
-80.02785154489999
 20
9.609474943999999
 30
0.0
 40
37.47497173192536
 50
352.3369740777
 51
14.44841882850001
  0
POLYLINE
  5
98
  8
0
  6
CONTINUOUS
 62
     7
 66
     1
 10
0.0
 20
0.0
 30
0.0
  0
VERTEX
  5
99
  8
0
  6
CONTINUOUS
 62
     7
 10
-100.2605202939
 20
-21.9752191677
 30
0.0
  0
VERTEX
  5
9A
  8
0
  6
CONTINUOUS
 62
     7
 10
-100.2935598935
 20
-21.9513650401
 30
0.0
  0
VERTEX
  5
9B
  8
0
  6
CONTINUOUS
 62
     7
 10
-100.3063096996
 20
-21.9399382311
 30
0.0
  0
SEQEND
  5
9C
  8
0
  6
CONTINUOUS
 62
     7
  0
LINE
  5
9D
  8
0
  6
CONTINUOUS
 62
     7
 10
-100.2605202939
 20
-21.9752191677
 30
0.0
 11
-99.86911708069998
 21
-22.21617067390001
 31
0.0
  0
ARC
  5
9E
  8
0
  6
CONTINUOUS
 62
     7
 10
-80.05287305969998
 20
9.632847087399995
 30
0.0
 40
37.51057796757599
 50
238.1104046972
 51
301.8895953027999
  0
LINE
  5
9F
  8
0
  6
CONTINUOUS
 62
     7
 10
-60.23662903859997
 20
-22.21617067390001
 30
0.0
 11
-59.84522582549999
 21
-21.9752191677
 31
0.0
  0
LINE
  5
A0
  8
0
  6
CONTINUOUS
 62
     4
 10
-29.75266607059999
 20
-60.75590128420001
 30
0.0
 11
-50.35307811159998
 21
-60.75590128420001
 31
0.0
  0
LINE
  5
A1
  8
0
  6
CONTINUOUS
 62
     4
 10
-29.75266607059999
 20
-54.15507734420001
 30
0.0
 11
-29.75266607059999
 21
-60.75590128420001
 31
0.0
  0
LINE
  5
A2
  8
0
  6
CONTINUOUS
 62
     4
 10
-50.35307811159998
 20
-54.15507734420001
 30
0.0
 11
-29.75266607059999
 21
-54.15507734420001
 31
0.0
  0
LINE
  5
A3
  8
0
  6
CONTINUOUS
 62
     4
 10
-50.35307811159998
 20
-60.75590128420001
 30
0.0
 11
-50.35307811159998
 21
-54.15507734420001
 31
0.0
  0
CIRCLE
  5
A4
  8
0
  6
CONTINUOUS
 62
     7
 10
-140.0529380873
 20
69.020411945
 30
0.0
 40
2.95503072764652
  0
CIRCLE
  5
A5
  8
0
  6
CONTINUOUS
 62
     7
 10
-140.0529473138
 20
-50.979589108
 30
0.0
 40
2.955031967034671
  0
CIRCLE
  5
A6
  8
0
  6
CONTINUOUS
 62
     7
 10
-20.05294678559997
 20
-50.97958652050001
 30
0.0
 40
2.955034554450596
  0
CIRCLE
  5
A7
  8
0
  6
CONTINUOUS
 62
     7
 10
-20.05293755909997
 20
69.02041453249998
 30
0.0
 40
2.955033315066816
  0
CIRCLE
  5
A8
  8
0
  6
CONTINUOUS
 62
     4
 10
-80.05561101729998
 20
69.0965033269
 30
0.0
 40
9.299839809982593
  0
LINE
  5
A9
  8
0
  6
CONTINUOUS
 62
     7
 10
-155.0528760399
 20
-53.93610820950001
 30
0.0
 11
-155.0527940835
 21
-53.98127491790001
 31
0.0
  0
LINE
  5
AA
  8
0
  6
CONTINUOUS
 62
     7
 10
-155.0528760399
 20
72.10799495570001
 30
0.0
 11
-155.0528760399
 21
-53.93610820950001
 31
0.0
  0
LINE
  5
AB
  8
0
  6
CONTINUOUS
 62
     7
 10
-155.0527940835
 20
72.15311550210001
 30
0.0
 11
-155.0528760399
 21
72.10799495570001
 31
0.0
  0
LINE
  5
AC
  8
0
  6
CONTINUOUS
 62
     7
 10
-5.052870079499996
 20
72.10799495570001
 30
0.0
 11
-5.05295203579999
 21
72.15311550210001
 31
0.0
  0
LINE
  5
AD
  8
0
  6
CONTINUOUS
 62
     7
 10
-5.052870079499996
 20
72.10799495570001
 30
0.0
 11
-5.052870079499996
 21
-53.93610820950001
 31
0.0
  0
LINE
  5
AE
  8
0
  6
CONTINUOUS
 62
     7
 10
-5.05295203579999
 20
-53.98127491790001
 30
0.0
 11
-5.052870079499996
 21
-53.93610820950001
 31
0.0
  0
CIRCLE
  5
AF
  8
0
  6
CONTINUOUS
 62
     4
 10
-80.05547216779999
 20
69.11207556259998
 30
0.0
 40
8.999580335263621
  0
LINE
  5
B0
  8
0
  6
CONTINUOUS
 62
     4
 10
-80.75187995379997
 20
65.7382519599
 30
0.0
 11
-80.75187995379997
 21
75.5609094697
 31
0.0
  0
LINE
  5
B1
  8
0
  6
CONTINUOUS
 62
     4
 10
-80.75187995379997
 20
75.5609094697
 30
0.0
 11
-79.49398801249998
 21
75.5609094697
 31
0.0
  0
POLYLINE
  5
B2
  8
0
  6
CONTINUOUS
 62
     4
 66
     1
 10
0.0
 20
0.0
 30
0.0
  0
VERTEX
  5
B3
  8
0
  6
CONTINUOUS
 62
     4
 10
-79.49398801249998
 20
75.5609094697
 30
0.0
  0
VERTEX
  5
B4
  8
0
  6
CONTINUOUS
 62
     4
 10
-79.31899739009998
 20
75.5097958735
 30
0.0
  0
VERTEX
  5
B5
  8
0
  6
CONTINUOUS
 62
     4
 10
-79.24171170269997
 20
75.46161135739999
 30
0.0
  0
VERTEX
  5
B6
  8
0
  6
CONTINUOUS
 62
     4
 10
-79.21294722289997
 20
75.42550092249999
 30
0.0
  0
VERTEX
  5
B7
  8
0
  6
CONTINUOUS
 62
     4
 10
-79.2013298469
 20
75.3818255553
 30
0.0
  0
VERTEX
  5
B8
  8
0
  6
CONTINUOUS
 62
     4
 10
-79.2163847345
 20
75.3261133737
 30
0.0
  0
VERTEX
  5
B9
  8
0
  6
CONTINUOUS
 62
     4
 10
-79.24784096939999
 20
75.2782791548
 30
0.0
  0
VERTEX
  5
BA
  8
0
  6
CONTINUOUS
 62
     4
 10
-79.31034528699999
 20
75.2136232112
 30
0.0
  0
VERTEX
  5
BB
  8
0
  6
CONTINUOUS
 62
     4
 10
-79.43849277039999
 20
75.116941153
 30
0.0
  0
SEQEND
  5
BC
  8
0
  6
CONTINUOUS
 62
     4
  0
LINE
  5
BD
  8
0
  6
CONTINUOUS
 62
     4
 10
-79.43849277039999
 20
75.116941153
 30
0.0
 11
-79.43849277039999
 21
71.8982229874
 31
0.0
  0
LINE
  5
BE
  8
0
  6
CONTINUOUS
 62
     4
 10
-79.43849277039999
 20
71.8982229874
 30
0.0
 11
-74.94337897329999
 21
71.8982229874
 31
0.0
  0
LINE
  5
BF
  8
0
  6
CONTINUOUS
 62
     4
 10
-74.94337897329999
 20
71.8982229874
 30
0.0
 11
-74.94337897329999
 21
70.5848353358
 31
0.0
  0
LINE
  5
C0
  8
0
  6
CONTINUOUS
 62
     4
 10
-74.94337897329999
 20
70.5848353358
 30
0.0
 11
-79.43849277039999
 21
70.5848353358
 31
0.0
  0
LINE
  5
C1
  8
0
  6
CONTINUOUS
 62
     4
 10
-79.43849277039999
 20
70.5848353358
 30
0.0
 11
-79.43849277039999
 21
65.7382519599
 31
0.0
  0
LINE
  5
C2
  8
0
  6
CONTINUOUS
 62
     4
 10
-79.43849277039999
 20
65.7382519599
 30
0.0
 11
-73.66698834629997
 21
65.7382519599
 31
0.0
  0
LINE
  5
C3
  8
0
  6
CONTINUOUS
 62
     4
 10
-73.66698834629997
 20
65.7382519599
 30
0.0
 11
-73.66698834629997
 21
64.4248643075
 31
0.0
  0
LINE
  5
C4
  8
0
  6
CONTINUOUS
 62
     4
 10
-73.66698834629997
 20
64.4248643075
 30
0.0
 11
-85.70945396599998
 21
64.4248643075
 31
0.0
  0
LINE
  5
C5
  8
0
  6
CONTINUOUS
 62
     4
 10
-85.70945396599998
 20
64.4248643075
 30
0.0
 11
-85.70945396599998
 21
65.7382519599
 31
0.0
  0
LINE
  5
C6
  8
0
  6
CONTINUOUS
 62
     4
 10
-85.70945396599998
 20
65.7382519599
 30
0.0
 11
-80.75187995379997
 21
65.7382519599
 31
0.0
  0
LINE
  5
C7
  8
0
  6
CONTINUOUS
 62
     4
 10
-30.05287231459999
 20
-60.4397689492
 30
0.0
 11
-29.75266607059999
 21
-60.75590128420001
 31
0.0
  0
LINE
  5
C8
  8
0
  6
CONTINUOUS
 62
     4
 10
-30.05287231459999
 20
-54.43976455090001
 30
0.0
 11
-30.05287231459999
 21
-60.4397689492
 31
0.0
  0
LINE
  5
C9
  8
0
  6
CONTINUOUS
 62
     4
 10
-30.05287231459999
 20
-54.43976455090001
 30
0.0
 11
-29.75266607059999
 21
-54.15507734420001
 31
0.0
  0
LINE
  5
CA
  8
0
  6
CONTINUOUS
 62
     4
 10
-50.05287373019999
 20
-54.43976455090001
 30
0.0
 11
-50.35307811159998
 21
-54.15507734420001
 31
0.0
  0
LINE
  5
CB
  8
0
  6
CONTINUOUS
 62
     4
 10
-50.05287373019999
 20
-60.4397689492
 30
0.0
 11
-50.05287373019999
 21
-54.43976455090001
 31
0.0
  0
LINE
  5
CC
  8
0
  6
CONTINUOUS
 62
     4
 10
-50.05287373019999
 20
-60.4397689492
 30
0.0
 11
-50.35307811159998
 21
-60.75590128420001
 31
0.0
  0
CIRCLE
  5
CD
  8
0
  6
CONTINUOUS
 62
     7
 10
-20.05276693159999
 20
-50.9809212044
 30
0.0
 40
2.423559314791695
  0
CIRCLE
  5
CE
  8
0
  6
CONTINUOUS
 62
     7
 10
-140.0527679751
 20
-50.9809212043
 30
0.0
 40
2.423559314670161
  0
CIRCLE
  5
CF
  8
0
  6
CONTINUOUS
 62
     7
 10
-20.05275756539999
 20
69.01907922819998
 30
0.0
 40
2.423561181975701
  0
CIRCLE
  5
D0
  8
0
  6
CONTINUOUS
 62
     7
 10
-140.0527586089
 20
69.01907922819998
 30
0.0
 40
2.423561181842155
  0
LINE
  5
D1
  8
0
  6
CONTINUOUS
 62
     4
 10
-44.93788810029997
 20
-57.49058612260001
 30
0.0
 11
-46.88022093429998
 21
-55.54824707690001
 31
0.0
  0
LINE
  5
D2
  8
0
  6
CONTINUOUS
 62
     4
 10
-46.88022093429998
 20
-55.54824707690001
 30
0.0
 11
-46.66440741679997
 21
-55.33243410940001
 31
0.0
  0
LINE
  5
D3
  8
0
  6
CONTINUOUS
 62
     4
 10
-46.66440741679997
 20
-55.33243410940001
 30
0.0
 11
-44.50625733989997
 21
-57.49058612260001
 31
0.0
  0
LINE
  5
D4
  8
0
  6
CONTINUOUS
 62
     4
 10
-44.50625733989997
 20
-57.49058612260001
 30
0.0
 11
-46.68598802349999
 21
-59.67031496120001
 31
0.0
  0
LINE
  5
D5
  8
0
  6
CONTINUOUS
 62
     4
 10
-46.68598802349999
 20
-59.67031496120001
 30
0.0
 11
-46.88022093429998
 21
-59.43291772020001
 31
0.0
  0
LINE
  5
D6
  8
0
  6
CONTINUOUS
 62
     4
 10
-46.88022093429998
 20
-59.43291772020001
 30
0.0
 11
-44.93788810029997
 21
-57.49058612260001
 31
0.0
  0
LINE
  5
D7
  8
0
  6
CONTINUOUS
 62
     4
 10
-35.37729190249999
 20
-57.49058612260001
 30
0.0
 11
-33.43495906849998
 21
-59.43291772020001
 31
0.0
  0
LINE
  5
D8
  8
0
  6
CONTINUOUS
 62
     4
 10
-33.43495906849998
 20
-59.43291772020001
 30
0.0
 11
-33.62919197929997
 21
-59.67031496120001
 31
0.0
  0
LINE
  5
D9
  8
0
  6
CONTINUOUS
 62
     4
 10
-33.62919197929997
 20
-59.67031496120001
 30
0.0
 11
-35.80892266289999
 21
-57.49058612260001
 31
0.0
  0
LINE
  5
DA
  8
0
  6
CONTINUOUS
 62
     4
 10
-35.80892266289999
 20
-57.49058612260001
 30
0.0
 11
-33.65077258599999
 21
-55.33243410940001
 31
0.0
  0
LINE
  5
DB
  8
0
  6
CONTINUOUS
 62
     4
 10
-33.65077258599999
 20
-55.33243410940001
 30
0.0
 11
-33.43495906849998
 21
-55.54824707690001
 31
0.0
  0
LINE
  5
DC
  8
0
  6
CONTINUOUS
 62
     4
 10
-33.43495906849998
 20
-55.54824707690001
 30
0.0
 11
-35.37729190249999
 21
-57.49058612260001
 31
0.0
  0
POLYLINE
  5
DD
  8
0
  6
CONTINUOUS
 62
     4
 66
     1
 10
0.0
 20
0.0
 30
0.0
  0
VERTEX
  5
DE
  8
0
  6
CONTINUOUS
 62
     4
 10
-37.64334873809997
 20
-56.95104625570001
 30
0.0
  0
VERTEX
  5
DF
  8
0
  6
CONTINUOUS
 62
     4
 10
-37.15067537089999
 20
-57.3347559834
 30
0.0
  0
VERTEX
  5
E0
  8
0
  6
CONTINUOUS
 62
     4
 10
-36.73692600389998
 20
-57.5984926063
 30
0.0
  0
SEQEND
  5
E1
  8
0
  6
CONTINUOUS
 62
     4
  0
ARC
  5
E2
  8
0
  6
CONTINUOUS
 62
     4
 10
-37.14316822979998
 20
-58.4046409388
 30
0.0
 40
0.9027224823260901
 50
359.1150392659998
 51
63.25510006770006
  0
POLYLINE
  5
E3
  8
0
  6
CONTINUOUS
 62
     4
 66
     1
 10
0.0
 20
0.0
 30
0.0
  0
VERTEX
  5
E4
  8
0
  6
CONTINUOUS
 62
     4
 10
-36.24055342329999
 20
-58.41858336520001
 30
0.0
  0
VERTEX
  5
E5
  8
0
  6
CONTINUOUS
 62
     4
 10
-36.33443073889998
 20
-58.93731407750001
 30
0.0
  0
VERTEX
  5
E6
  8
0
  6
CONTINUOUS
 62
     4
 10
-36.56427369969998
 20
-59.2818426833
 30
0.0
  0
SEQEND
  5
E7
  8
0
  6
CONTINUOUS
 62
     4
  0
POLYLINE
  5
E8
  8
0
  6
CONTINUOUS
 62
     4
 66
     1
 10
0.0
 20
0.0
 30
0.0
  0
VERTEX
  5
E9
  8
0
  6
CONTINUOUS
 62
     4
 10
-36.56427369969998
 20
-59.2818426833
 30
0.0
  0
VERTEX
  5
EA
  8
0
  6
CONTINUOUS
 62
     4
 10
-37.00642467989999
 20
-59.53258103570001
 30
0.0
  0
VERTEX
  5
EB
  8
0
  6
CONTINUOUS
 62
     4
 10
-37.40595088859999
 20
-59.58239033410001
 30
0.0
  0
SEQEND
  5
EC
  8
0
  6
CONTINUOUS
 62
     4
  0
POLYLINE
  5
ED
  8
0
  6
CONTINUOUS
 62
     4
 66
     1
 10
0.0
 20
0.0
 30
0.0
  0
VERTEX
  5
EE
  8
0
  6
CONTINUOUS
 62
     4
 10
-37.40595088859999
 20
-59.58239033410001
 30
0.0
  0
VERTEX
  5
EF
  8
0
  6
CONTINUOUS
 62
     4
 10
-37.88379387519998
 20
-59.5060031524
 30
0.0
  0
VERTEX
  5
F0
  8
0
  6
CONTINUOUS
 62
     4
 10
-38.20446686399998
 20
-59.30342695680001
 30
0.0
  0
SEQEND
  5
F1
  8
0
  6
CONTINUOUS
 62
     4
  0
POLYLINE
  5
F2
  8
0
  6
CONTINUOUS
 62
     4
 66
     1
 10
0.0
 20
0.0
 30
0.0
  0
VERTEX
  5
F3
  8
0
  6
CONTINUOUS
 62
     4
 10
-38.20446686399998
 20
-59.30342695680001
 30
0.0
  0
VERTEX
  5
F4
  8
0
  6
CONTINUOUS
 62
     4
 10
-38.48211274999997
 20
-58.8779051434
 30
0.0
  0
VERTEX
  5
F5
  8
0
  6
CONTINUOUS
 62
     4
 10
-38.54977147239998
 20
-58.48332874990001
 30
0.0
  0
SEQEND
  5
F6
  8
0
  6
CONTINUOUS
 62
     4
  0
LINE
  5
F7
  8
0
  6
CONTINUOUS
 62
     4
 10
-38.54977147239998
 20
-58.48332874990001
 30
0.0
 11
-38.54977147239998
 21
-58.26751578240001
 31
0.0
  0
LINE
  5
F8
  8
0
  6
CONTINUOUS
 62
     4
 10
-38.54977147239998
 20
-58.26751578240001
 30
0.0
 11
-38.05339516659998
 21
-58.26751578240001
 31
0.0
  0
LINE
  5
F9
  8
0
  6
CONTINUOUS
 62
     4
 10
-38.05339516659998
 20
-58.26751578240001
 30
0.0
 11
-38.05339516659998
 21
-58.46175191830001
 31
0.0
  0
POLYLINE
  5
FA
  8
0
  6
CONTINUOUS
 62
     4
 66
     1
 10
0.0
 20
0.0
 30
0.0
  0
VERTEX
  5
FB
  8
0
  6
CONTINUOUS
 62
     4
 10
-38.05339516659998
 20
-58.46175191830001
 30
0.0
  0
VERTEX
  5
FC
  8
0
  6
CONTINUOUS
 62
     4
 10
-38.00790192139999
 20
-58.770863222
 30
0.0
  0
VERTEX
  5
FD
  8
0
  6
CONTINUOUS
 62
     4
 10
-37.88074286239998
 20
-58.9797075055
 30
0.0
  0
SEQEND
  5
FE
  8
0
  6
CONTINUOUS
 62
     4
  0
POLYLINE
  5
FF
  8
0
  6
CONTINUOUS
 62
     4
 66
     1
 10
0.0
 20
0.0
 30
0.0
  0
VERTEX
  5
100
  8
0
  6
CONTINUOUS
 62
     4
 10
-37.88074286239998
 20
-58.9797075055
 30
0.0
  0
VERTEX
  5
101
  8
0
  6
CONTINUOUS
 62
     4
 10
-37.65602217569997
 20
-59.12062392680001
 30
0.0
  0
VERTEX
  5
102
  8
0
  6
CONTINUOUS
 62
     4
 10
-37.44911582729998
 20
-59.152359374
 30
0.0
  0
SEQEND
  5
103
  8
0
  6
CONTINUOUS
 62
     4
  0
POLYLINE
  5
104
  8
0
  6
CONTINUOUS
 62
     4
 66
     1
 10
0.0
 20
0.0
 30
0.0
  0
VERTEX
  5
105
  8
0
  6
CONTINUOUS
 62
     4
 10
-37.44911582729998
 20
-59.152359374
 30
0.0
  0
VERTEX
  5
106
  8
0
  6
CONTINUOUS
 62
     4
 10
-37.13999123829998
 20
-59.1068430832
 30
0.0
  0
VERTEX
  5
107
  8
0
  6
CONTINUOUS
 62
     4
 10
-36.93115891469998
 20
-58.9797075055
 30
0.0
  0
SEQEND
  5
108
  8
0
  6
CONTINUOUS
 62
     4
  0
POLYLINE
  5
109
  8
0
  6
CONTINUOUS
 62
     4
 66
     1
 10
0.0
 20
0.0
 30
0.0
  0
VERTEX
  5
10A
  8
0
  6
CONTINUOUS
 62
     4
 10
-36.93115891469998
 20
-58.9797075055
 30
0.0
  0
VERTEX
  5
10B
  8
0
  6
CONTINUOUS
 62
     4
 10
-36.77203686489997
 20
-58.72077070350001
 30
0.0
  0
VERTEX
  5
10C
  8
0
  6
CONTINUOUS
 62
     4
 10
-36.73692600389998
 20
-58.48332874990001
 30
0.0
  0
SEQEND
  5
10D
  8
0
  6
CONTINUOUS
 62
     4
  0
ARC
  5
10E
  8
0
  6
CONTINUOUS
 62
     4
 10
-37.32845571909999
 20
-58.4812849539
 30
0.0
 40
0.5915332459646472
 50
359.8020379796001
 51
60.71065591070161
  0
POLYLINE
  5
10F
  8
0
  6
CONTINUOUS
 62
     4
 66
     1
 10
0.0
 20
0.0
 30
0.0
  0
VERTEX
  5
110
  8
0
  6
CONTINUOUS
 62
     4
 10
-37.03906567349998
 20
-57.96537315660001
 30
0.0
  0
VERTEX
  5
111
  8
0
  6
CONTINUOUS
 62
     4
 10
-37.61763305919999
 20
-57.56894092440001
 30
0.0
  0
VERTEX
  5
112
  8
0
  6
CONTINUOUS
 62
     4
 10
-38.05339516659998
 20
-57.2316046019
 30
0.0
  0
SEQEND
  5
113
  8
0
  6
CONTINUOUS
 62
     4
  0
POLYLINE
  5
114
  8
0
  6
CONTINUOUS
 62
     4
 66
     1
 10
0.0
 20
0.0
 30
0.0
  0
VERTEX
  5
115
  8
0
  6
CONTINUOUS
 62
     4
 10
-38.05339516659998
 20
-57.2316046019
 30
0.0
  0
VERTEX
  5
116
  8
0
  6
CONTINUOUS
 62
     4
 10
-38.34233240739999
 20
-56.84777562650001
 30
0.0
  0
VERTEX
  5
117
  8
0
  6
CONTINUOUS
 62
     4
 10
-38.42028038159998
 20
-56.4762517737
 30
0.0
  0
SEQEND
  5
118
  8
0
  6
CONTINUOUS
 62
     4
  0
POLYLINE
  5
119
  8
0
  6
CONTINUOUS
 62
     4
 66
     1
 10
0.0
 20
0.0
 30
0.0
  0
VERTEX
  5
11A
  8
0
  6
CONTINUOUS
 62
     4
 10
-38.42028038159998
 20
-56.4762517737
 30
0.0
  0
VERTEX
  5
11B
  8
0
  6
CONTINUOUS
 62
     4
 10
-38.3287015702
 20
-55.9908440172
 30
0.0
  0
VERTEX
  5
11C
  8
0
  6
CONTINUOUS
 62
     4
 10
-38.09656010529997
 20
-55.6777378342
 30
0.0
  0
SEQEND
  5
11D
  8
0
  6
CONTINUOUS
 62
     4
  0
POLYLINE
  5
11E
  8
0
  6
CONTINUOUS
 62
     4
 66
     1
 10
0.0
 20
0.0
 30
0.0
  0
VERTEX
  5
11F
  8
0
  6
CONTINUOUS
 62
     4
 10
-38.09656010529997
 20
-55.6777378342
 30
0.0
  0
VERTEX
  5
120
  8
0
  6
CONTINUOUS
 62
     4
 10
-37.72575588479998
 20
-55.43818663830001
 30
0.0
  0
VERTEX
  5
121
  8
0
  6
CONTINUOUS
 62
     4
 10
-37.38437028189998
 20
-55.37559521450001
 30
0.0
  0
SEQEND
  5
122
  8
0
  6
CONTINUOUS
 62
     4
  0
POLYLINE
  5
123
  8
0
  6
CONTINUOUS
 62
     4
 66
     1
 10
0.0
 20
0.0
 30
0.0
  0
VERTEX
  5
124
  8
0
  6
CONTINUOUS
 62
     4
 10
-37.38437028189998
 20
-55.37559521450001
 30
0.0
  0
VERTEX
  5
125
  8
0
  6
CONTINUOUS
 62
     4
 10
-36.94498719229998
 20
-55.447018603
 30
0.0
  0
VERTEX
  5
126
  8
0
  6
CONTINUOUS
 62
     4
 10
-36.6505998518
 20
-55.6345767291
 30
0.0
  0
SEQEND
  5
127
  8
0
  6
CONTINUOUS
 62
     4
  0
POLYLINE
  5
128
  8
0
  6
CONTINUOUS
 62
     4
 66
     1
 10
0.0
 20
0.0
 30
0.0
  0
VERTEX
  5
129
  8
0
  6
CONTINUOUS
 62
     4
 10
-36.6505998518
 20
-55.6345767291
 30
0.0
  0
VERTEX
  5
12A
  8
0
  6
CONTINUOUS
 62
     4
 10
-36.38743416919999
 20
-56.11110780220001
 30
0.0
  0
VERTEX
  5
12B
  8
0
  6
CONTINUOUS
 62
     4
 10
-36.34846018209998
 20
-56.54099715230001
 30
0.0
  0
SEQEND
  5
12C
  8
0
  6
CONTINUOUS
 62
     4
  0
LINE
  5
12D
  8
0
  6
CONTINUOUS
 62
     4
 10
-36.34846018209998
 20
-56.54099715230001
 30
0.0
 11
-36.84483276269998
 21
-56.54099715230001
 31
0.0
  0
POLYLINE
  5
12E
  8
0
  6
CONTINUOUS
 62
     4
 66
     1
 10
0.0
 20
0.0
 30
0.0
  0
VERTEX
  5
12F
  8
0
  6
CONTINUOUS
 62
     4
 10
-36.84483276269998
 20
-56.54099715230001
 30
0.0
  0
VERTEX
  5
130
  8
0
  6
CONTINUOUS
 62
     4
 10
-36.87262715359998
 20
-56.1919146873
 30
0.0
  0
VERTEX
  5
131
  8
0
  6
CONTINUOUS
 62
     4
 10
-37.01748506679999
 20
-55.9582961804
 30
0.0
  0
SEQEND
  5
132
  8
0
  6
CONTINUOUS
 62
     4
  0
POLYLINE
  5
133
  8
0
  6
CONTINUOUS
 62
     4
 66
     1
 10
0.0
 20
0.0
 30
0.0
  0
VERTEX
  5
134
  8
0
  6
CONTINUOUS
 62
     4
 10
-37.01748506679999
 20
-55.9582961804
 30
0.0
  0
VERTEX
  5
135
  8
0
  6
CONTINUOUS
 62
     4
 10
-37.20807464379999
 20
-55.83583372790001
 30
0.0
  0
VERTEX
  5
136
  8
0
  6
CONTINUOUS
 62
     4
 10
-37.38437028189998
 20
-55.8072285976
 30
0.0
  0
SEQEND
  5
137
  8
0
  6
CONTINUOUS
 62
     4
  0
POLYLINE
  5
138
  8
0
  6
CONTINUOUS
 62
     4
 66
     1
 10
0.0
 20
0.0
 30
0.0
  0
VERTEX
  5
139
  8
0
  6
CONTINUOUS
 62
     4
 10
-37.38437028189998
 20
-55.8072285976
 30
0.0
  0
VERTEX
  5
13A
  8
0
  6
CONTINUOUS
 62
     4
 10
-37.60604368109998
 20
-55.8543994841
 30
0.0
  0
VERTEX
  5
13B
  8
0
  6
CONTINUOUS
 62
     4
 10
-37.75125549689997
 20
-55.9582961804
 30
0.0
  0
SEQEND
  5
13C
  8
0
  6
CONTINUOUS
 62
     4
  0
POLYLINE
  5
13D
  8
0
  6
CONTINUOUS
 62
     4
 66
     1
 10
0.0
 20
0.0
 30
0.0
  0
VERTEX
  5
13E
  8
0
  6
CONTINUOUS
 62
     4
 10
-37.75125549689997
 20
-55.9582961804
 30
0.0
  0
VERTEX
  5
13F
  8
0
  6
CONTINUOUS
 62
     4
 10
-37.90680871859999
 20
-56.1931593611
 30
0.0
  0
VERTEX
  5
140
  8
0
  6
CONTINUOUS
 62
     4
 10
-37.94548840779998
 20
-56.41150638890001
 30
0.0
  0
SEQEND
  5
141
  8
0
  6
CONTINUOUS
 62
     4
  0
ARC
  5
142
  8
0
  6
CONTINUOUS
 62
     4
 10
-37.22626377589998
 20
-56.3631124326
 30
0.0
 40
0.7208509180795023
 50
183.8494180243999
 51
234.6478052546004
  0
LINE
  5
143
  8
0
  6
CONTINUOUS
 62
     4
 10
-42.88764850749999
 20
-56.5194128727
 30
0.0
 11
-42.93080972089999
 21
-56.5194128727
 31
0.0
  0
LINE
  5
144
  8
0
  6
CONTINUOUS
 62
     4
 10
-42.93080972089999
 20
-56.5194128727
 30
0.0
 11
-43.27611432929999
 21
-57.9437963311
 31
0.0
  0
LINE
  5
145
  8
0
  6
CONTINUOUS
 62
     4
 10
-43.27611432929999
 20
-57.9437963311
 30
0.0
 11
-42.54234389919998
 21
-57.9437963311
 31
0.0
  0
LINE
  5
146
  8
0
  6
CONTINUOUS
 62
     4
 10
-42.54234389919998
 20
-57.9437963311
 30
0.0
 11
-42.88764850749999
 21
-56.5194128727
 31
0.0
  0
LINE
  5
147
  8
0
  6
CONTINUOUS
 62
     4
 10
-43.68616075769998
 20
-59.58239033410001
 30
0.0
 11
-44.20411767019999
 21
-59.58239033410001
 31
0.0
  0
LINE
  5
148
  8
0
  6
CONTINUOUS
 62
     4
 10
-43.12504263179997
 20
-55.37559521450001
 30
0.0
 11
-42.69341559669999
 21
-55.37559521450001
 31
0.0
  0
LINE
  5
149
  8
0
  6
CONTINUOUS
 62
     4
 10
-42.69341559669999
 20
-55.37559521450001
 30
0.0
 11
-41.61434055819998
 21
-59.58239033410001
 31
0.0
  0
LINE
  5
14A
  8
0
  6
CONTINUOUS
 62
     4
 10
-41.61434055819998
 20
-59.58239033410001
 30
0.0
 11
-42.1322974707
 21
-59.58239033410001
 31
0.0
  0
LINE
  5
14B
  8
0
  6
CONTINUOUS
 62
     4
 10
-42.1322974707
 20
-59.58239033410001
 30
0.0
 11
-42.43443714039998
 21
-58.3522430177
 31
0.0
  0
LINE
  5
14C
  8
0
  6
CONTINUOUS
 62
     4
 10
-42.43443714039998
 20
-58.3522430177
 30
0.0
 11
-43.38402108809998
 21
-58.3522430177
 31
0.0
  0
LINE
  5
14D
  8
0
  6
CONTINUOUS
 62
     4
 10
-43.38402108809998
 20
-58.3522430177
 30
0.0
 11
-43.68616075769998
 21
-59.58239033410001
 31
0.0
  0
LINE
  5
14E
  8
0
  6
CONTINUOUS
 62
     4
 10
-44.20411767019999
 20
-59.58239033410001
 30
0.0
 11
-43.12504263179997
 21
-55.37559521450001
 31
0.0
  0
LINE
  5
14F
  8
0
  6
CONTINUOUS
 62
     4
 10
-40.77266336939999
 20
-59.17393619950001
 30
0.0
 11
-40.27628706349998
 21
-59.17393619950001
 31
0.0
  0
POLYLINE
  5
150
  8
0
  6
CONTINUOUS
 62
     4
 66
     1
 10
0.0
 20
0.0
 30
0.0
  0
VERTEX
  5
151
  8
0
  6
CONTINUOUS
 62
     4
 10
-40.27628706349998
 20
-59.17393619950001
 30
0.0
  0
VERTEX
  5
152
  8
0
  6
CONTINUOUS
 62
     4
 10
-39.89843831909999
 20
-59.09211568790001
 30
0.0
  0
VERTEX
  5
153
  8
0
  6
CONTINUOUS
 62
     4
 10
-39.65042711749999
 20
-58.91496212690001
 30
0.0
  0
SEQEND
  5
154
  8
0
  6
CONTINUOUS
 62
     4
  0
POLYLINE
  5
155
  8
0
  6
CONTINUOUS
 62
     4
 66
     1
 10
0.0
 20
0.0
 30
0.0
  0
VERTEX
  5
156
  8
0
  6
CONTINUOUS
 62
     4
 10
-39.65042711749999
 20
-58.91496212690001
 30
0.0
  0
VERTEX
  5
157
  8
0
  6
CONTINUOUS
 62
     4
 10
-39.47293193599998
 20
-58.62193469190001
 30
0.0
  0
VERTEX
  5
158
  8
0
  6
CONTINUOUS
 62
     4
 10
-39.43460987469999
 20
-58.3538454346
 30
0.0
  0
SEQEND
  5
159
  8
0
  6
CONTINUOUS
 62
     4
  0
POLYLINE
  5
15A
  8
0
  6
CONTINUOUS
 62
     4
 66
     1
 10
0.0
 20
0.0
 30
0.0
  0
VERTEX
  5
15B
  8
0
  6
CONTINUOUS
 62
     4
 10
-39.43460987469999
 20
-58.3538454346
 30
0.0
  0
VERTEX
  5
15C
  8
0
  6
CONTINUOUS
 62
     4
 10
-39.50395242829998
 20
-57.9773950651
 30
0.0
  0
VERTEX
  5
15D
  8
0
  6
CONTINUOUS
 62
     4
 10
-39.67200772419997
 20
-57.7279759156
 30
0.0
  0
SEQEND
  5
15E
  8
0
  6
CONTINUOUS
 62
     4
  0
POLYLINE
  5
15F
  8
0
  6
CONTINUOUS
 62
     4
 66
     1
 10
0.0
 20
0.0
 30
0.0
  0
VERTEX
  5
160
  8
0
  6
CONTINUOUS
 62
     4
 10
-39.67200772419997
 20
-57.7279759156
 30
0.0
  0
VERTEX
  5
161
  8
0
  6
CONTINUOUS
 62
     4
 10
-39.93758366959997
 20
-57.52891759030001
 30
0.0
  0
VERTEX
  5
162
  8
0
  6
CONTINUOUS
 62
     4
 10
-40.18996091149998
 20
-57.4673994261
 30
0.0
  0
SEQEND
  5
163
  8
0
  6
CONTINUOUS
 62
     4
  0
LINE
  5
164
  8
0
  6
CONTINUOUS
 62
     4
 10
-40.18996091149998
 20
-57.4673994261
 30
0.0
 11
-40.77266336939999
 21
-57.4673994261
 31
0.0
  0
LINE
  5
165
  8
0
  6
CONTINUOUS
 62
     4
 10
-40.77266336939999
 20
-57.4673994261
 30
0.0
 11
-40.77266336939999
 21
-59.17393619950001
 31
0.0
  0
POLYLINE
  5
166
  8
0
  6
CONTINUOUS
 62
     4
 66
     1
 10
0.0
 20
0.0
 30
0.0
  0
VERTEX
  5
167
  8
0
  6
CONTINUOUS
 62
     4
 10
-39.7151689376
 20
-56.8863008771
 30
0.0
  0
VERTEX
  5
168
  8
0
  6
CONTINUOUS
 62
     4
 10
-39.55783502719999
 20
-56.6394307022
 30
0.0
  0
VERTEX
  5
169
  8
0
  6
CONTINUOUS
 62
     4
 10
-39.52093602679997
 20
-56.41150638890001
 30
0.0
  0
SEQEND
  5
16A
  8
0
  6
CONTINUOUS
 62
     4
  0
POLYLINE
  5
16B
  8
0
  6
CONTINUOUS
 62
     4
 66
     1
 10
0.0
 20
0.0
 30
0.0
  0
VERTEX
  5
16C
  8
0
  6
CONTINUOUS
 62
     4
 10
-39.52093602679997
 20
-56.41150638890001
 30
0.0
  0
VERTEX
  5
16D
  8
0
  6
CONTINUOUS
 62
     4
 10
-39.5621042098
 20
-56.1531136647
 30
0.0
  0
VERTEX
  5
16E
  8
0
  6
CONTINUOUS
 62
     4
 10
-39.67200772419997
 20
-55.97988046
 30
0.0
  0
SEQEND
  5
16F
  8
0
  6
CONTINUOUS
 62
     4
  0
POLYLINE
  5
170
  8
0
  6
CONTINUOUS
 62
     4
 66
     1
 10
0.0
 20
0.0
 30
0.0
  0
VERTEX
  5
171
  8
0
  6
CONTINUOUS
 62
     4
 10
-39.67200772419997
 20
-55.97988046
 30
0.0
  0
VERTEX
  5
172
  8
0
  6
CONTINUOUS
 62
     4
 10
-39.87110586419999
 20
-55.83035566720001
 30
0.0
  0
VERTEX
  5
173
  8
0
  6
CONTINUOUS
 62
     4
 10
-40.060473546
 20
-55.78404934300001
 30
0.0
  0
SEQEND
  5
174
  8
0
  6
CONTINUOUS
 62
     4
  0
LINE
  5
175
  8
0
  6
CONTINUOUS
 62
     4
 10
-40.060473546
 20
-55.78404934300001
 30
0.0
 11
-40.77266336939999
 21
-55.78404934300001
 31
0.0
  0
LINE
  5
176
  8
0
  6
CONTINUOUS
 62
     4
 10
-40.77266336939999
 20
-55.78404934300001
 30
0.0
 11
-40.77266336939999
 21
-57.0589527395
 31
0.0
  0
LINE
  5
177
  8
0
  6
CONTINUOUS
 62
     4
 10
-40.77266336939999
 20
-57.0589527395
 30
0.0
 11
-40.1252190914
 21
-57.0589527395
 31
0.0
  0
POLYLINE
  5
178
  8
0
  6
CONTINUOUS
 62
     4
 66
     1
 10
0.0
 20
0.0
 30
0.0
  0
VERTEX
  5
179
  8
0
  6
CONTINUOUS
 62
     4
 10
-40.1252190914
 20
-57.0589527395
 30
0.0
  0
VERTEX
  5
17A
  8
0
  6
CONTINUOUS
 62
     4
 10
-39.87731219789998
 20
-57.0037920883
 30
0.0
  0
VERTEX
  5
17B
  8
0
  6
CONTINUOUS
 62
     4
 10
-39.7151689376
 20
-56.8863008771
 30
0.0
  0
SEQEND
  5
17C
  8
0
  6
CONTINUOUS
 62
     4
  0
POLYLINE
  5
17D
  8
0
  6
CONTINUOUS
 62
     4
 66
     1
 10
0.0
 20
0.0
 30
0.0
  0
VERTEX
  5
17E
  8
0
  6
CONTINUOUS
 62
     4
 10
-40.14679969809998
 20
-55.37559521450001
 30
0.0
  0
VERTEX
  5
17F
  8
0
  6
CONTINUOUS
 62
     4
 10
-39.69531686559998
 20
-55.44539381760001
 30
0.0
  0
VERTEX
  5
180
  8
0
  6
CONTINUOUS
 62
     4
 10
-39.39144866129999
 20
-55.6345767291
 30
0.0
  0
SEQEND
  5
181
  8
0
  6
CONTINUOUS
 62
     4
  0
POLYLINE
  5
182
  8
0
  6
CONTINUOUS
 62
     4
 66
     1
 10
0.0
 20
0.0
 30
0.0
  0
VERTEX
  5
183
  8
0
  6
CONTINUOUS
 62
     4
 10
-39.39144866129999
 20
-55.6345767291
 30
0.0
  0
VERTEX
  5
184
  8
0
  6
CONTINUOUS
 62
     4
 10
-39.13021640439999
 20
-56.03792547250001
 30
0.0
  0
VERTEX
  5
185
  8
0
  6
CONTINUOUS
 62
     4
 10
-39.06772465959997
 20
-56.41150638890001
 30
0.0
  0
SEQEND
  5
186
  8
0
  6
CONTINUOUS
 62
     4
  0
POLYLINE
  5
187
  8
0
  6
CONTINUOUS
 62
     4
 66
     1
 10
0.0
 20
0.0
 30
0.0
  0
VERTEX
  5
188
  8
0
  6
CONTINUOUS
 62
     4
 10
-39.06772465959997
 20
-56.41150638890001
 30
0.0
  0
VERTEX
  5
189
  8
0
  6
CONTINUOUS
 62
     4
 10
-39.1351822163
 20
-56.80015009340001
 30
0.0
  0
VERTEX
  5
18A
  8
0
  6
CONTINUOUS
 62
     4
 10
-39.30512250919998
 20
-57.0589527395
 30
0.0
  0
SEQEND
  5
18B
  8
0
  6
CONTINUOUS
 62
     4
  0
POLYLINE
  5
18C
  8
0
  6
CONTINUOUS
 62
     4
 66
     1
 10
0.0
 20
0.0
 30
0.0
  0
VERTEX
  5
18D
  8
0
  6
CONTINUOUS
 62
     4
 10
-39.30512250919998
 20
-57.0589527395
 30
0.0
  0
VERTEX
  5
18E
  8
0
  6
CONTINUOUS
 62
     4
 10
-39.47444812909998
 20
-57.20900670180001
 30
0.0
  0
VERTEX
  5
18F
  8
0
  6
CONTINUOUS
 62
     4
 10
-39.62884278549998
 20
-57.29634998050001
 30
0.0
  0
SEQEND
  5
190
  8
0
  6
CONTINUOUS
 62
     4
  0
POLYLINE
  5
191
  8
0
  6
CONTINUOUS
 62
     4
 66
     1
 10
0.0
 20
0.0
 30
0.0
  0
VERTEX
  5
192
  8
0
  6
CONTINUOUS
 62
     4
 10
-39.62884278549998
 20
-57.29634998050001
 30
0.0
  0
VERTEX
  5
193
  8
0
  6
CONTINUOUS
 62
     4
 10
-39.40129460349999
 20
-57.4399122617
 30
0.0
  0
VERTEX
  5
194
  8
0
  6
CONTINUOUS
 62
     4
 10
-39.24037696379997
 20
-57.57690832670001
 30
0.0
  0
SEQEND
  5
195
  8
0
  6
CONTINUOUS
 62
     4
  0
POLYLINE
  5
196
  8
0
  6
CONTINUOUS
 62
     4
 66
     1
 10
0.0
 20
0.0
 30
0.0
  0
VERTEX
  5
197
  8
0
  6
CONTINUOUS
 62
     4
 10
-39.24037696379997
 20
-57.57690832670001
 30
0.0
  0
VERTEX
  5
198
  8
0
  6
CONTINUOUS
 62
     4
 10
-39.0062946226
 20
-57.98453516340001
 30
0.0
  0
VERTEX
  5
199
  8
0
  6
CONTINUOUS
 62
     4
 10
-38.95981790079998
 20
-58.3538454346
 30
0.0
  0
SEQEND
  5
19A
  8
0
  6
CONTINUOUS
 62
     4
  0
POLYLINE
  5
19B
  8
0
  6
CONTINUOUS
 62
     4
 66
     1
 10
0.0
 20
0.0
 30
0.0
  0
VERTEX
  5
19C
  8
0
  6
CONTINUOUS
 62
     4
 10
-38.95981790079998
 20
-58.3538454346
 30
0.0
  0
VERTEX
  5
19D
  8
0
  6
CONTINUOUS
 62
     4
 10
-39.03553815139998
 20
-58.8438890395
 30
0.0
  0
VERTEX
  5
19E
  8
0
  6
CONTINUOUS
 62
     4
 10
-39.24037696379997
 20
-59.17393619950001
 30
0.0
  0
SEQEND
  5
19F
  8
0
  6
CONTINUOUS
 62
     4
  0
POLYLINE
  5
1A0
  8
0
  6
CONTINUOUS
 62
     4
 66
     1
 10
0.0
 20
0.0
 30
0.0
  0
VERTEX
  5
1A1
  8
0
  6
CONTINUOUS
 62
     4
 10
-39.24037696379997
 20
-59.17393619950001
 30
0.0
  0
VERTEX
  5
1A2
  8
0
  6
CONTINUOUS
 62
     4
 10
-39.73242075699997
 20
-59.50032386700001
 30
0.0
  0
VERTEX
  5
1A3
  8
0
  6
CONTINUOUS
 62
     4
 10
-40.18996091149998
 20
-59.58239033410001
 30
0.0
  0
SEQEND
  5
1A4
  8
0
  6
CONTINUOUS
 62
     4
  0
LINE
  5
1A5
  8
0
  6
CONTINUOUS
 62
     4
 10
-40.18996091149998
 20
-59.58239033410001
 30
0.0
 11
-41.28342302099998
 21
-59.58239033410001
 31
0.0
  0
LINE
  5
1A6
  8
0
  6
CONTINUOUS
 62
     4
 10
-41.28342302099998
 20
-55.37559521450001
 30
0.0
 11
-40.14679969809998
 21
-55.37559521450001
 31
0.0
  0
LINE
  5
1A7
  8
0
  6
CONTINUOUS
 62
     4
 10
-41.28342302099998
 20
-59.58239033410001
 30
0.0
 11
-41.28342302099998
 21
-55.37559521450001
 31
0.0
  0
LINE
  5
1A8
  8
0
  6
CONTINUOUS
 62
     4
 10
-30.05287231459999
 20
-60.4397689492
 30
0.0
 11
-50.05287373019999
 21
-60.4397689492
 31
0.0
  0
LINE
  5
1A9
  8
0
  6
CONTINUOUS
 62
     4
 10
-50.05287373019999
 20
-54.43976455090001
 30
0.0
 11
-30.05287231459999
 21
-54.43976455090001
 31
0.0
  0
ARC
  5
1AA
  8
0
  6
CONTINUOUS
 62
     7
 10
-143.0437111153
 20
72.10246588519999
 30
0.0
 40
12.00918977788109
 50
90.3910816127001
 51
179.7583502353999
  0
ARC
  5
1AB
  8
0
  6
CONTINUOUS
 62
     7
 10
-17.044790025
 20
-53.9478765147
 30
0.0
 40
11.99188449793984
 50
270.0485289278
 51
359.8404262469
  0
ARC
  5
1AC
  8
0
  6
CONTINUOUS
 62
     7
 10
-143.0603695691
 20
-53.94728885170001
 30
0.0
 40
11.99247267188508
 50
180.1623735833999
 51
269.9486712418999
  0
CIRCLE
  5
1AD
  8
0
  6
CONTINUOUS
 62
     7
 10
-20.05220677689999
 20
69.0726976244
 30
0.0
 40
2.250151122024697
  0
CIRCLE
  5
1AE
  8
0
  6
CONTINUOUS
 62
     7
 10
-20.05220677289998
 20
-50.92730081190001
 30
0.0
 40
2.250150992472233
  0
CIRCLE
  5
1AF
  8
0
  6
CONTINUOUS
 62
     7
 10
-140.0522078254
 20
69.07269762549998
 30
0.0
 40
2.250151119805455
  0
CIRCLE
  5
1B0
  8
0
  6
CONTINUOUS
 62
     7
 10
-140.0522078214
 20
-50.9273008107
 30
0.0
 40
2.250150990253781
  0
LINE
  5
1B1
  8
0
  6
CONTINUOUS
 62
     7
 10
-143.0505867447
 20
84.1116557906
 30
0.0
 11
-143.1256811466
 21
84.1113759122
 31
0.0
  0
LINE
  5
1B2
  8
0
  6
CONTINUOUS
 62
     7
 10
-17.04967574729997
 20
-65.93976904440001
 30
0.0
 11
-17.03463302509999
 21
-65.9397567112
 31
0.0
  0
LINE
  5
1B3
  8
0
  6
CONTINUOUS
 62
     7
 10
-143.0711130943
 20
-65.9397567112
 30
0.0
 11
-143.056070372
 21
-65.93976904440001
 31
0.0
  0
ARC
  5
1B4
  8
0
  6
CONTINUOUS
 62
     7
 10
-143.0479058822
 20
72.1134513008
 30
0.0
 40
12.0024132421333
 50
90.00273221200001
 51
153.4306775368999
  0
LINE
  5
1B5
  8
0
  6
CONTINUOUS
 62
     7
 10
-143.0484782304
 20
84.11586452929998
 30
0.0
 11
-143.0505867447
 21
84.1116557906
 31
0.0
  0
ARC
  5
1B6
  8
0
  6
CONTINUOUS
 62
     7
 10
-17.0578402372
 20
72.1134513008
 30
0.0
 40
12.0024132421333
 50
26.56932246310003
 51
89.99726778799999
  0
LINE
  5
1B7
  8
0
  6
CONTINUOUS
 62
     7
 10
-17.05726788899997
 20
84.11586452929998
 30
0.0
 11
-143.0484782304
 21
84.11586452929998
 31
0.0
  0
ARC
  5
1B8
  8
0
  6
CONTINUOUS
 62
     7
 10
-80.0755170434
 20
10.25831583849998
 30
0.0
 40
38.0312881280178
 50
238.6371772247
 51
270.0341141424
  0
ARC
  5
1B9
  8
0
  6
CONTINUOUS
 62
     7
 10
-80.03102124019998
 20
10.2611407981
 30
0.0
 40
38.03411262380136
 50
269.9670817324
 51
301.3616269005
  0
POLYLINE
  5
1BA
  8
0
  6
CONTINUOUS
 62
     7
 66
     1
 10
0.0
 20
0.0
 30
0.0
  0
VERTEX
  5
1BB
  8
0
  6
CONTINUOUS
 62
     7
 10
-98.03355851729998
 20
-22.4528564072
 30
0.0
  0
VERTEX
  5
1BC
  8
0
  6
CONTINUOUS
 62
     7
 10
-99.00263504639999
 20
-22.20154711960001
 30
0.0
  0
VERTEX
  5
1BD
  8
0
  6
CONTINUOUS
 62
     7
 10
-100.2605202939
 20
-21.9752191677
 30
0.0
  0
SEQEND
  5
1BE
  8
0
  6
CONTINUOUS
 62
     7
  0
LINE
  5
1BF
  8
0
  6
CONTINUOUS
 62
     7
 10
-98.03355851729998
 20
-22.4528564072
 30
0.0
 11
-91.13579516819999
 21
-24.1727325663
 31
0.0
  0
POLYLINE
  5
1C0
  8
0
  6
CONTINUOUS
 62
     7
 66
     1
 10
0.0
 20
0.0
 30
0.0
  0
VERTEX
  5
1C1
  8
0
  6
CONTINUOUS
 62
     7
 10
-89.88838357439998
 20
-24.46081235870001
 30
0.0
  0
VERTEX
  5
1C2
  8
0
  6
CONTINUOUS
 62
     7
 10
-90.86580568509999
 20
-24.22721115900001
 30
0.0
  0
VERTEX
  5
1C3
  8
0
  6
CONTINUOUS
 62
     7
 10
-91.13579516819999
 20
-24.1727325663
 30
0.0
  0
SEQEND
  5
1C4
  8
0
  6
CONTINUOUS
 62
     7
  0
POLYLINE
  5
1C5
  8
0
  6
CONTINUOUS
 62
     7
 66
     1
 10
0.0
 20
0.0
 30
0.0
  0
VERTEX
  5
1C6
  8
0
  6
CONTINUOUS
 62
     7
 10
-89.88838357439998
 20
-24.46081235870001
 30
0.0
  0
VERTEX
  5
1C7
  8
0
  6
CONTINUOUS
 62
     7
 10
-85.13828035029998
 20
-25.54668320830001
 30
0.0
  0
VERTEX
  5
1C8
  8
0
  6
CONTINUOUS
 62
     7
 10
-82.83742161979998
 20
-25.81975155260001
 30
0.0
  0
SEQEND
  5
1C9
  8
0
  6
CONTINUOUS
 62
     7
  0
LINE
  5
1CA
  8
0
  6
CONTINUOUS
 62
     7
 10
-82.86397246229998
 20
-26.10392682680001
 30
0.0
 11
-82.83742161979998
 21
-25.81975155260001
 31
0.0
  0
ARC
  5
1CB
  8
0
  6
CONTINUOUS
 62
     7
 10
-80.04828887539998
 20
7.243653616899991
 30
0.0
 40
33.46623963800753
 50
265.1737115559
 51
269.9921513968
  0
LINE
  5
1CC
  8
0
  6
CONTINUOUS
 62
     7
 10
-80.05287305969998
 20
-27.77296554840001
 30
0.0
 11
-80.0528732137
 21
-26.22258570710001
 31
0.0
  0
ARC
  5
1CD
  8
0
  6
CONTINUOUS
 62
     7
 10
-80.06531357829999
 20
11.67070474599998
 30
0.0
 40
37.7868911825162
 50
297.1927199568
 51
350.7905139777
  0
POLYLINE
  5
1CE
  8
0
  6
CONTINUOUS
 62
     7
 66
     1
 10
0.0
 20
0.0
 30
0.0
  0
VERTEX
  5
1CF
  8
0
  6
CONTINUOUS
 62
     7
 10
-77.24987220539998
 20
-26.00852882240001
 30
0.0
  0
VERTEX
  5
1D0
  8
0
  6
CONTINUOUS
 62
     7
 10
-80.05287305969998
 20
-26.11270128460001
 30
0.0
  0
VERTEX
  5
1D1
  8
0
  6
CONTINUOUS
 62
     7
 10
-82.85093999979998
 20
-26.0088939708
 30
0.0
  0
SEQEND
  5
1D2
  8
0
  6
CONTINUOUS
 62
     7
  0
ARC
  5
1D3
  8
0
  6
CONTINUOUS
 62
     7
 10
-80.040157
 20
11.670905
 30
0.0
 40
37.78719522173797
 50
189.2097188824
 51
242.8070471832
  0
POLYLINE
  5
1D4
  8
0
  6
CONTINUOUS
 62
     7
 66
     1
 10
0.0
 20
0.0
 30
0.0
  0
VERTEX
  5
1D5
  8
0
  6
CONTINUOUS
 62
     7
 10
-68.96995095119999
 20
-24.1727325663
 30
0.0
  0
VERTEX
  5
1D6
  8
0
  6
CONTINUOUS
 62
     7
 10
-69.94681613109998
 20
-24.38633330410001
 30
0.0
  0
VERTEX
  5
1D7
  8
0
  6
CONTINUOUS
 62
     7
 10
-70.21736254499999
 20
-24.46081235870001
 30
0.0
  0
SEQEND
  5
1D8
  8
0
  6
CONTINUOUS
 62
     7
  0
LINE
  5
1D9
  8
0
  6
CONTINUOUS
 62
     7
 10
-68.96995095119999
 20
-24.1727325663
 30
0.0
 11
-62.07218760209997
 21
-22.4528564072
 31
0.0
  0
POLYLINE
  5
1DA
  8
0
  6
CONTINUOUS
 62
     7
 66
     1
 10
0.0
 20
0.0
 30
0.0
  0
VERTEX
  5
1DB
  8
0
  6
CONTINUOUS
 62
     7
 10
-59.84522582549999
 20
-21.9752191677
 30
0.0
  0
VERTEX
  5
1DC
  8
0
  6
CONTINUOUS
 62
     7
 10
-60.51913270309998
 20
-22.0808322709
 30
0.0
  0
VERTEX
  5
1DD
  8
0
  6
CONTINUOUS
 62
     7
 10
-62.07218760209997
 20
-22.4528564072
 30
0.0
  0
SEQEND
  5
1DE
  8
0
  6
CONTINUOUS
 62
     7
  0
ARC
  5
1DF
  8
0
  6
CONTINUOUS
 62
     7
 10
-80.05869216739998
 20
7.272909699999985
 30
0.0
 40
33.49549591259647
 50
270.0099536216
 51
274.8241828968
  0
LINE
  5
1E0
  8
0
  6
CONTINUOUS
 62
     7
 10
-77.26832449949998
 20
-25.81975155260001
 30
0.0
 11
-77.2417736571
 21
-26.10392682680001
 31
0.0
  0
POLYLINE
  5
1E1
  8
0
  6
CONTINUOUS
 62
     7
 66
     1
 10
0.0
 20
0.0
 30
0.0
  0
VERTEX
  5
1E2
  8
0
  6
CONTINUOUS
 62
     7
 10
-77.26832449949998
 20
-25.81975155260001
 30
0.0
  0
VERTEX
  5
1E3
  8
0
  6
CONTINUOUS
 62
     7
 10
-75.13511780239998
 20
-25.57198596170001
 30
0.0
  0
VERTEX
  5
1E4
  8
0
  6
CONTINUOUS
 62
     7
 10
-70.21736254499999
 20
-24.46081235870001
 30
0.0
  0
SEQEND
  5
1E5
  8
0
  6
CONTINUOUS
 62
     7
  0
LINE
  5
1E6
  8
0
  6
CONTINUOUS
 62
     7
 10
-82.83742161979998
 20
-25.81975155260001
 30
0.0
 11
-82.83742161979998
 21
-24.6874813285
 31
0.0
  0
LINE
  5
1E7
  8
0
  6
CONTINUOUS
 62
     7
 10
-70.21736254499999
 20
-24.46081235870001
 30
0.0
 11
-89.88838357439998
 21
-24.46081235870001
 31
0.0
  0
LINE
  5
1E8
  8
0
  6
CONTINUOUS
 62
     7
 10
-77.26832449949998
 20
-24.6874813285
 30
0.0
 11
-77.26832449949998
 21
-25.81975155260001
 31
0.0
  0
LINE
  5
1E9
  8
0
  6
CONTINUOUS
 62
     7
 10
-82.83742161979998
 20
-24.6874813285
 30
0.0
 11
-77.26832449949998
 21
-24.6874813285
 31
0.0
  0
LINE
  5
1EA
  8
0
  6
CONTINUOUS
 62
     7
 10
-62.07218760209997
 20
-22.4528564072
 30
0.0
 11
-98.03355851729998
 21
-22.4528564072
 31
0.0
  0
LINE
  5
1EB
  8
0
  6
CONTINUOUS
 62
     7
 10
-100.3063096996
 20
-21.9399382311
 30
0.0
 11
-59.79943641979997
 21
-21.9399382311
 31
0.0
  0
LINE
  5
1EC
  8
0
  6
CONTINUOUS
 62
     7
 10
-91.13579516819999
 20
-24.1727325663
 30
0.0
 11
-68.96995095119999
 21
-24.1727325663
 31
0.0
  0
ARC
  5
1ED
  8
0
  6
CONTINUOUS
 62
     7
 10
-80.06783388899998
 20
9.612479330500008
 30
0.0
 40
37.48534323065487
 50
187.6655265189
 51
237.3229159177
  0
ARC
  5
1EE
  8
0
  6
CONTINUOUS
 62
     7
 10
-80.03869295189998
 20
9.612976594299994
 30
0.0
 40
37.48618330732149
 50
302.6776781599
 51
352.3338794035
  0
ARC
  5
1EF
  8
0
  6
CONTINUOUS
 62
     7
 10
-80.05981935979997
 20
9.033352575500004
 30
0.0
 40
40.00694597810458
 50
270.0099481146
 51
0.0096890870999899
  0
LINE
  5
1F0
  8
0
  6
CONTINUOUS
 62
     7
 10
-116.3676324632
 20
18.95979206600001
 30
0.0
 11
-116.1955426778
 21
19.60392913569999
 31
0.0
  0
LINE
  5
1F1
  8
0
  6
CONTINUOUS
 62
     7
 10
-43.91020344159998
 20
19.60392913569999
 30
0.0
 11
-43.73811365619997
 21
18.95979206600001
 31
0.0
  0
LINE
  5
1F2
  8
0
  6
CONTINUOUS
 62
     7
 10
-155.0506557669
 20
-53.92722639990001
 30
0.0
 11
-155.0528760399
 21
-53.93610820950001
 31
0.0
  0
LINE
  5
1F3
  8
0
  6
CONTINUOUS
 62
     7
 10
-155.0528760399
 20
72.10799495570001
 30
0.0
 11
-155.0506557669
 21
72.1124346965
 31
0.0
  0
LINE
  5
1F4
  8
0
  6
CONTINUOUS
 62
     7
 10
-5.055090352499974
 20
72.1124346965
 30
0.0
 11
-5.052870079499996
 21
72.10799495570001
 31
0.0
  0
ARC
  5
1F5
  8
0
  6
CONTINUOUS
 62
     7
 10
-56.799307371
 20
-27.2528394965
 30
0.0
 40
6.101450169010562
 50
119.4528750923
 51
123.0493957275001
  0
POLYLINE
  5
1F6
  8
0
  6
CONTINUOUS
 62
     7
 66
     1
 10
0.0
 20
0.0
 30
0.0
  0
VERTEX
  5
1F7
  8
0
  6
CONTINUOUS
 62
     7
 10
-99.97894050139999
 20
-22.1385996134
 30
0.0
  0
VERTEX
  5
1F8
  8
0
  6
CONTINUOUS
 62
     7
 10
-97.55380445679998
 20
-23.51361062220001
 30
0.0
  0
VERTEX
  5
1F9
  8
0
  6
CONTINUOUS
 62
     7
 10
-95.27855267329998
 20
-24.59955453820001
 30
0.0
  0
SEQEND
  5
1FA
  8
0
  6
CONTINUOUS
 62
     7
  0
POLYLINE
  5
1FB
  8
0
  6
CONTINUOUS
 62
     7
 66
     1
 10
0.0
 20
0.0
 30
0.0
  0
VERTEX
  5
1FC
  8
0
  6
CONTINUOUS
 62
     7
 10
-82.31798646559997
 20
-27.70801437190001
 30
0.0
  0
VERTEX
  5
1FD
  8
0
  6
CONTINUOUS
 62
     7
 10
-81.45341259479997
 20
-27.7496046099
 30
0.0
  0
VERTEX
  5
1FE
  8
0
  6
CONTINUOUS
 62
     7
 10
-79.24880663449997
 20
-27.7668495506
 30
0.0
  0
SEQEND
  5
1FF
  8
0
  6
CONTINUOUS
 62
     7
  0
LINE
  5
200
  8
0
  6
CONTINUOUS
 62
     7
 10
-60.70405797619998
 20
-22.48768956550001
 30
0.0
 11
-60.12680561799999
 21
-22.1385996134
 31
0.0
  0
ARC
  5
201
  8
0
  6
CONTINUOUS
 62
     7
 10
-103.3064387483
 20
-27.2528394965
 30
0.0
 40
6.10145016901057
 50
56.95060427249997
 51
60.54712490769999
  0
ARC
  5
202
  8
0
  6
CONTINUOUS
 62
     7
 10
-80.05345531289998
 20
11.65288940569999
 30
0.0
 40
37.76562592083805
 50
274.2573474069
 51
297.1890692874
  0
ARC
  5
203
  8
0
  6
CONTINUOUS
 62
     7
 10
-80.05239866029999
 20
11.6525230108
 30
0.0
 40
37.76525072986112
 50
242.8108222666
 51
265.7502804953
  0
LINE
  5
204
  8
0
  6
CONTINUOUS
 62
     7
 10
-82.9716421995
 20
-24.52372238650001
 30
0.0
 11
-82.83742161979998
 21
-24.6874813285
 31
0.0
  0
LINE
  5
205
  8
0
  6
CONTINUOUS
 62
     7
 10
-77.13410391989999
 20
-24.52372238650001
 30
0.0
 11
-77.26832449949998
 21
-24.6874813285
 31
0.0
  0
LINE
  5
206
  8
0
  6
CONTINUOUS
 62
     7
 10
-99.97894050139999
 20
-22.1385996134
 30
0.0
 11
-60.12680561799999
 21
-22.1385996134
 31
0.0
  0
ARC
  5
207
  8
0
  6
CONTINUOUS
 62
     7
 10
-120.3695737646
 20
30.27371426970001
 30
0.0
 40
67.71342957386416
 50
303.4911199566
 51
303.6341014244
  0
LINE
  5
208
  8
0
  6
CONTINUOUS
 62
     7
 10
-80.05287305969998
 20
-26.3492898809
 30
0.0
 11
-80.0528732137
 21
-26.22258570710001
 31
0.0
  0
ARC
  5
209
  8
0
  6
CONTINUOUS
 62
     7
 10
-37.51064092419998
 20
33.62815536899998
 30
0.0
 40
71.7390030017377
 50
236.3699102195
 51
236.5048683995
  0
LINE
  5
20A
  8
0
  6
CONTINUOUS
 62
     7
 10
-76.60384307199999
 20
-23.7257644157
 30
0.0
 11
-83.50190304739999
 21
-23.7257644157
 31
0.0
  0
LINE
  5
20B
  8
0
  6
CONTINUOUS
 62
     7
 10
-82.9716421995
 20
-24.52372238650001
 30
0.0
 11
-77.13410391989999
 21
-24.52372238650001
 31
0.0
  0
ARC
  5
20C
  8
0
  6
CONTINUOUS
 62
     7
 10
-82.58826184249997
 20
-24.3573769969
 30
0.0
 40
0.4179130133524935
 50
184.6836090572005
 51
203.4556009140996
  0
ARC
  5
20D
  8
0
  6
CONTINUOUS
 62
     7
 10
-77.51748427679999
 20
-24.3573769969
 30
0.0
 40
0.4179130133524935
 50
336.5443990859004
 51
355.3163909427994
  0
ARC
  5
20E
  8
0
  6
CONTINUOUS
 62
     7
 10
-77.13920231749998
 20
-27.0836576631
 30
0.0
 40
0.8883459459358198
 50
52.94027050619983
 51
79.9856770198994
  0
ARC
  5
20F
  8
0
  6
CONTINUOUS
 62
     7
 10
-75.80513864939999
 20
-24.840655029
 30
0.0
 40
1.37146266239599
 50
125.6177025869996
 51
160.8828944830002
  0
POLYLINE
  5
210
  8
0
  6
CONTINUOUS
 62
     7
 66
     1
 10
0.0
 20
0.0
 30
0.0
  0
VERTEX
  5
211
  8
0
  6
CONTINUOUS
 62
     7
 10
-77.1009667642
 20
-26.19734631350001
 30
0.0
  0
VERTEX
  5
212
  8
0
  6
CONTINUOUS
 62
     7
 10
-77.04045827089999
 20
-26.20733210990001
 30
0.0
  0
VERTEX
  5
213
  8
0
  6
CONTINUOUS
 62
     7
 10
-76.98472396989999
 20
-26.20884627780001
 30
0.0
  0
SEQEND
  5
214
  8
0
  6
CONTINUOUS
 62
     7
  0
LINE
  5
215
  8
0
  6
CONTINUOUS
 62
     7
 10
-76.60384307199999
 20
-26.3747507595
 30
0.0
 11
-76.60384307199999
 21
-23.7257644157
 31
0.0
  0
LINE
  5
216
  8
0
  6
CONTINUOUS
 62
     7
 10
-77.1009667642
 20
-24.3915010118
 30
0.0
 11
-77.1009667642
 21
-26.19734631350001
 31
0.0
  0
ARC
  5
217
  8
0
  6
CONTINUOUS
 62
     7
 10
-82.97215791549999
 20
-27.0707688694
 30
0.0
 40
0.8746834364253347
 50
99.79898987429911
 51
127.2750625995997
  0
ARC
  5
218
  8
0
  6
CONTINUOUS
 62
     7
 10
-84.30060746999999
 20
-24.840655029
 30
0.0
 40
1.371462662396
 50
19.1171055170004
 51
54.38229741299947
  0
POLYLINE
  5
219
  8
0
  6
CONTINUOUS
 62
     7
 66
     1
 10
0.0
 20
0.0
 30
0.0
  0
VERTEX
  5
21A
  8
0
  6
CONTINUOUS
 62
     7
 10
-83.12102214949999
 20
-26.20884627780001
 30
0.0
  0
VERTEX
  5
21B
  8
0
  6
CONTINUOUS
 62
     7
 10
-83.02194083629999
 20
-26.2028274652
 30
0.0
  0
VERTEX
  5
21C
  8
0
  6
CONTINUOUS
 62
     7
 10
-83.00477935519999
 20
-26.19734631350001
 30
0.0
  0
SEQEND
  5
21D
  8
0
  6
CONTINUOUS
 62
     7
  0
LINE
  5
21E
  8
0
  6
CONTINUOUS
 62
     7
 10
-83.50190304739999
 20
-23.7257644157
 30
0.0
 11
-83.50190304739999
 21
-26.3747507595
 31
0.0
  0
LINE
  5
21F
  8
0
  6
CONTINUOUS
 62
     7
 10
-83.00477935519999
 20
-26.19734631350001
 30
0.0
 11
-83.00477935519999
 21
-24.3915010118
 31
0.0
  0
ARC
  5
220
  8
0
  6
CONTINUOUS
 62
     7
 10
-80.02969329779998
 20
7.740910620899996
 30
0.0
 40
34.09020838232124
 50
264.7972232816999
 51
269.9610415222
  0
ARC
  5
221
  8
0
  6
CONTINUOUS
 62
     7
 10
-79.97164168699999
 20
9.657507225300009
 30
0.0
 40
36.20478367229406
 50
264.4043035536999
 51
269.8714474094
  0
LINE
  5
222
  8
0
  6
CONTINUOUS
 62
     7
 10
-80.05287305969998
 20
-26.3492898809
 30
0.0
 11
-80.05287305979999
 21
-26.54718531890001
 31
0.0
  0
ARC
  5
223
  8
0
  6
CONTINUOUS
 62
     7
 10
-80.07897359009999
 20
7.804718107500008
 30
0.0
 40
34.15401796136683
 50
270.0437854890999
 51
275.1979497071
  0
ARC
  5
224
  8
0
  6
CONTINUOUS
 62
     7
 10
-80.13383611309999
 20
9.652140312499995
 30
0.0
 40
36.19941617190003
 50
270.1281469595
 51
275.596102077
  0
LINE
  5
225
  8
0
  6
CONTINUOUS
 62
     7
 10
-43.55360375299998
 20
18.31524453859998
 30
0.0
 11
-43.91020344159998
 21
19.60392913569999
 31
0.0
  0
LINE
  5
226
  8
0
  6
CONTINUOUS
 62
     7
 10
-116.1955426778
 20
19.60392913569999
 30
0.0
 11
-116.5521423663
 21
18.31524453859998
 31
0.0
  0
LINE
  5
227
  8
0
  6
CONTINUOUS
 62
     7
 10
-40.05287395379997
 20
9.105582813199987
 30
0.0
 11
-40.05287395379997
 21
11.6718031501
 31
0.0
  0
LINE
  5
228
  8
0
  6
CONTINUOUS
 62
     7
 10
-120.0528721656
 20
11.6718031501
 30
0.0
 11
-120.0528721656
 21
9.105582813199987
 31
0.0
  0
LINE
  5
229
  8
0
  6
CONTINUOUS
 62
     7
 10
-117.4902933981
 20
6.634600686400006
 30
0.0
 11
-117.2181944694
 21
4.612312746599997
 31
0.0
  0
LINE
  5
22A
  8
0
  6
CONTINUOUS
 62
     7
 10
-42.88755164999998
 20
4.612312746599997
 30
0.0
 11
-42.61545272129999
 21
6.634600686400006
 31
0.0
  0
POLYLINE
  5
22B
  8
0
  6
CONTINUOUS
 62
     7
 66
     1
 10
0.0
 20
0.0
 30
0.0
  0
VERTEX
  5
22C
  8
0
  6
CONTINUOUS
 62
     7
 10
66.25824007190002
 20
-30.90812799300001
 30
0.0
  0
VERTEX
  5
22D
  8
0
  6
CONTINUOUS
 62
     7
 10
180.2582400906831
 20
-27.92293293375405
 30
0.0
  0
VERTEX
  5
22E
  8
0
  6
CONTINUOUS
 62
     7
 10
180.2582400906831
 20
52.10448867690147
 30
0.0
  0
VERTEX
  5
22F
  8
0
  6
CONTINUOUS
 62
     7
 10
66.25824023150003
 20
49.11929362160001
 30
0.0
  0
SEQEND
  5
230
  8
0
  6
CONTINUOUS
 62
     7
  0
LINE
  5
231
  8
0
  6
CONTINUOUS
 62
     7
 10
32.25823990790002
 20
-31.79844933070001
 30
0.0
 11
63.75823997220002
 21
-30.9735927996
 31
0.0
  0
LINE
  5
232
  8
0
  6
CONTINUOUS
 62
     7
 10
63.75824013180002
 20
49.05382881509999
 30
0.0
 11
32.25823852550002
 21
48.2289722436
 31
0.0
  0
LINE
  5
233
  8
0
  6
CONTINUOUS
 62
     7
 10
65.50824017229999
 20
-65.93976904440001
 30
0.0
 11
65.50814191050003
 21
-65.9397567112
 31
0.0
  0
ARC
  5
234
  8
0
  6
CONTINUOUS
 62
     7
 10
168.148904986
 20
-59.95379626740001
 30
0.0
 40
102.8151640914604
 50
176.6698198883
 51
183.3376820089
  0
LINE
  5
235
  8
0
  6
CONTINUOUS
 62
     7
 10
65.50735903170002
 20
-53.98127491790001
 30
0.0
 11
65.50824011940003
 21
-53.93610820950001
 31
0.0
  0
LINE
  5
236
  8
0
  6
CONTINUOUS
 62
     7
 10
65.50824011940003
 20
-53.93610820950001
 30
0.0
 11
65.76260487210001
 21
-53.92722639990001
 31
0.0
  0
POLYLINE
  5
237
  8
0
  6
CONTINUOUS
 62
     7
 66
     1
 10
0.0
 20
0.0
 30
0.0
  0
VERTEX
  5
238
  8
0
  6
CONTINUOUS
 62
     7
 10
65.77568985069999
 20
-65.93042534380001
 30
0.0
  0
VERTEX
  5
239
  8
0
  6
CONTINUOUS
 62
     7
 10
65.77615697600001
 20
-65.782639812
 30
0.0
  0
VERTEX
  5
23A
  8
0
  6
CONTINUOUS
 62
     7
 10
65.77618300820004
 20
-65.3429563609
 30
0.0
  0
VERTEX
  5
23B
  8
0
  6
CONTINUOUS
 62
     7
 10
65.7757674913
 20
-64.62220440690001
 30
0.0
  0
VERTEX
  5
23C
  8
0
  6
CONTINUOUS
 62
     7
 10
65.77492050790002
 20
-63.63812214650001
 30
0.0
  0
VERTEX
  5
23D
  8
0
  6
CONTINUOUS
 62
     7
 10
65.77366296750003
 20
-62.41493171960001
 30
0.0
  0
VERTEX
  5
23E
  8
0
  6
CONTINUOUS
 62
     7
 10
65.77202570450001
 20
-60.9827355293
 30
0.0
  0
VERTEX
  5
23F
  8
0
  6
CONTINUOUS
 62
     7
 10
65.77004937500001
 20
-59.37680074390001
 30
0.0
  0
VERTEX
  5
240
  8
0
  6
CONTINUOUS
 62
     7
 10
65.76778215160002
 20
-57.63663516870001
 30
0.0
  0
VERTEX
  5
241
  8
0
  6
CONTINUOUS
 62
     7
 10
65.7652801554
 20
-55.80508540460001
 30
0.0
  0
VERTEX
  5
242
  8
0
  6
CONTINUOUS
 62
     7
 10
65.76260487210001
 20
-53.92722639990001
 30
0.0
  0
SEQEND
  5
243
  8
0
  6
CONTINUOUS
 62
     7
  0
LINE
  5
244
  8
0
  6
CONTINUOUS
 62
     7
 10
65.77568985069999
 20
-65.93042534380001
 30
0.0
 11
65.50824017229999
 21
-65.93976904440001
 31
0.0
  0
LINE
  5
245
  8
0
  6
CONTINUOUS
 62
     7
 10
65.50814191050003
 20
-65.9397567112
 30
0.0
 11
64.22771571820002
 21
-65.86144411330001
 31
0.0
  0
POLYLINE
  5
246
  8
0
  6
CONTINUOUS
 62
     7
 66
     1
 10
0.0
 20
0.0
 30
0.0
  0
VERTEX
  5
247
  8
0
  6
CONTINUOUS
 62
     7
 10
64.21464727970002
 20
-53.90221077720001
 30
0.0
  0
VERTEX
  5
248
  8
0
  6
CONTINUOUS
 62
     7
 10
64.21045734470002
 20
-55.77554662610001
 30
0.0
  0
VERTEX
  5
249
  8
0
  6
CONTINUOUS
 62
     7
 10
64.20743629570003
 20
-57.60156918070001
 30
0.0
  0
VERTEX
  5
24A
  8
0
  6
CONTINUOUS
 62
     7
 10
64.2056574886
 20
-59.3356098845
 30
0.0
  0
VERTEX
  5
24B
  8
0
  6
CONTINUOUS
 62
     7
 10
64.20516508630001
 20
-60.93527415140001
 30
0.0
  0
VERTEX
  5
24C
  8
0
  6
CONTINUOUS
 62
     7
 10
64.20597047660002
 20
-62.3614252735
 30
0.0
  0
VERTEX
  5
24D
  8
0
  6
CONTINUOUS
 62
     7
 10
64.20805416300001
 20
-63.57919054450001
 30
0.0
  0
VERTEX
  5
24E
  8
0
  6
CONTINUOUS
 62
     7
 10
64.2113653397
 20
-64.5587811158
 30
0.0
  0
VERTEX
  5
24F
  8
0
  6
CONTINUOUS
 62
     7
 10
64.2158227372
 20
-65.27624474090001
 30
0.0
  0
VERTEX
  5
250
  8
0
  6
CONTINUOUS
 62
     7
 10
64.22131776950002
 20
-65.7140395844
 30
0.0
  0
VERTEX
  5
251
  8
0
  6
CONTINUOUS
 62
     7
 10
64.22771571820002
 20
-65.86144411330001
 30
0.0
  0
SEQEND
  5
252
  8
0
  6
CONTINUOUS
 62
     7
  0
LINE
  5
253
  8
0
  6
CONTINUOUS
 62
     7
 10
64.21464727970002
 20
-53.90221077720001
 30
0.0
 11
65.50735903170002
 21
-53.98127491790001
 31
0.0
  0
POLYLINE
  5
254
  8
0
  6
CONTINUOUS
 62
     7
 66
     1
 10
0.0
 20
0.0
 30
0.0
  0
VERTEX
  5
255
  8
0
  6
CONTINUOUS
 62
     7
 10
65.50580609100004
 20
84.1113759122
 30
0.0
  0
VERTEX
  5
256
  8
0
  6
CONTINUOUS
 62
     7
 10
65.3693597374
 20
83.82096905359998
 30
0.0
  0
VERTEX
  5
257
  8
0
  6
CONTINUOUS
 62
     7
 10
65.300220483
 20
83.22789395749999
 30
0.0
  0
VERTEX
  5
258
  8
0
  6
CONTINUOUS
 62
     7
 10
65.25954838359999
 20
82.29960680490001
 30
0.0
  0
VERTEX
  5
259
  8
0
  6
CONTINUOUS
 62
     7
 10
65.24771971210001
 20
81.1128623758
 30
0.0
  0
VERTEX
  5
25A
  8
0
  6
CONTINUOUS
 62
     7
 10
65.2619268
 20
79.6336455739
 30
0.0
  0
VERTEX
  5
25B
  8
0
  6
CONTINUOUS
 62
     7
 10
65.298764793
 20
77.9841731786
 30
0.0
  0
VERTEX
  5
25C
  8
0
  6
CONTINUOUS
 62
     7
 10
65.3566481512
 20
76.11840292439999
 30
0.0
  0
VERTEX
  5
25D
  8
0
  6
CONTINUOUS
 62
     7
 10
65.42732822140002
 20
74.193283062
 30
0.0
  0
VERTEX
  5
25E
  8
0
  6
CONTINUOUS
 62
     7
 10
65.50735841510001
 20
72.15311550210001
 30
0.0
  0
SEQEND
  5
25F
  8
0
  6
CONTINUOUS
 62
     7
  0
LINE
  5
260
  8
0
  6
CONTINUOUS
 62
     7
 10
65.50735841510001
 20
72.15311550210001
 30
0.0
 11
64.21464723060004
 21
72.00583541289998
 31
0.0
  0
POLYLINE
  5
261
  8
0
  6
CONTINUOUS
 62
     7
 66
     1
 10
0.0
 20
0.0
 30
0.0
  0
VERTEX
  5
262
  8
0
  6
CONTINUOUS
 62
     7
 10
64.20163860930003
 20
83.96278220299999
 30
0.0
  0
VERTEX
  5
263
  8
0
  6
CONTINUOUS
 62
     7
 10
64.1956362992
 20
83.8152616497
 30
0.0
  0
VERTEX
  5
264
  8
0
  6
CONTINUOUS
 62
     7
 10
64.19115616220003
 20
83.37781675419998
 30
0.0
  0
VERTEX
  5
265
  8
0
  6
CONTINUOUS
 62
     7
 10
64.18830734040003
 20
82.66107109149999
 30
0.0
  0
VERTEX
  5
266
  8
0
  6
CONTINUOUS
 62
     7
 10
64.18715908550004
 20
81.68245935659999
 30
0.0
  0
VERTEX
  5
267
  8
0
  6
CONTINUOUS
 62
     7
 10
64.18773907790003
 20
80.46578013339999
 30
0.0
  0
VERTEX
  5
268
  8
0
  6
CONTINUOUS
 62
     7
 10
64.19003319910004
 20
79.04062199629999
 30
0.0
  0
VERTEX
  5
269
  8
0
  6
CONTINUOUS
 62
     7
 10
64.19398598720002
 20
77.4416256627
 30
0.0
  0
VERTEX
  5
26A
  8
0
  6
CONTINUOUS
 62
     7
 10
64.19950110160002
 20
75.7076790662
 30
0.0
  0
VERTEX
  5
26B
  8
0
  6
CONTINUOUS
 62
     7
 10
64.20644447100003
 20
73.8809410785
 30
0.0
  0
VERTEX
  5
26C
  8
0
  6
CONTINUOUS
 62
     7
 10
64.21464723060004
 20
72.00583541289998
 30
0.0
  0
SEQEND
  5
26D
  8
0
  6
CONTINUOUS
 62
     7
  0
LINE
  5
26E
  8
0
  6
CONTINUOUS
 62
     7
 10
64.20163860930003
 20
83.96278220299999
 30
0.0
 11
65.50580609100004
 21
84.1113759122
 31
0.0
  0
LINE
  5
26F
  8
0
  6
CONTINUOUS
 62
     7
 10
65.50824018239999
 20
72.10799495570001
 30
0.0
 11
65.50735841510001
 21
72.15311550210001
 31
0.0
  0
LINE
  5
270
  8
0
  6
CONTINUOUS
 62
     7
 10
65.50580609100004
 20
84.1113759122
 30
0.0
 11
65.50824012950002
 21
84.1116557906
 31
0.0
  0
LINE
  5
271
  8
0
  6
CONTINUOUS
 62
     7
 10
65.50824012950002
 20
84.1116557906
 30
0.0
 11
65.74951389140003
 21
84.11586452929998
 31
0.0
  0
POLYLINE
  5
272
  8
0
  6
CONTINUOUS
 62
     7
 66
     1
 10
0.0
 20
0.0
 30
0.0
  0
VERTEX
  5
273
  8
0
  6
CONTINUOUS
 62
     7
 10
65.7626049161
 20
72.1124346965
 30
0.0
  0
VERTEX
  5
274
  8
0
  6
CONTINUOUS
 62
     7
 10
65.761185955
 20
73.9901179115
 30
0.0
  0
VERTEX
  5
275
  8
0
  6
CONTINUOUS
 62
     7
 10
65.75969467510001
 20
75.8215897981
 30
0.0
  0
VERTEX
  5
276
  8
0
  6
CONTINUOUS
 62
     7
 10
65.75816752390003
 20
77.56175984659998
 30
0.0
  0
VERTEX
  5
277
  8
0
  6
CONTINUOUS
 62
     7
 10
65.75664179040004
 20
79.1677735094
 30
0.0
  0
VERTEX
  5
278
  8
0
  6
CONTINUOUS
 62
     7
 10
65.7551558026
 20
80.6000630986
 30
0.0
  0
VERTEX
  5
279
  8
0
  6
CONTINUOUS
 62
     7
 10
65.75374567790001
 20
81.8233613271
 30
0.0
  0
VERTEX
  5
27A
  8
0
  6
CONTINUOUS
 62
     7
 10
65.75244632709999
 20
82.80754353879999
 30
0.0
  0
VERTEX
  5
27B
  8
0
  6
CONTINUOUS
 62
     7
 10
65.7512894072
 20
83.5283729692
 30
0.0
  0
VERTEX
  5
27C
  8
0
  6
CONTINUOUS
 62
     7
 10
65.75030397309999
 20
83.9680895592
 30
0.0
  0
VERTEX
  5
27D
  8
0
  6
CONTINUOUS
 62
     7
 10
65.74951389140003
 20
84.11586452929998
 30
0.0
  0
SEQEND
  5
27E
  8
0
  6
CONTINUOUS
 62
     7
  0
LINE
  5
27F
  8
0
  6
CONTINUOUS
 62
     7
 10
65.7626049161
 20
72.1124346965
 30
0.0
 11
65.50824018239999
 21
72.10799495570001
 31
0.0
  0
LINE
  5
280
  8
0
  6
CONTINUOUS
 62
     7
 10
65.50824018239999
 20
72.10799495570001
 30
0.0
 11
65.50824011940003
 21
-53.93610820950001
 31
0.0
  0
LINE
  5
281
  8
0
  6
CONTINUOUS
 62
     7
 10
65.76260487210001
 20
-53.92722639990001
 30
0.0
 11
65.7626049161
 21
72.1124346965
 31
0.0
  0
LINE
  5
282
  8
0
  6
CONTINUOUS
 62
     7
 10
64.21464723060004
 20
72.00583541289998
 30
0.0
 11
64.21464727970002
 21
-53.90221077720001
 31
0.0
  0
POLYLINE
  5
283
  8
0
  6
CONTINUOUS
 62
     7
 66
     1
 10
0.0
 20
0.0
 30
0.0
  0
VERTEX
  5
284
  8
0
  6
CONTINUOUS
 62
     7
 10
66.2582401695
 20
83.61594078779999
 30
0.0
  0
VERTEX
  5
285
  8
0
  6
CONTINUOUS
 62
     7
 10
66.2582400657
 20
83.4743088683
 30
0.0
  0
VERTEX
  5
286
  8
0
  6
CONTINUOUS
 62
     7
 10
66.2582401448
 20
83.0528937338
 30
0.0
  0
VERTEX
  5
287
  8
0
  6
CONTINUOUS
 62
     7
 10
66.25824015050003
 20
82.36208504729998
 30
0.0
  0
VERTEX
  5
288
  8
0
  6
CONTINUOUS
 62
     7
 10
66.25824003599999
 20
81.41889086059999
 30
0.0
  0
VERTEX
  5
289
  8
0
  6
CONTINUOUS
 62
     7
 10
66.25824002230004
 20
80.24653514709999
 30
0.0
  0
VERTEX
  5
28A
  8
0
  6
CONTINUOUS
 62
     7
 10
66.2582400967
 20
78.87389880289999
 30
0.0
  0
VERTEX
  5
28B
  8
0
  6
CONTINUOUS
 62
     7
 10
66.258240003
 20
77.3347817867
 30
0.0
  0
VERTEX
  5
28C
  8
0
  6
CONTINUOUS
 62
     7
 10
66.25824025060004
 20
75.66709075450001
 30
0.0
  0
VERTEX
  5
28D
  8
0
  6
CONTINUOUS
 62
     7
 10
66.25824015550003
 20
73.9118999131
 30
0.0
  0
VERTEX
  5
28E
  8
0
  6
CONTINUOUS
 62
     7
 10
66.258240158
 20
72.11243745479999
 30
0.0
  0
SEQEND
  5
28F
  8
0
  6
CONTINUOUS
 62
     7
  0
POLYLINE
  5
290
  8
0
  6
CONTINUOUS
 62
     7
 66
     1
 10
0.0
 20
0.0
 30
0.0
  0
VERTEX
  5
291
  8
0
  6
CONTINUOUS
 62
     7
 10
66.258240158
 20
72.11243745479999
 30
0.0
  0
VERTEX
  5
292
  8
0
  6
CONTINUOUS
 62
     7
 10
66.24873888340002
 20
72.11243460859998
 30
0.0
  0
VERTEX
  5
293
  8
0
  6
CONTINUOUS
 62
     7
 10
66.2205962889
 20
72.1124355291
 30
0.0
  0
VERTEX
  5
294
  8
0
  6
CONTINUOUS
 62
     7
 10
66.1748819465
 20
72.11243841159998
 30
0.0
  0
VERTEX
  5
295
  8
0
  6
CONTINUOUS
 62
     7
 10
66.11333331020003
 20
72.11243658089998
 30
0.0
  0
VERTEX
  5
296
  8
0
  6
CONTINUOUS
 62
     7
 10
66.038289262
 20
72.1124391109
 30
0.0
  0
VERTEX
  5
297
  8
0
  6
CONTINUOUS
 62
     7
 10
65.9526019816
 20
72.112438704
 30
0.0
  0
VERTEX
  5
298
  8
0
  6
CONTINUOUS
 62
     7
 10
65.85952816970004
 20
72.1124386555
 30
0.0
  0
VERTEX
  5
299
  8
0
  6
CONTINUOUS
 62
     7
 10
65.7626049161
 20
72.1124346965
 30
0.0
  0
SEQEND
  5
29A
  8
0
  6
CONTINUOUS
 62
     7
  0
ARC
  5
29B
  8
0
  6
CONTINUOUS
 62
     7
 10
65.75824010190004
 20
83.6159404108
 30
0.0
 40
0.5000000000000058
 50
0.0
 51
91.00000000000178
  0
LINE
  5
29C
  8
0
  6
CONTINUOUS
 62
     7
 10
66.258240158
 20
72.11243745479999
 30
0.0
 11
66.2582400268
 21
-53.92722364400001
 31
0.0
  0
POLYLINE
  5
29D
  8
0
  6
CONTINUOUS
 62
     7
 66
     1
 10
0.0
 20
0.0
 30
0.0
  0
VERTEX
  5
29E
  8
0
  6
CONTINUOUS
 62
     7
 10
66.2582400268
 20
-53.92722364400001
 30
0.0
  0
VERTEX
  5
29F
  8
0
  6
CONTINUOUS
 62
     7
 10
66.2487388685
 20
-53.9272264871
 30
0.0
  0
VERTEX
  5
2A0
  8
0
  6
CONTINUOUS
 62
     7
 10
66.2205963031
 20
-53.9272255658
 30
0.0
  0
VERTEX
  5
2A1
  8
0
  6
CONTINUOUS
 62
     7
 10
66.17488212660001
 20
-53.92723013210001
 30
0.0
  0
VERTEX
  5
2A2
  8
0
  6
CONTINUOUS
 62
     7
 10
66.11333326619999
 20
-53.9272245155
 30
0.0
  0
VERTEX
  5
2A3
  8
0
  6
CONTINUOUS
 62
     7
 10
66.03828941309999
 20
-53.9272294336
 30
0.0
  0
VERTEX
  5
2A4
  8
0
  6
CONTINUOUS
 62
     7
 10
65.95260219090002
 20
-53.9272298389
 30
0.0
  0
VERTEX
  5
2A5
  8
0
  6
CONTINUOUS
 62
     7
 10
65.85952826249999
 20
-53.9272298905
 30
0.0
  0
VERTEX
  5
2A6
  8
0
  6
CONTINUOUS
 62
     7
 10
65.76260487210001
 20
-53.92722639990001
 30
0.0
  0
SEQEND
  5
2A7
  8
0
  6
CONTINUOUS
 62
     7
  0
POLYLINE
  5
2A8
  8
0
  6
CONTINUOUS
 62
     7
 66
     1
 10
0.0
 20
0.0
 30
0.0
  0
VERTEX
  5
2A9
  8
0
  6
CONTINUOUS
 62
     7
 10
66.2582400268
 20
-53.92722364400001
 30
0.0
  0
VERTEX
  5
2AA
  8
0
  6
CONTINUOUS
 62
     7
 10
66.2582401521
 20
-55.7269320525
 30
0.0
  0
VERTEX
  5
2AB
  8
0
  6
CONTINUOUS
 62
     7
 10
66.25824011400002
 20
-57.48224959570001
 30
0.0
  0
VERTEX
  5
2AC
  8
0
  6
CONTINUOUS
 62
     7
 10
66.25823999849999
 20
-59.14997790310001
 30
0.0
  0
VERTEX
  5
2AD
  8
0
  6
CONTINUOUS
 62
     7
 10
66.25824007610001
 20
-60.6890725554
 30
0.0
  0
VERTEX
  5
2AE
  8
0
  6
CONTINUOUS
 62
     7
 10
66.2582400245
 20
-62.0616418247
 30
0.0
  0
VERTEX
  5
2AF
  8
0
  6
CONTINUOUS
 62
     7
 10
66.25824019289999
 20
-63.233915549
 30
0.0
  0
VERTEX
  5
2B0
  8
0
  6
CONTINUOUS
 62
     7
 10
66.2582401237
 20
-64.17702029680001
 30
0.0
  0
VERTEX
  5
2B1
  8
0
  6
CONTINUOUS
 62
     7
 10
66.25824009920004
 20
-64.8677544528
 30
0.0
  0
VERTEX
  5
2B2
  8
0
  6
CONTINUOUS
 62
     7
 10
66.25824015140003
 20
-65.28911741600001
 30
0.0
  0
VERTEX
  5
2B3
  8
0
  6
CONTINUOUS
 62
     7
 10
66.25824018130001
 20
-65.43073442580001
 30
0.0
  0
SEQEND
  5
2B4
  8
0
  6
CONTINUOUS
 62
     7
  0
ARC
  5
2B5
  8
0
  6
CONTINUOUS
 62
     7
 10
65.75824010190004
 20
-65.43073110050001
 30
0.0
 40
0.5000000000000095
 50
271.9999999999971
 51
0.0
  0
LINE
  5
2B6
  8
0
  6
CONTINUOUS
 62
     7
 10
63.75824024850002
 20
-53.90221484120001
 30
0.0
 11
63.75824011210003
 21
72.0058313467
 31
0.0
  0
POLYLINE
  5
2B7
  8
0
  6
CONTINUOUS
 62
     7
 66
     1
 10
0.0
 20
0.0
 30
0.0
  0
VERTEX
  5
2B8
  8
0
  6
CONTINUOUS
 62
     7
 10
63.75824011210003
 20
72.0058313467
 30
0.0
  0
VERTEX
  5
2B9
  8
0
  6
CONTINUOUS
 62
     7
 10
63.76681227110001
 20
72.0058322225
 30
0.0
  0
VERTEX
  5
2BA
  8
0
  6
CONTINUOUS
 62
     7
 10
63.79223473440001
 20
72.0058346042
 30
0.0
  0
VERTEX
  5
2BB
  8
0
  6
CONTINUOUS
 62
     7
 10
63.83363610000001
 20
72.0058305794
 30
0.0
  0
VERTEX
  5
2BC
  8
0
  6
CONTINUOUS
 62
     7
 10
63.8895962988
 20
72.0058351344
 30
0.0
  0
VERTEX
  5
2BD
  8
0
  6
CONTINUOUS
 62
     7
 10
63.9581969251
 20
72.0058352996
 30
0.0
  0
VERTEX
  5
2BE
  8
0
  6
CONTINUOUS
 62
     7
 10
64.03708578030003
 20
72.00582910559999
 30
0.0
  0
VERTEX
  5
2BF
  8
0
  6
CONTINUOUS
 62
     7
 10
64.1235573557
 20
72.00583514369998
 30
0.0
  0
VERTEX
  5
2C0
  8
0
  6
CONTINUOUS
 62
     7
 10
64.21464723060004
 20
72.00583541289998
 30
0.0
  0
SEQEND
  5
2C1
  8
0
  6
CONTINUOUS
 62
     7
  0
POLYLINE
  5
2C2
  8
0
  6
CONTINUOUS
 62
     7
 66
     1
 10
0.0
 20
0.0
 30
0.0
  0
VERTEX
  5
2C3
  8
0
  6
CONTINUOUS
 62
     7
 10
63.75824024850002
 20
-53.90221484120001
 30
0.0
  0
VERTEX
  5
2C4
  8
0
  6
CONTINUOUS
 62
     7
 10
63.76681226209999
 20
-53.9022139691
 30
0.0
  0
VERTEX
  5
2C5
  8
0
  6
CONTINUOUS
 62
     7
 10
63.79223484170004
 20
-53.90221158440001
 30
0.0
  0
VERTEX
  5
2C6
  8
0
  6
CONTINUOUS
 62
     7
 10
63.83363617820001
 20
-53.90221560990001
 30
0.0
  0
VERTEX
  5
2C7
  8
0
  6
CONTINUOUS
 62
     7
 10
63.88959628980004
 20
-53.90221105720001
 30
0.0
  0
VERTEX
  5
2C8
  8
0
  6
CONTINUOUS
 62
     7
 10
63.95819703240002
 20
-53.902210889
 30
0.0
  0
VERTEX
  5
2C9
  8
0
  6
CONTINUOUS
 62
     7
 10
64.03708563440003
 20
-53.9022096365
 30
0.0
  0
VERTEX
  5
2CA
  8
0
  6
CONTINUOUS
 62
     7
 10
64.12355740480004
 20
-53.9022110465
 30
0.0
  0
VERTEX
  5
2CB
  8
0
  6
CONTINUOUS
 62
     7
 10
64.21464727970002
 20
-53.90221077720001
 30
0.0
  0
SEQEND
  5
2CC
  8
0
  6
CONTINUOUS
 62
     7
  0
POLYLINE
  5
2CD
  8
0
  6
CONTINUOUS
 62
     7
 66
     1
 10
0.0
 20
0.0
 30
0.0
  0
VERTEX
  5
2CE
  8
0
  6
CONTINUOUS
 62
     7
 10
63.75824011210003
 20
72.0058313467
 30
0.0
  0
VERTEX
  5
2CF
  8
0
  6
CONTINUOUS
 62
     7
 10
63.7582401347
 20
73.803706288
 30
0.0
  0
VERTEX
  5
2D0
  8
0
  6
CONTINUOUS
 62
     7
 10
63.75824009999999
 20
75.5550885742
 30
0.0
  0
VERTEX
  5
2D1
  8
0
  6
CONTINUOUS
 62
     7
 10
63.75824004730001
 20
77.21739099519999
 30
0.0
  0
VERTEX
  5
2D2
  8
0
  6
CONTINUOUS
 62
     7
 10
63.75824002300001
 20
78.7501952033
 30
0.0
  0
VERTEX
  5
2D3
  8
0
  6
CONTINUOUS
 62
     7
 10
63.75824018400002
 20
80.11622062320001
 30
0.0
  0
VERTEX
  5
2D4
  8
0
  6
CONTINUOUS
 62
     7
 10
63.75824005929999
 20
81.2822709813
 30
0.0
  0
VERTEX
  5
2D5
  8
0
  6
CONTINUOUS
 62
     7
 10
63.75824005300004
 20
82.21997965770001
 30
0.0
  0
VERTEX
  5
2D6
  8
0
  6
CONTINUOUS
 62
     7
 10
63.7582400574
 20
82.9065475109
 30
0.0
  0
VERTEX
  5
2D7
  8
0
  6
CONTINUOUS
 62
     7
 10
63.75824013230002
 20
83.32527952089998
 30
0.0
  0
VERTEX
  5
2D8
  8
0
  6
CONTINUOUS
 62
     7
 10
63.75823999860003
 20
83.46600215179998
 30
0.0
  0
SEQEND
  5
2D9
  8
0
  6
CONTINUOUS
 62
     7
  0
ARC
  5
2DA
  8
0
  6
CONTINUOUS
 62
     7
 10
64.25824010190004
 20
83.4659984319
 30
0.0
 40
0.5000000000000143
 50
96.49999999999707
 51
180.0
  0
POLYLINE
  5
2DB
  8
0
  6
CONTINUOUS
 62
     7
 66
     1
 10
0.0
 20
0.0
 30
0.0
  0
VERTEX
  5
2DC
  8
0
  6
CONTINUOUS
 62
     7
 10
63.75824007960003
 20
-65.3623782006
 30
0.0
  0
VERTEX
  5
2DD
  8
0
  6
CONTINUOUS
 62
     7
 10
63.75823994060002
 20
-65.2214841478
 30
0.0
  0
VERTEX
  5
2DE
  8
0
  6
CONTINUOUS
 62
     7
 10
63.75824017740004
 20
-64.8022602266
 30
0.0
  0
VERTEX
  5
2DF
  8
0
  6
CONTINUOUS
 62
     7
 10
63.7582399385
 20
-64.1149470663
 30
0.0
  0
VERTEX
  5
2E0
  8
0
  6
CONTINUOUS
 62
     7
 10
63.75823998109999
 20
-63.1763663719
 30
0.0
  0
VERTEX
  5
2E1
  8
0
  6
CONTINUOUS
 62
     7
 10
63.758240083
 20
-62.00946635050001
 30
0.0
  0
VERTEX
  5
2E2
  8
0
  6
CONTINUOUS
 62
     7
 10
63.75824013000002
 20
-60.64278505770001
 30
0.0
  0
VERTEX
  5
2E3
  8
0
  6
CONTINUOUS
 62
     7
 10
63.7582401695
 20
-59.1097498008
 30
0.0
  0
VERTEX
  5
2E4
  8
0
  6
CONTINUOUS
 62
     7
 10
63.75824017470003
 20
-57.44784984760001
 30
0.0
  0
VERTEX
  5
2E5
  8
0
  6
CONTINUOUS
 62
     7
 10
63.75823995420004
 20
-55.6977345991
 30
0.0
  0
VERTEX
  5
2E6
  8
0
  6
CONTINUOUS
 62
     7
 10
63.75824024850002
 20
-53.90221484120001
 30
0.0
  0
SEQEND
  5
2E7
  8
0
  6
CONTINUOUS
 62
     7
  0
ARC
  5
2E8
  8
0
  6
CONTINUOUS
 62
     7
 10
64.25824010190004
 20
-65.3623784463
 30
0.0
 40
0.5
 50
180.0
 51
266.499999999997
  0
POLYLINE
  5
2E9
  8
0
  6
CONTINUOUS
 62
     7
 66
     1
 10
0.0
 20
0.0
 30
0.0
  0
VERTEX
  5
2EA
  8
0
  6
CONTINUOUS
 62
     7
 10
32.25823852550002
 20
48.2289722436
 30
0.0
  0
VERTEX
  5
2EB
  8
0
  6
CONTINUOUS
 62
     7
 10
32.25823961400002
 20
48.19733744229998
 30
0.0
  0
VERTEX
  5
2EC
  8
0
  6
CONTINUOUS
 62
     7
 10
32.25824052060003
 20
47.94455695299999
 30
0.0
  0
VERTEX
  5
2ED
  8
0
  6
CONTINUOUS
 62
     7
 10
32.25824136560001
 20
47.4405983728
 30
0.0
  0
VERTEX
  5
2EE
  8
0
  6
CONTINUOUS
 62
     7
 10
32.25824089570003
 20
46.68864043099998
 30
0.0
  0
VERTEX
  5
2EF
  8
0
  6
CONTINUOUS
 62
     7
 10
32.25824110090002
 20
45.69344573269998
 30
0.0
  0
VERTEX
  5
2F0
  8
0
  6
CONTINUOUS
 62
     7
 10
32.25824142460002
 20
44.46129725559999
 30
0.0
  0
VERTEX
  5
2F1
  8
0
  6
CONTINUOUS
 62
     7
 10
32.25823895850002
 20
42.99999090259999
 30
0.0
  0
VERTEX
  5
2F2
  8
0
  6
CONTINUOUS
 62
     7
 10
32.25824146760002
 20
41.3187650372
 30
0.0
  0
VERTEX
  5
2F3
  8
0
  6
CONTINUOUS
 62
     7
 10
32.25823891450003
 20
39.42824942979999
 30
0.0
  0
VERTEX
  5
2F4
  8
0
  6
CONTINUOUS
 62
     7
 10
32.25823887680002
 20
37.34039351690001
 30
0.0
  0
VERTEX
  5
2F5
  8
0
  6
CONTINUOUS
 62
     7
 10
32.25823846210002
 20
35.06840045069998
 30
0.0
  0
VERTEX
  5
2F6
  8
0
  6
CONTINUOUS
 62
     7
 10
32.25824169030003
 20
32.62663252679999
 30
0.0
  0
VERTEX
  5
2F7
  8
0
  6
CONTINUOUS
 62
     7
 10
32.25823929500001
 20
30.0305286709
 30
0.0
  0
VERTEX
  5
2F8
  8
0
  6
CONTINUOUS
 62
     7
 10
32.25824124610003
 20
27.29650094659999
 30
0.0
  0
VERTEX
  5
2F9
  8
0
  6
CONTINUOUS
 62
     7
 10
32.25823837000002
 20
24.44183479590001
 30
0.0
  0
VERTEX
  5
2FA
  8
0
  6
CONTINUOUS
 62
     7
 10
32.25823874210002
 20
21.484580059
 30
0.0
  0
VERTEX
  5
2FB
  8
0
  6
CONTINUOUS
 62
     7
 10
32.25824099120001
 20
18.44343195659999
 30
0.0
  0
VERTEX
  5
2FC
  8
0
  6
CONTINUOUS
 62
     7
 10
32.25824098530001
 20
15.33761807029998
 30
0.0
  0
VERTEX
  5
2FD
  8
0
  6
CONTINUOUS
 62
     7
 10
32.2582388104
 20
12.18677415119998
 30
0.0
  0
VERTEX
  5
2FE
  8
0
  6
CONTINUOUS
 62
     7
 10
32.25823825400002
 20
9.010821537400005
 30
0.0
  0
VERTEX
  5
2FF
  8
0
  6
CONTINUOUS
 62
     7
 10
32.25823898340002
 20
5.829838906600003
 30
0.0
  0
VERTEX
  5
300
  8
0
  6
CONTINUOUS
 62
     7
 10
32.25823979740002
 20
2.663938103499987
 30
0.0
  0
VERTEX
  5
301
  8
0
  6
CONTINUOUS
 62
     7
 10
32.25823831230002
 20
-0.4668661819000022
 30
0.0
  0
VERTEX
  5
302
  8
0
  6
CONTINUOUS
 62
     7
 10
32.25824161120002
 20
-3.542778471500014
 30
0.0
  0
VERTEX
  5
303
  8
0
  6
CONTINUOUS
 62
     7
 10
32.25823985750003
 20
-6.544353328900002
 30
0.0
  0
VERTEX
  5
304
  8
0
  6
CONTINUOUS
 62
     7
 10
32.25823916470003
 20
-9.452612118400012
 30
0.0
  0
VERTEX
  5
305
  8
0
  6
CONTINUOUS
 62
     7
 10
32.25823883180001
 20
-12.24916983860001
 30
0.0
  0
VERTEX
  5
306
  8
0
  6
CONTINUOUS
 62
     7
 10
32.25824166800001
 20
-14.91634478570001
 30
0.0
  0
VERTEX
  5
307
  8
0
  6
CONTINUOUS
 62
     7
 10
32.2582383957
 20
-17.4372744857
 30
0.0
  0
VERTEX
  5
308
  8
0
  6
CONTINUOUS
 62
     7
 10
32.25824019740003
 20
-19.7960201173
 30
0.0
  0
VERTEX
  5
309
  8
0
  6
CONTINUOUS
 62
     7
 10
32.25824043330002
 20
-21.97766999540001
 30
0.0
  0
VERTEX
  5
30A
  8
0
  6
CONTINUOUS
 62
     7
 10
32.25823932580002
 20
-23.96842836200001
 30
0.0
  0
VERTEX
  5
30B
  8
0
  6
CONTINUOUS
 62
     7
 10
32.2582390469
 20
-25.75571240580001
 30
0.0
  0
VERTEX
  5
30C
  8
0
  6
CONTINUOUS
 62
     7
 10
32.25824184690001
 20
-27.3282231158
 30
0.0
  0
VERTEX
  5
30D
  8
0
  6
CONTINUOUS
 62
     7
 10
32.2582406866
 20
-28.67601446810001
 30
0.0
  0
VERTEX
  5
30E
  8
0
  6
CONTINUOUS
 62
     7
 10
32.25823980770002
 20
-29.79056741890001
 30
0.0
  0
VERTEX
  5
30F
  8
0
  6
CONTINUOUS
 62
     7
 10
32.2582410066
 20
-30.66483498240001
 30
0.0
  0
VERTEX
  5
310
  8
0
  6
CONTINUOUS
 62
     7
 10
32.2582411786
 20
-31.2932907405
 30
0.0
  0
VERTEX
  5
311
  8
0
  6
CONTINUOUS
 62
     7
 10
32.25824064320003
 20
-31.67196216410001
 30
0.0
  0
VERTEX
  5
312
  8
0
  6
CONTINUOUS
 62
     7
 10
32.25823990790002
 20
-31.79844933070001
 30
0.0
  0
SEQEND
  5
313
  8
0
  6
CONTINUOUS
 62
     7
  0
POLYLINE
  5
314
  8
0
  6
CONTINUOUS
 62
     7
 66
     1
 10
0.0
 20
0.0
 30
0.0
  0
VERTEX
  5
315
  8
0
  6
CONTINUOUS
 62
     7
 10
64.26298565940002
 20
-53.40448051680001
 30
0.0
  0
VERTEX
  5
316
  8
0
  6
CONTINUOUS
 62
     7
 10
64.26404107750002
 20
-53.21951452430001
 30
0.0
  0
VERTEX
  5
317
  8
0
  6
CONTINUOUS
 62
     7
 10
64.26704782740003
 20
-52.6931960416
 30
0.0
  0
VERTEX
  5
318
  8
0
  6
CONTINUOUS
 62
     7
 10
64.27154856960001
 20
-51.90677993840001
 30
0.0
  0
VERTEX
  5
319
  8
0
  6
CONTINUOUS
 62
     7
 10
64.27686347610003
 20
-50.9801565068
 30
0.0
  0
VERTEX
  5
31A
  8
0
  6
CONTINUOUS
 62
     7
 10
64.28218870930002
 20
-50.0537228597
 30
0.0
  0
VERTEX
  5
31B
  8
0
  6
CONTINUOUS
 62
     7
 10
64.2867145178
 20
-49.26775701480001
 30
0.0
  0
VERTEX
  5
31C
  8
0
  6
CONTINUOUS
 62
     7
 10
64.2897465161
 20
-48.74180680110001
 30
0.0
  0
VERTEX
  5
31D
  8
0
  6
CONTINUOUS
 62
     7
 10
64.29081309710003
 20
-48.5569113211
 30
0.0
  0
SEQEND
  5
31E
  8
0
  6
CONTINUOUS
 62
     7
  0
POLYLINE
  5
31F
  8
0
  6
CONTINUOUS
 62
     7
 66
     1
 10
0.0
 20
0.0
 30
0.0
  0
VERTEX
  5
320
  8
0
  6
CONTINUOUS
 62
     7
 10
64.26298565570002
 20
66.59551804899999
 30
0.0
  0
VERTEX
  5
321
  8
0
  6
CONTINUOUS
 62
     7
 10
64.2640411321
 20
66.78048404309999
 30
0.0
  0
VERTEX
  5
322
  8
0
  6
CONTINUOUS
 62
     7
 10
64.26704778450002
 20
67.3068062497
 30
0.0
  0
VERTEX
  5
323
  8
0
  6
CONTINUOUS
 62
     7
 10
64.27154856590002
 20
68.0932186274
 30
0.0
  0
VERTEX
  5
324
  8
0
  6
CONTINUOUS
 62
     7
 10
64.2768635495
 20
69.01984578759999
 30
0.0
  0
VERTEX
  5
325
  8
0
  6
CONTINUOUS
 62
     7
 10
64.28218878269999
 20
69.94627943469999
 30
0.0
  0
VERTEX
  5
326
  8
0
  6
CONTINUOUS
 62
     7
 10
64.2867145141
 20
70.7322415511
 30
0.0
  0
VERTEX
  5
327
  8
0
  6
CONTINUOUS
 62
     7
 10
64.28974658950003
 20
71.25819549330001
 30
0.0
  0
VERTEX
  5
328
  8
0
  6
CONTINUOUS
 62
     7
 10
64.2908132099
 20
71.44308724780001
 30
0.0
  0
SEQEND
  5
329
  8
0
  6
CONTINUOUS
 62
     7
  0
LINE
  5
32A
  8
0
  6
CONTINUOUS
 62
     7
 10
64.058240154
 20
-54.43976455090001
 30
0.0
 11
63.7582400419
 21
-54.15507734420001
 31
0.0
  0
LINE
  5
32B
  8
0
  6
CONTINUOUS
 62
     7
 10
64.05824022760001
 20
-60.4397689492
 30
0.0
 11
63.75824002750002
 21
-60.75590128420001
 31
0.0
  0
LINE
  5
32C
  8
0
  6
CONTINUOUS
 62
     7
 10
64.058240154
 20
-54.43976455090001
 30
0.0
 11
64.05824022760001
 21
-60.4397689492
 31
0.0
  0
LINE
  5
32D
  8
0
  6
CONTINUOUS
 62
     7
 10
63.7582400117
 20
-55.54824707690001
 30
0.0
 11
64.05824008740004
 21
-55.54824690230001
 31
0.0
  0
LINE
  5
32E
  8
0
  6
CONTINUOUS
 62
     7
 10
63.75824008960004
 20
-55.33243410940001
 30
0.0
 11
64.05824016530002
 21
-55.33243393480001
 31
0.0
  0
LINE
  5
32F
  8
0
  6
CONTINUOUS
 62
     7
 10
63.75824012870001
 20
-57.49058612260001
 30
0.0
 11
64.0582402044
 21
-57.490585948
 31
0.0
  0
LINE
  5
330
  8
0
  6
CONTINUOUS
 62
     7
 10
63.75824013620004
 20
-59.67031496120001
 30
0.0
 11
64.05824021190003
 21
-59.6703147866
 31
0.0
  0
LINE
  5
331
  8
0
  6
CONTINUOUS
 62
     7
 10
63.75824005070004
 20
-59.43291772020001
 30
0.0
 11
64.05824012640002
 21
-59.43291754560001
 31
0.0
  0
LINE
  5
332
  8
0
  6
CONTINUOUS
 62
     7
 10
63.75824011220001
 20
-58.41858336520001
 30
0.0
 11
64.05823995520004
 21
-58.4185831967
 31
0.0
  0
LINE
  5
333
  8
0
  6
CONTINUOUS
 62
     7
 10
63.75824008980001
 20
-57.5984926063
 30
0.0
 11
64.0582401655
 21
-57.59849243170001
 31
0.0
  0
LINE
  5
334
  8
0
  6
CONTINUOUS
 62
     7
 10
63.75823999580004
 20
-59.2818426833
 30
0.0
 11
64.05824007150002
 21
-59.28184250870001
 31
0.0
  0
LINE
  5
335
  8
0
  6
CONTINUOUS
 62
     7
 10
63.75824001970003
 20
-56.54099715230001
 30
0.0
 11
64.05824009540001
 21
-56.5409969777
 31
0.0
  0
LINE
  5
336
  8
0
  6
CONTINUOUS
 62
     7
 10
63.7582402372
 20
-55.6345767291
 30
0.0
 11
64.05824008020002
 21
-55.63457656060001
 31
0.0
  0
LINE
  5
337
  8
0
  6
CONTINUOUS
 62
     7
 10
63.75824006870002
 20
-59.58239033410001
 30
0.0
 11
64.0582401444
 21
-59.58239015950001
 31
0.0
  0
LINE
  5
338
  8
0
  6
CONTINUOUS
 62
     7
 10
63.75823998850004
 20
-55.37559521450001
 30
0.0
 11
64.05824006410003
 21
-55.37559503990001
 31
0.0
  0
LINE
  5
339
  8
0
  6
CONTINUOUS
 62
     7
 10
63.75824012839999
 20
-56.95104625570001
 30
0.0
 11
64.05824020410003
 21
-56.9510460811
 31
0.0
  0
LINE
  5
33A
  8
0
  6
CONTINUOUS
 62
     7
 10
63.7582399417
 20
-58.48332874990001
 30
0.0
 11
64.0582400173
 21
-58.48332857530001
 31
0.0
  0
LINE
  5
33B
  8
0
  6
CONTINUOUS
 62
     7
 10
63.75824027590002
 20
-58.9797075055
 30
0.0
 11
64.0582401188
 21
-58.97970733700001
 31
0.0
  0
LINE
  5
33C
  8
0
  6
CONTINUOUS
 62
     7
 10
63.75824012040002
 20
-55.9582961804
 30
0.0
 11
64.05823996340004
 21
-55.9582960119
 31
0.0
  0
LINE
  5
33D
  8
0
  6
CONTINUOUS
 62
     7
 10
63.75824010459999
 20
-57.96537315660001
 30
0.0
 11
64.05823994760001
 21
-57.9653729881
 31
0.0
  0
LINE
  5
33E
  8
0
  6
CONTINUOUS
 62
     7
 10
63.75824002780004
 20
-55.8072285976
 30
0.0
 11
64.05824010340004
 21
-55.807228423
 31
0.0
  0
LINE
  5
33F
  8
0
  6
CONTINUOUS
 62
     7
 10
63.75824006640002
 20
-59.152359374
 30
0.0
 11
64.0582401421
 21
-59.15235919940001
 31
0.0
  0
LINE
  5
340
  8
0
  6
CONTINUOUS
 62
     7
 10
63.75824012800004
 20
-56.41150638890001
 30
0.0
 11
64.058239971
 21
-56.4115062204
 31
0.0
  0
LINE
  5
341
  8
0
  6
CONTINUOUS
 62
     7
 10
63.7582402061
 20
-58.46175191830001
 30
0.0
 11
64.05824004910002
 21
-58.4617517498
 31
0.0
  0
LINE
  5
342
  8
0
  6
CONTINUOUS
 62
     7
 10
63.75824011270001
 20
-57.2316046019
 30
0.0
 11
64.05824018839999
 21
-57.2316044273
 31
0.0
  0
LINE
  5
343
  8
0
  6
CONTINUOUS
 62
     7
 10
63.75824001949999
 20
-58.26751578240001
 30
0.0
 11
64.05824009520003
 21
-58.26751560780001
 31
0.0
  0
LINE
  5
344
  8
0
  6
CONTINUOUS
 62
     7
 10
63.75823995750002
 20
-56.4762517737
 30
0.0
 11
64.05824003320001
 21
-56.47625159910001
 31
0.0
  0
LINE
  5
345
  8
0
  6
CONTINUOUS
 62
     7
 10
63.7582401361
 20
-55.6777378342
 30
0.0
 11
64.05823997900004
 21
-55.67773766570001
 31
0.0
  0
LINE
  5
346
  8
0
  6
CONTINUOUS
 62
     7
 10
63.75824015910004
 20
-59.30342695680001
 30
0.0
 11
64.05824000200002
 21
-59.3034267883
 31
0.0
  0
LINE
  5
347
  8
0
  6
CONTINUOUS
 62
     7
 10
63.75824024510004
 20
-58.3538454346
 30
0.0
 11
64.05824008800002
 21
-58.35384526610001
 31
0.0
  0
LINE
  5
348
  8
0
  6
CONTINUOUS
 62
     7
 10
63.75824015920003
 20
-57.57690832670001
 30
0.0
 11
64.0582400022
 21
-57.5769081582
 31
0.0
  0
LINE
  5
349
  8
0
  6
CONTINUOUS
 62
     7
 10
63.75824003470004
 20
-59.17393619950001
 30
0.0
 11
64.05824011040002
 21
-59.1739360249
 31
0.0
  0
LINE
  5
34A
  8
0
  6
CONTINUOUS
 62
     7
 10
63.7582400894
 20
-57.0589527395
 30
0.0
 11
64.05824016509999
 21
-57.05895256490001
 31
0.0
  0
LINE
  5
34B
  8
0
  6
CONTINUOUS
 62
     7
 10
63.75824017490001
 20
-57.29634998050001
 30
0.0
 11
64.05824001779999
 21
-57.296349812
 31
0.0
  0
LINE
  5
34C
  8
0
  6
CONTINUOUS
 62
     7
 10
63.75824021370002
 20
-58.91496212690001
 30
0.0
 11
64.0582400566
 21
-58.9149619584
 31
0.0
  0
LINE
  5
34D
  8
0
  6
CONTINUOUS
 62
     7
 10
63.75824001920003
 20
-57.7279759156
 30
0.0
 11
64.05824009490001
 21
-57.72797574100001
 31
0.0
  0
LINE
  5
34E
  8
0
  6
CONTINUOUS
 62
     7
 10
63.758240051
 20
-55.97988046
 30
0.0
 11
64.05824012670004
 21
-55.9798802854
 31
0.0
  0
LINE
  5
34F
  8
0
  6
CONTINUOUS
 62
     7
 10
63.75824006619999
 20
-56.8863008771
 30
0.0
 11
64.05824014190003
 21
-56.88630070250001
 31
0.0
  0
LINE
  5
350
  8
0
  6
CONTINUOUS
 62
     7
 10
63.75824025520004
 20
-55.78404934300001
 30
0.0
 11
64.05824009810001
 21
-55.7840491745
 31
0.0
  0
LINE
  5
351
  8
0
  6
CONTINUOUS
 62
     7
 10
63.7582399284
 20
-57.4673994261
 30
0.0
 11
64.05824019910003
 21
-57.4674066995
 31
0.0
  0
POLYLINE
  5
352
  8
0
  6
CONTINUOUS
 62
     7
 66
     1
 10
0.0
 20
0.0
 30
0.0
  0
VERTEX
  5
353
  8
0
  6
CONTINUOUS
 62
     7
 10
86.32736636540002
 20
-21.9399382311
 30
0.0
  0
VERTEX
  5
354
  8
0
  6
CONTINUOUS
 62
     7
 10
86.22697444510001
 20
-21.95281514610001
 30
0.0
  0
VERTEX
  5
355
  8
0
  6
CONTINUOUS
 62
     7
 10
86.1555377489
 20
-21.9752191677
 30
0.0
  0
SEQEND
  5
356
  8
0
  6
CONTINUOUS
 62
     7
  0
LINE
  5
357
  8
0
  6
CONTINUOUS
 62
     7
 10
86.32736636540002
 20
-21.9399382311
 30
0.0
 11
84.51958022930003
 21
47.0966290424
 31
0.0
  0
LINE
  5
358
  8
0
  6
CONTINUOUS
 62
     7
 10
86.33459976650002
 20
-22.21617067390001
 30
0.0
 11
86.4819512535
 21
-27.8432969392
 31
0.0
  0
LINE
  5
359
  8
0
  6
CONTINUOUS
 62
     7
 10
86.33459976650002
 20
-22.21617067390001
 30
0.0
 11
86.1555377489
 21
-21.9752191677
 31
0.0
  0
ARC
  5
35A
  8
0
  6
CONTINUOUS
 62
     7
 10
86.34045187860002
 20
-22.43976931760001
 30
0.0
 40
0.500002345690789
 50
37.0374269756982
 51
91.49965354490092
  0
POLYLINE
  5
35B
  8
0
  6
CONTINUOUS
 62
     7
 66
     1
 10
0.0
 20
0.0
 30
0.0
  0
VERTEX
  5
35C
  8
0
  6
CONTINUOUS
 62
     7
 10
90.99296606190003
 20
-27.775324002
 30
0.0
  0
VERTEX
  5
35D
  8
0
  6
CONTINUOUS
 62
     7
 10
90.9735591221
 20
-27.7496046099
 30
0.0
  0
VERTEX
  5
35E
  8
0
  6
CONTINUOUS
 62
     7
 10
90.81847174180004
 20
-27.5440798444
 30
0.0
  0
VERTEX
  5
35F
  8
0
  6
CONTINUOUS
 62
     7
 10
90.50916550470001
 20
-27.1341777124
 30
0.0
  0
VERTEX
  5
360
  8
0
  6
CONTINUOUS
 62
     7
 10
90.04737383080001
 20
-26.5221968334
 30
0.0
  0
VERTEX
  5
361
  8
0
  6
CONTINUOUS
 62
     7
 10
89.4356832801
 20
-25.7115649963
 30
0.0
  0
VERTEX
  5
362
  8
0
  6
CONTINUOUS
 62
     7
 10
88.67752208760001
 20
-24.7068282793
 30
0.0
  0
VERTEX
  5
363
  8
0
  6
CONTINUOUS
 62
     7
 10
87.77713860870003
 20
-23.51361062220001
 30
0.0
  0
VERTEX
  5
364
  8
0
  6
CONTINUOUS
 62
     7
 10
86.73957486079999
 20
-22.1385996134
 30
0.0
  0
SEQEND
  5
365
  8
0
  6
CONTINUOUS
 62
     7
  0
LINE
  5
366
  8
0
  6
CONTINUOUS
 62
     7
 10
63.75823997530003
 20
-58.3522430177
 30
0.0
 11
64.05824005100001
 21
-58.3522428431
 31
0.0
  0
LINE
  5
367
  8
0
  6
CONTINUOUS
 62
     7
 10
63.75824013630003
 20
-57.9437963311
 30
0.0
 11
64.05824021200002
 21
-57.9437961565
 31
0.0
  0
LINE
  5
368
  8
0
  6
CONTINUOUS
 62
     7
 10
63.75824008910004
 20
-56.5194128727
 30
0.0
 11
64.05824012709999
 21
-56.5194201522
 31
0.0
  0
POLYLINE
  5
369
  8
0
  6
CONTINUOUS
 62
     7
 66
     1
 10
0.0
 20
0.0
 30
0.0
  0
VERTEX
  5
36A
  8
0
  6
CONTINUOUS
 62
     7
 10
85.8856617328
 20
-24.1727325663
 30
0.0
  0
VERTEX
  5
36B
  8
0
  6
CONTINUOUS
 62
     7
 10
85.93983086980003
 20
-24.38633330410001
 30
0.0
  0
VERTEX
  5
36C
  8
0
  6
CONTINUOUS
 62
     7
 10
85.9863714135
 20
-24.46081235870001
 30
0.0
  0
SEQEND
  5
36D
  8
0
  6
CONTINUOUS
 62
     7
  0
LINE
  5
36E
  8
0
  6
CONTINUOUS
 62
     7
 10
85.8856617328
 20
-24.1727325663
 30
0.0
 11
85.84062519060004
 21
-22.4528564072
 31
0.0
  0
POLYLINE
  5
36F
  8
0
  6
CONTINUOUS
 62
     7
 66
     1
 10
0.0
 20
0.0
 30
0.0
  0
VERTEX
  5
370
  8
0
  6
CONTINUOUS
 62
     7
 10
90.4814795238
 20
-27.77296554840001
 30
0.0
  0
VERTEX
  5
371
  8
0
  6
CONTINUOUS
 62
     7
 10
90.39523809100004
 20
-27.65544080710001
 30
0.0
  0
VERTEX
  5
372
  8
0
  6
CONTINUOUS
 62
     7
 10
90.13165298090004
 20
-27.3006796696
 30
0.0
  0
VERTEX
  5
373
  8
0
  6
CONTINUOUS
 62
     7
 10
89.25347583909999
 20
-26.12467115140001
 30
0.0
  0
VERTEX
  5
374
  8
0
  6
CONTINUOUS
 62
     7
 10
88.0005987753
 20
-24.44384300500001
 30
0.0
  0
VERTEX
  5
375
  8
0
  6
CONTINUOUS
 62
     7
 10
86.33459976650002
 20
-22.21617067390001
 30
0.0
  0
SEQEND
  5
376
  8
0
  6
CONTINUOUS
 62
     7
  0
LINE
  5
377
  8
0
  6
CONTINUOUS
 62
     7
 10
90.4814795238
 20
-27.77296554840001
 30
0.0
 11
87.6260355583
 21
-26.22258570710001
 31
0.0
  0
POLYLINE
  5
378
  8
0
  6
CONTINUOUS
 62
     7
 66
     1
 10
0.0
 20
0.0
 30
0.0
  0
VERTEX
  5
379
  8
0
  6
CONTINUOUS
 62
     7
 10
87.5350037373
 20
-26.10392682680001
 30
0.0
  0
VERTEX
  5
37A
  8
0
  6
CONTINUOUS
 62
     7
 10
87.60265660760004
 20
-26.19211833520001
 30
0.0
  0
VERTEX
  5
37B
  8
0
  6
CONTINUOUS
 62
     7
 10
87.62602772020003
 20
-26.22257100610001
 30
0.0
  0
VERTEX
  5
37C
  8
0
  6
CONTINUOUS
 62
     7
 10
87.6260355583
 20
-26.22258570710001
 30
0.0
  0
SEQEND
  5
37D
  8
0
  6
CONTINUOUS
 62
     7
  0
LINE
  5
37E
  8
0
  6
CONTINUOUS
 62
     7
 10
87.01180543160004
 20
-25.81975155260001
 30
0.0
 11
87.5350037373
 21
-26.10392682680001
 31
0.0
  0
POLYLINE
  5
37F
  8
0
  6
CONTINUOUS
 62
     7
 66
     1
 10
0.0
 20
0.0
 30
0.0
  0
VERTEX
  5
380
  8
0
  6
CONTINUOUS
 62
     7
 10
87.01180543160004
 20
-25.81975155260001
 30
0.0
  0
VERTEX
  5
381
  8
0
  6
CONTINUOUS
 62
     7
 10
86.82484726000004
 20
-25.57198596170001
 30
0.0
  0
VERTEX
  5
382
  8
0
  6
CONTINUOUS
 62
     7
 10
85.9863714135
 20
-24.46081235870001
 30
0.0
  0
SEQEND
  5
383
  8
0
  6
CONTINUOUS
 62
     7
  0
POLYLINE
  5
384
  8
0
  6
CONTINUOUS
 62
     7
 66
     1
 10
0.0
 20
0.0
 30
0.0
  0
VERTEX
  5
385
  8
0
  6
CONTINUOUS
 62
     7
 10
86.1555377489
 20
-21.9752191677
 30
0.0
  0
VERTEX
  5
386
  8
0
  6
CONTINUOUS
 62
     7
 10
85.99236487330003
 20
-22.0808322709
 30
0.0
  0
VERTEX
  5
387
  8
0
  6
CONTINUOUS
 62
     7
 10
85.84062519060004
 20
-22.4528564072
 30
0.0
  0
SEQEND
  5
388
  8
0
  6
CONTINUOUS
 62
     7
  0
POLYLINE
  5
389
  8
0
  6
CONTINUOUS
 62
     7
 66
     1
 10
0.0
 20
0.0
 30
0.0
  0
VERTEX
  5
38A
  8
0
  6
CONTINUOUS
 62
     7
 10
64.05824010450002
 20
60.14089215050001
 30
0.0
  0
VERTEX
  5
38B
  8
0
  6
CONTINUOUS
 62
     7
 10
64.05824007370003
 20
60.1289969469
 30
0.0
  0
VERTEX
  5
38C
  8
0
  6
CONTINUOUS
 62
     7
 10
64.0582400703
 20
60.3552629335
 30
0.0
  0
VERTEX
  5
38D
  8
0
  6
CONTINUOUS
 62
     7
 10
64.05824008760001
 20
60.8189298906
 30
0.0
  0
VERTEX
  5
38E
  8
0
  6
CONTINUOUS
 62
     7
 10
64.05824006949999
 20
61.53538853949999
 30
0.0
  0
VERTEX
  5
38F
  8
0
  6
CONTINUOUS
 62
     7
 10
64.05824009279999
 20
62.44228223170001
 30
0.0
  0
VERTEX
  5
390
  8
0
  6
CONTINUOUS
 62
     7
 10
64.05824013520001
 20
63.56741488509999
 30
0.0
  0
VERTEX
  5
391
  8
0
  6
CONTINUOUS
 62
     7
 10
64.05824010340004
 20
64.81597144559998
 30
0.0
  0
VERTEX
  5
392
  8
0
  6
CONTINUOUS
 62
     7
 10
64.05824013150001
 20
66.22368597049999
 30
0.0
  0
VERTEX
  5
393
  8
0
  6
CONTINUOUS
 62
     7
 10
64.05824010500001
 20
67.67416285369998
 30
0.0
  0
VERTEX
  5
394
  8
0
  6
CONTINUOUS
 62
     7
 10
64.05824010300003
 20
69.2073508988
 30
0.0
  0
VERTEX
  5
395
  8
0
  6
CONTINUOUS
 62
     7
 10
64.0582401096
 20
70.69702009119999
 30
0.0
  0
VERTEX
  5
396
  8
0
  6
CONTINUOUS
 62
     7
 10
64.0582400127
 20
72.1839092617
 30
0.0
  0
VERTEX
  5
397
  8
0
  6
CONTINUOUS
 62
     7
 10
64.05824004050001
 20
73.54345790419998
 30
0.0
  0
VERTEX
  5
398
  8
0
  6
CONTINUOUS
 62
     7
 10
64.05824018199999
 20
74.81449312320001
 30
0.0
  0
VERTEX
  5
399
  8
0
  6
CONTINUOUS
 62
     7
 10
64.05824005299999
 20
75.8884078312
 30
0.0
  0
VERTEX
  5
39A
  8
0
  6
CONTINUOUS
 62
     7
 10
64.05824001330004
 20
76.7978244077
 30
0.0
  0
VERTEX
  5
39B
  8
0
  6
CONTINUOUS
 62
     7
 10
64.05824001660002
 20
77.46663889429999
 30
0.0
  0
VERTEX
  5
39C
  8
0
  6
CONTINUOUS
 62
     7
 10
64.0582400387
 20
77.91358847059999
 30
0.0
  0
VERTEX
  5
39D
  8
0
  6
CONTINUOUS
 62
     7
 10
64.05824003699999
 20
78.1116555225
 30
0.0
  0
SEQEND
  5
39E
  8
0
  6
CONTINUOUS
 62
     7
  0
LINE
  5
39F
  8
0
  6
CONTINUOUS
 62
     7
 10
63.75824007270003
 20
64.4248643075
 30
0.0
 11
64.05824006110001
 21
64.4248644798
 31
0.0
  0
LINE
  5
3A0
  8
0
  6
CONTINUOUS
 62
     7
 10
63.7582400634
 20
65.7382519599
 30
0.0
 11
64.05824005180003
 21
65.73825213219999
 31
0.0
  0
LINE
  5
3A1
  8
0
  6
CONTINUOUS
 62
     7
 10
63.75824007830002
 20
70.5848353358
 30
0.0
 11
64.0582400667
 21
70.58483550809999
 31
0.0
  0
LINE
  5
3A2
  8
0
  6
CONTINUOUS
 62
     7
 10
63.75824003990002
 20
71.8982229874
 30
0.0
 11
64.05824005740001
 21
71.89822316049998
 31
0.0
  0
ARC
  5
3A3
  8
0
  6
CONTINUOUS
 62
     7
 10
163.2459338455
 20
29.945802775
 30
0.0
 40
92.62013625886382
 50
217.3217161505
 51
217.4310451051
  0
ARC
  5
3A4
  8
0
  6
CONTINUOUS
 62
     7
 10
89.66711110270003
 20
-26.8483562567
 30
0.0
 40
0.5000000000000081
 50
37.03767779200251
 51
86.49999999999712
  0
ARC
  5
3A5
  8
0
  6
CONTINUOUS
 62
     7
 10
89.60007420680003
 20
-26.6318363829
 30
0.0
 40
0.4231018659778278
 50
37.41769142890379
 51
91.31695137409771
  0
LINE
  5
3A6
  8
0
  6
CONTINUOUS
 62
     7
 10
87.88029289330004
 20
-24.3915010118
 30
0.0
 11
89.2429582563
 21
-26.19734631350001
 31
0.0
  0
POLYLINE
  5
3A7
  8
0
  6
CONTINUOUS
 62
     7
 66
     1
 10
0.0
 20
0.0
 30
0.0
  0
VERTEX
  5
3A8
  8
0
  6
CONTINUOUS
 62
     7
 10
89.2429582563
 20
-26.19734631350001
 30
0.0
  0
VERTEX
  5
3A9
  8
0
  6
CONTINUOUS
 62
     7
 10
89.4886421496
 20
-26.20733210990001
 30
0.0
  0
VERTEX
  5
3AA
  8
0
  6
CONTINUOUS
 62
     7
 10
89.5903500085
 20
-26.20884627780001
 30
0.0
  0
SEQEND
  5
3AB
  8
0
  6
CONTINUOUS
 62
     7
  0
ARC
  5
3AC
  8
0
  6
CONTINUOUS
 62
     7
 10
87.53810935890002
 20
-24.0269342949
 30
0.0
 40
0.4999984622037654
 50
313.186016404201
 51
37.03778790389752
  0
POLYLINE
  5
3AD
  8
0
  6
CONTINUOUS
 62
     7
 66
     1
 10
0.0
 20
0.0
 30
0.0
  0
VERTEX
  5
3AE
  8
0
  6
CONTINUOUS
 62
     7
 10
89.2429582563
 20
-26.19734631350001
 30
0.0
  0
VERTEX
  5
3AF
  8
0
  6
CONTINUOUS
 62
     7
 10
89.1328149425
 20
-26.19133520160001
 30
0.0
  0
VERTEX
  5
3B0
  8
0
  6
CONTINUOUS
 62
     7
 10
88.43939507990004
 20
-26.1534529206
 30
0.0
  0
VERTEX
  5
3B1
  8
0
  6
CONTINUOUS
 62
     7
 10
87.5350037373
 20
-26.10392682680001
 30
0.0
  0
SEQEND
  5
3B2
  8
0
  6
CONTINUOUS
 62
     7
  0
LINE
  5
3B3
  8
0
  6
CONTINUOUS
 62
     7
 10
89.69763554110003
 20
-26.3492898809
 30
0.0
 11
87.6260355583
 21
-26.22258570710001
 31
0.0
  0
ARC
  5
3B4
  8
0
  6
CONTINUOUS
 62
     7
 10
87.53810125180004
 20
-24.02693015700001
 30
0.0
 40
0.5000070276062972
 50
276.5006890921976
 51
313.1863692671026
  0
LINE
  5
3B5
  8
0
  6
CONTINUOUS
 62
     7
 10
87.59470962910004
 20
-24.52372238650001
 30
0.0
 11
86.15741065030002
 21
-24.6874813285
 31
0.0
  0
LINE
  5
3B6
  8
0
  6
CONTINUOUS
 62
     7
 10
63.75824019580003
 20
75.116941153
 30
0.0
 11
64.05824018429999
 21
75.11694132529999
 31
0.0
  0
LINE
  5
3B7
  8
0
  6
CONTINUOUS
 62
     7
 10
63.75823999799999
 20
75.5609094697
 30
0.0
 11
64.05824001549999
 21
75.56090964269998
 31
0.0
  0
POLYLINE
  5
3B8
  8
0
  6
CONTINUOUS
 62
     7
 66
     1
 10
0.0
 20
0.0
 30
0.0
  0
VERTEX
  5
3B9
  8
0
  6
CONTINUOUS
 62
     7
 10
89.69763554110003
 20
-26.3492898809
 30
0.0
  0
VERTEX
  5
3BA
  8
0
  6
CONTINUOUS
 62
     7
 10
89.67533197310004
 20
-26.3201135539
 30
0.0
  0
VERTEX
  5
3BB
  8
0
  6
CONTINUOUS
 62
     7
 10
89.60902279120003
 20
-26.2333551272
 30
0.0
  0
VERTEX
  5
3BC
  8
0
  6
CONTINUOUS
 62
     7
 10
89.59622331850002
 20
-26.21661143530001
 30
0.0
  0
VERTEX
  5
3BD
  8
0
  6
CONTINUOUS
 62
     7
 10
89.5903500085
 20
-26.20884627780001
 30
0.0
  0
SEQEND
  5
3BE
  8
0
  6
CONTINUOUS
 62
     7
  0
LINE
  5
3BF
  8
0
  6
CONTINUOUS
 62
     7
 10
64.05823995790004
 20
-60.93976249090001
 30
0.0
 11
63.75824018570003
 21
-61.2559022679
 31
0.0
  0
LINE
  5
3C0
  8
0
  6
CONTINUOUS
 62
     7
 10
64.0582399642
 20
-44.93976442100001
 30
0.0
 11
63.75824008480001
 21
-44.65507720810001
 31
0.0
  0
LINE
  5
3C1
  8
0
  6
CONTINUOUS
 62
     7
 10
64.0582399642
 20
-44.93976442100001
 30
0.0
 11
64.058240154
 21
-54.43976455090001
 31
0.0
  0
LINE
  5
3C2
  8
0
  6
CONTINUOUS
 62
     7
 10
64.05824022760001
 20
-60.4397689492
 30
0.0
 11
64.05823995790004
 21
-60.93976249090001
 31
0.0
  0
LINE
  5
3C3
  8
0
  6
CONTINUOUS
 62
     7
 10
63.75824003049999
 20
-51.88221413560001
 30
0.0
 11
64.05824010620003
 21
-51.88221396110001
 31
0.0
  0
LINE
  5
3C4
  8
0
  6
CONTINUOUS
 62
     7
 10
63.75824004890003
 20
-51.35706627120001
 30
0.0
 11
64.05824012450003
 21
-51.35706609670001
 31
0.0
  0
LINE
  5
3C5
  8
0
  6
CONTINUOUS
 62
     7
 10
63.7582401393
 20
-47.9163602199
 30
0.0
 11
64.05823998220004
 21
-47.91636005140001
 31
0.0
  0
LINE
  5
3C6
  8
0
  6
CONTINUOUS
 62
     7
 10
63.75824021910003
 20
-46.83420606610001
 30
0.0
 11
64.05824006200001
 21
-46.8342058976
 31
0.0
  0
LINE
  5
3C7
  8
0
  6
CONTINUOUS
 62
     7
 10
63.75824005630002
 20
-49.58121906960001
 30
0.0
 11
64.05824013200001
 21
-49.58121889500001
 31
0.0
  0
LINE
  5
3C8
  8
0
  6
CONTINUOUS
 62
     7
 10
63.75824010310001
 20
-46.47348553420001
 30
0.0
 11
64.05824017879999
 21
-46.47348535960001
 31
0.0
  0
LINE
  5
3C9
  8
0
  6
CONTINUOUS
 62
     7
 10
63.75823997969999
 20
-47.88861220400001
 30
0.0
 11
64.05824015290003
 21
-47.8886157534
 31
0.0
  0
LINE
  5
3CA
  8
0
  6
CONTINUOUS
 62
     7
 10
63.75824007790001
 20
-47.16717485810001
 30
0.0
 11
64.0582401536
 21
-47.16717468350001
 31
0.0
  0
LINE
  5
3CB
  8
0
  6
CONTINUOUS
 62
     7
 10
63.75824018400002
 20
-49.16500621770001
 30
0.0
 11
64.0582402597
 21
-49.16500604310001
 31
0.0
  0
LINE
  5
3CC
  8
0
  6
CONTINUOUS
 62
     7
 10
63.75824016449999
 20
-47.22267089600001
 30
0.0
 11
64.05824000740003
 21
-47.2226707275
 31
0.0
  0
LINE
  5
3CD
  8
0
  6
CONTINUOUS
 62
     7
 10
63.75824014849999
 20
-47.00069046210001
 30
0.0
 11
64.05823999140003
 21
-47.0006902936
 31
0.0
  0
LINE
  5
3CE
  8
0
  6
CONTINUOUS
 62
     7
 10
63.75824009570002
 20
-48.2493327359
 30
0.0
 11
64.05824017130001
 21
-48.24933256130001
 31
0.0
  0
LINE
  5
3CF
  8
0
  6
CONTINUOUS
 62
     7
 10
63.75824005940004
 20
-46.80645805020001
 30
0.0
 11
64.05824013510002
 21
-46.8064578756
 31
0.0
  0
LINE
  5
3D0
  8
0
  6
CONTINUOUS
 62
     7
 10
63.75824006230002
 20
-51.44031033120001
 30
0.0
 11
64.058240138
 21
-51.44031015670001
 31
0.0
  0
LINE
  5
3D1
  8
0
  6
CONTINUOUS
 62
     7
 10
63.75824011770001
 20
-50.3304044314
 30
0.0
 11
64.0582401934
 21
-50.33040425680001
 31
0.0
  0
LINE
  5
3D2
  8
0
  6
CONTINUOUS
 62
     7
 10
63.75824020000002
 20
-49.38698665160001
 30
0.0
 11
64.0582400429
 21
-49.3869864831
 31
0.0
  0
LINE
  5
3D3
  8
0
  6
CONTINUOUS
 62
     7
 10
63.75824005140001
 20
-51.4958026452
 30
0.0
 11
64.05824012709999
 21
-51.49580247060001
 31
0.0
  0
LINE
  5
3D4
  8
0
  6
CONTINUOUS
 62
     7
 10
63.75824005450002
 20
-48.7210416258
 30
0.0
 11
64.0582401302
 21
-48.72104145120001
 31
0.0
  0
LINE
  5
3D5
  8
0
  6
CONTINUOUS
 62
     7
 10
63.75824022340001
 20
-47.83311988390001
 30
0.0
 11
64.05824006629999
 21
-47.8331197154
 31
0.0
  0
LINE
  5
3D6
  8
0
  6
CONTINUOUS
 62
     7
 10
63.75824017049999
 20
-49.0817621577
 30
0.0
 11
64.05824001350001
 21
-49.0817619892
 31
0.0
  0
LINE
  5
3D7
  8
0
  6
CONTINUOUS
 62
     7
 10
63.75824003110003
 20
-50.2749083935
 30
0.0
 11
64.05824010680001
 21
-50.27490821890001
 31
0.0
  0
LINE
  5
3D8
  8
0
  6
CONTINUOUS
 62
     7
 10
63.75824006619999
 20
-47.94410824190001
 30
0.0
 11
64.05824014190003
 21
-47.94410806730001
 31
0.0
  0
LINE
  5
3D9
  8
0
  6
CONTINUOUS
 62
     7
 10
63.75824010599999
 20
-51.1073378153
 30
0.0
 11
64.05824018170003
 21
-51.10733764070001
 31
0.0
  0
LINE
  5
3DA
  8
0
  6
CONTINUOUS
 62
     7
 10
63.75824011340003
 20
-49.33149061360001
 30
0.0
 11
64.05824018910002
 21
-49.33149043910001
 31
0.0
  0
LINE
  5
3DB
  8
0
  6
CONTINUOUS
 62
     7
 10
63.75824020249999
 20
-49.5257230255
 30
0.0
 11
64.05824004540003
 21
-49.52572285710001
 31
0.0
  0
LINE
  5
3DC
  8
0
  6
CONTINUOUS
 62
     7
 10
63.75824021170004
 20
-48.6100532678
 30
0.0
 11
64.05824005460002
 21
-48.6100530993
 31
0.0
  0
LINE
  5
3DD
  8
0
  6
CONTINUOUS
 62
     7
 10
63.75824015100002
 20
-47.139426836
 30
0.0
 11
64.0582399939
 21
-47.13942666760001
 31
0.0
  0
LINE
  5
3DE
  8
0
  6
CONTINUOUS
 62
     7
 10
63.7582399888
 20
-46.97294244620001
 30
0.0
 11
64.05824006450004
 21
-46.9729422716
 31
0.0
  0
LINE
  5
3DF
  8
0
  6
CONTINUOUS
 62
     7
 10
63.75824019250004
 20
-51.1628338532
 30
0.0
 11
64.0582400355
 21
-51.1628336847
 31
0.0
  0
LINE
  5
3E0
  8
0
  6
CONTINUOUS
 62
     7
 10
63.75824007430001
 20
-60.57808439770001
 30
0.0
 11
64.05824014999999
 21
-60.57808422310001
 31
0.0
  0
LINE
  5
3E1
  8
0
  6
CONTINUOUS
 62
     7
 10
63.758240137
 20
-57.3865030976
 30
0.0
 11
64.05823997990004
 21
-57.38650292920001
 31
0.0
  0
LINE
  5
3E2
  8
0
  6
CONTINUOUS
 62
     7
 10
63.75824016190003
 20
-54.1949292517
 30
0.0
 11
64.05824023760002
 21
-54.1949290771
 31
0.0
  0
LINE
  5
3E3
  8
0
  6
CONTINUOUS
 62
     7
 10
63.75824015450004
 20
-48.85978172370001
 30
0.0
 11
64.05824023020003
 21
-48.85978154910001
 31
0.0
  0
LINE
  5
3E4
  8
0
  6
CONTINUOUS
 62
     7
 10
63.75823999310003
 20
-47.97185626390001
 30
0.0
 11
64.05824006880002
 21
-47.97185608940001
 31
0.0
  0
LINE
  5
3E5
  8
0
  6
CONTINUOUS
 62
     7
 10
63.7582399783
 20
-51.5235506672
 30
0.0
 11
64.05824005400004
 21
-51.52355049260001
 31
0.0
  0
LINE
  5
3E6
  8
0
  6
CONTINUOUS
 62
     7
 10
63.75824001629999
 20
-60.2727965529
 30
0.0
 11
64.05824028700002
 21
-60.27280382630001
 31
0.0
  0
LINE
  5
3E7
  8
0
  6
CONTINUOUS
 62
     7
 10
63.7582400249
 20
-54.5002096485
 30
0.0
 11
64.05824010059999
 21
-54.5002094739
 31
0.0
  0
LINE
  5
3E8
  8
0
  6
CONTINUOUS
 62
     7
 10
63.75824013569999
 20
-54.47245417240001
 30
0.0
 11
64.05823997860003
 21
-54.47245400390001
 31
0.0
  0
LINE
  5
3E9
  8
0
  6
CONTINUOUS
 62
     7
 10
63.75824005480004
 20
-54.99770638230001
 30
0.0
 11
64.05824013050002
 21
-54.99770620770001
 31
0.0
  0
LINE
  5
3EA
  8
0
  6
CONTINUOUS
 62
     7
 10
63.75824011390003
 20
-59.8822075785
 30
0.0
 11
64.05824018950003
 21
-59.88220740390001
 31
0.0
  0
LINE
  5
3EB
  8
0
  6
CONTINUOUS
 62
     7
 10
63.75824010220001
 20
-47.57825249630001
 30
0.0
 11
64.0582401778
 21
-47.57825232170001
 31
0.0
  0
LINE
  5
3EC
  8
0
  6
CONTINUOUS
 62
     7
 10
63.75824009140004
 20
-47.25041891810001
 30
0.0
 11
64.05824016710002
 21
-47.25041874350001
 31
0.0
  0
LINE
  5
3ED
  8
0
  6
CONTINUOUS
 62
     7
 10
63.75823995520003
 20
-49.62438017470001
 30
0.0
 11
64.05824003080002
 21
-49.6243800001
 31
0.0
  0
LINE
  5
3EE
  8
0
  6
CONTINUOUS
 62
     7
 10
63.75823998480004
 20
-58.0248193613
 30
0.0
 11
64.05824006050003
 21
-58.0248191867
 31
0.0
  0
LINE
  5
3EF
  8
0
  6
CONTINUOUS
 62
     7
 10
63.75824000759999
 20
-56.692683348
 30
0.0
 11
64.05824008330003
 21
-56.6926831734
 31
0.0
  0
LINE
  5
3F0
  8
0
  6
CONTINUOUS
 62
     7
 10
63.75823994890001
 20
-59.49571783500001
 30
0.0
 11
64.0582400246
 21
-59.4957176604
 31
0.0
  0
LINE
  5
3F1
  8
0
  6
CONTINUOUS
 62
     7
 10
63.75824014460002
 20
-56.3874029512
 30
0.0
 11
64.05824022030001
 21
-56.3874027766
 31
0.0
  0
LINE
  5
3F2
  8
0
  6
CONTINUOUS
 62
     7
 10
63.75824008820004
 20
-50.0251799375
 30
0.0
 11
64.05824016390002
 21
-50.02517976290001
 31
0.0
  0
LINE
  5
3F3
  8
0
  6
CONTINUOUS
 62
     7
 10
63.75824012760003
 20
-48.6932936037
 30
0.0
 11
64.05823997050001
 21
-48.6932934352
 31
0.0
  0
LINE
  5
3F4
  8
0
  6
CONTINUOUS
 62
     7
 10
63.75824022520001
 20
-57.0257192088
 30
0.0
 11
64.05824006809999
 21
-57.0257190403
 31
0.0
  0
LINE
  5
3F5
  8
0
  6
CONTINUOUS
 62
     7
 10
63.75824003710002
 20
-59.13493394610001
 30
0.0
 11
64.05824011280001
 21
-59.1349337715
 31
0.0
  0
LINE
  5
3F6
  8
0
  6
CONTINUOUS
 62
     7
 10
63.75824008470002
 20
-46.99863339860001
 30
0.0
 11
64.0582401604
 21
-46.998633224
 31
0.0
  0
LINE
  5
3F7
  8
0
  6
CONTINUOUS
 62
     7
 10
63.7582399531
 20
-57.44200659580001
 30
0.0
 11
64.05824022380003
 21
-57.4420138693
 31
0.0
  0
LINE
  5
3F8
  8
0
  6
CONTINUOUS
 62
     7
 10
63.7582401164
 20
-56.85920127840001
 30
0.0
 11
64.05824019210004
 21
-56.8592011038
 31
0.0
  0
LINE
  5
3F9
  8
0
  6
CONTINUOUS
 62
     7
 10
63.75824019570004
 20
-48.38807283380001
 30
0.0
 11
64.05824003860002
 21
-48.3880726653
 31
0.0
  0
LINE
  5
3FA
  8
0
  6
CONTINUOUS
 62
     7
 10
63.75824008590004
 20
-59.19043743820001
 30
0.0
 11
64.05824016160003
 21
-59.1904372636
 31
0.0
  0
LINE
  5
3FB
  8
0
  6
CONTINUOUS
 62
     7
 10
63.75823996200003
 20
-59.35695537460001
 30
0.0
 11
64.05824003770002
 21
-59.3569552001
 31
0.0
  0
LINE
  5
3FC
  8
0
  6
CONTINUOUS
 62
     7
 10
63.75824008399999
 20
-49.02626611970001
 30
0.0
 11
64.05824015959999
 21
-49.02626594510001
 31
0.0
  0
LINE
  5
3FD
  8
0
  6
CONTINUOUS
 62
     7
 10
63.75824003290003
 20
-51.13508583730001
 30
0.0
 11
64.05824010860002
 21
-51.13508566270001
 31
0.0
  0
LINE
  5
3FE
  8
0
  6
CONTINUOUS
 62
     7
 10
63.7582402024
 20
-58.3578552221
 30
0.0
 11
64.05824004540003
 21
-58.35785505360001
 31
0.0
  0
LINE
  5
3FF
  8
0
  6
CONTINUOUS
 62
     7
 10
63.7582400675
 20
-56.80369778630001
 30
0.0
 11
64.05824014320004
 21
-56.8036976117
 31
0.0
  0
LINE
  5
400
  8
0
  6
CONTINUOUS
 62
     7
 10
63.7582399563
 20
-49.44247897160001
 30
0.0
 11
64.0582400319
 21
-49.44247879710001
 31
0.0
  0
LINE
  5
401
  8
0
  6
CONTINUOUS
 62
     7
 10
63.7582401928
 20
-59.5512287751
 30
0.0
 11
64.05824026850004
 21
-59.55122860050001
 31
0.0
  0
LINE
  5
402
  8
0
  6
CONTINUOUS
 62
     7
 10
63.75824011940003
 20
-51.1905818753
 30
0.0
 11
64.05824019510001
 21
-51.19058170070001
 31
0.0
  0
LINE
  5
403
  8
0
  6
CONTINUOUS
 62
     7
 10
63.7582400446
 20
-50.35815245350001
 30
0.0
 11
64.05824012030004
 21
-50.35815227890001
 31
0.0
  0
LINE
  5
404
  8
0
  6
CONTINUOUS
 62
     7
 10
63.75824006799999
 20
-48.80428568580001
 30
0.0
 11
64.05824014370003
 21
-48.80428551120001
 31
0.0
  0
LINE
  5
405
  8
0
  6
CONTINUOUS
 62
     7
 10
63.7582401379
 20
-51.5512986832
 30
0.0
 11
64.05823998090003
 21
-51.55129851470001
 31
0.0
  0
LINE
  5
406
  8
0
  6
CONTINUOUS
 62
     7
 10
63.75824016740003
 20
-55.0552669379
 30
0.0
 11
64.05824024310002
 21
-55.05526676330001
 31
0.0
  0
LINE
  5
407
  8
0
  6
CONTINUOUS
 62
     7
 10
63.75824023510003
 20
-47.05618650010001
 30
0.0
 11
64.05824007800001
 21
-47.0561863316
 31
0.0
  0
LINE
  5
408
  8
0
  6
CONTINUOUS
 62
     7
 10
63.7582401013
 20
-57.19223714520001
 30
0.0
 11
64.0582401769
 21
-57.19223697070001
 31
0.0
  0
LINE
  5
409
  8
0
  6
CONTINUOUS
 62
     7
 10
63.75824003779999
 20
-56.02661161430001
 30
0.0
 11
64.05824030850002
 21
-56.02661888770001
 31
0.0
  0
LINE
  5
40A
  8
0
  6
CONTINUOUS
 62
     7
 10
63.75823993669999
 20
-54.86099353740001
 30
0.0
 11
64.05824001229999
 21
-54.8609933628
 31
0.0
  0
LINE
  5
40B
  8
0
  6
CONTINUOUS
 62
     7
 10
63.75824007119999
 20
-57.5787194407
 30
0.0
 11
64.05824014690003
 21
-57.57871926610001
 31
0.0
  0
LINE
  5
40C
  8
0
  6
CONTINUOUS
 62
     7
 10
63.75824009230004
 20
-55.2772883664
 30
0.0
 11
64.05824016800003
 21
-55.27728819180001
 31
0.0
  0
LINE
  5
40D
  8
0
  6
CONTINUOUS
 62
     7
 10
63.75824017840003
 20
-56.77594231010001
 30
0.0
 11
64.05824002130001
 21
-56.7759421416
 31
0.0
  0
LINE
  5
40E
  8
0
  6
CONTINUOUS
 62
     7
 10
63.7582399193
 20
-57.0534672369
 30
0.0
 11
64.05823999500004
 21
-57.0534670623
 31
0.0
  0
LINE
  5
40F
  8
0
  6
CONTINUOUS
 62
     7
 10
63.75824006950003
 20
-56.6094243797
 30
0.0
 11
64.05824014520002
 21
-56.6094242052
 31
0.0
  0
LINE
  5
410
  8
0
  6
CONTINUOUS
 62
     7
 10
63.75824024380003
 20
-57.74729443460001
 30
0.0
 11
64.05824008670001
 21
-57.7472942661
 31
0.0
  0
LINE
  5
411
  8
0
  6
CONTINUOUS
 62
     7
 10
63.75824009010003
 20
-57.13672619900001
 30
0.0
 11
64.0582399331
 21
-57.1367260305
 31
0.0
  0
LINE
  5
412
  8
0
  6
CONTINUOUS
 62
     7
 10
63.75824007970002
 20
-48.02735230190001
 30
0.0
 11
64.0582401554
 21
-48.02735212730001
 31
0.0
  0
LINE
  5
413
  8
0
  6
CONTINUOUS
 62
     7
 10
63.75824014600002
 20
-46.86195408810001
 30
0.0
 11
64.0582402217
 21
-46.8619539136
 31
0.0
  0
LINE
  5
414
  8
0
  6
CONTINUOUS
 62
     7
 10
63.75824001340001
 20
-49.1927505157
 30
0.0
 11
64.0582400891
 21
-49.19275034110001
 31
0.0
  0
LINE
  5
415
  8
0
  6
CONTINUOUS
 62
     7
 10
63.75824005640001
 20
-56.7481868401
 30
0.0
 11
64.0582401321
 21
-56.7481866655
 31
0.0
  0
LINE
  5
416
  8
0
  6
CONTINUOUS
 62
     7
 10
63.75823999249999
 20
-49.57916200610001
 30
0.0
 11
64.05824006820004
 21
-49.5791618315
 31
0.0
  0
LINE
  5
417
  8
0
  6
CONTINUOUS
 62
     7
 10
63.7582401411
 20
-48.77653766370001
 30
0.0
 11
64.05823998400004
 21
-48.7765374952
 31
0.0
  0
LINE
  5
418
  8
0
  6
CONTINUOUS
 62
     7
 10
63.75824001830003
 20
-47.27816694010001
 30
0.0
 11
64.05824009400001
 21
-47.2781667655
 31
0.0
  0
LINE
  5
419
  8
0
  6
CONTINUOUS
 62
     7
 10
63.7582401855
 20
-58.6055750572
 30
0.0
 11
64.05824002840004
 21
-58.6055748887
 31
0.0
  0
LINE
  5
41A
  8
0
  6
CONTINUOUS
 62
     7
 10
63.7582400336
 20
-58.08032285340001
 30
0.0
 11
64.05824010929999
 21
-58.0803226788
 31
0.0
  0
LINE
  5
41B
  8
0
  6
CONTINUOUS
 62
     7
 10
63.75824001090004
 20
-49.05401414170001
 30
0.0
 11
64.05824008660002
 21
-49.0540139671
 31
0.0
  0
LINE
  5
41C
  8
0
  6
CONTINUOUS
 62
     7
 10
63.75824000410003
 20
-55.6380722553
 30
0.0
 11
64.05824007980002
 21
-55.6380720807
 31
0.0
  0
LINE
  5
41D
  8
0
  6
CONTINUOUS
 62
     7
 10
63.7582400496
 20
-49.32943355020001
 30
0.0
 11
64.05824012529999
 21
-49.3294333756
 31
0.0
  0
LINE
  5
41E
  8
0
  6
CONTINUOUS
 62
     7
 10
63.75824017290003
 20
-55.91560462400001
 30
0.0
 11
64.05824001580001
 21
-55.9156044555
 31
0.0
  0
LINE
  5
41F
  8
0
  6
CONTINUOUS
 62
     7
 10
63.75824024250002
 20
-54.8332455093
 30
0.0
 11
64.0582400854
 21
-54.8332453408
 31
0.0
  0
LINE
  5
420
  8
0
  6
CONTINUOUS
 62
     7
 10
63.75824013500002
 20
-57.5807765042
 30
0.0
 11
64.0582402107
 21
-57.5807763296
 31
0.0
  0
LINE
  5
421
  8
0
  6
CONTINUOUS
 62
     7
 10
63.75824005090001
 20
-55.88784915390001
 30
0.0
 11
64.0582401266
 21
-55.8878489794
 31
0.0
  0
LINE
  5
422
  8
0
  6
CONTINUOUS
 62
     7
 10
63.75824003229999
 20
-55.16627392810001
 30
0.0
 11
64.05824010800004
 21
-55.16627375350001
 31
0.0
  0
LINE
  5
423
  8
0
  6
CONTINUOUS
 62
     7
 10
63.75824021209999
 20
-57.1644816691
 30
0.0
 11
64.05824005500003
 21
-57.1644815006
 31
0.0
  0
LINE
  5
424
  8
0
  6
CONTINUOUS
 62
     7
 10
63.75824004350002
 20
-55.2217848743
 30
0.0
 11
64.05824011920001
 21
-55.22178469970001
 31
0.0
  0
LINE
  5
425
  8
0
  6
CONTINUOUS
 62
     7
 10
63.75824011860001
 20
-54.9997634458
 30
0.0
 11
64.0582401943
 21
-54.99976327120001
 31
0.0
  0
LINE
  5
426
  8
0
  6
CONTINUOUS
 62
     7
 10
63.75824015780003
 20
-56.2486404909
 30
0.0
 11
64.05824023340003
 21
-56.2486403163
 31
0.0
  0
LINE
  5
427
  8
0
  6
CONTINUOUS
 62
     7
 10
63.75824012059999
 20
-54.80549003920001
 30
0.0
 11
64.05824019630003
 21
-54.80548986460001
 31
0.0
  0
LINE
  5
428
  8
0
  6
CONTINUOUS
 62
     7
 10
63.75824020420001
 20
-50.3859004694
 30
0.0
 11
64.05824004720003
 21
-50.3859003009
 31
0.0
  0
LINE
  5
429
  8
0
  6
CONTINUOUS
 62
     7
 10
63.75824013280001
 20
-59.44021433680001
 30
0.0
 11
64.05823997569999
 21
-59.4402141683
 31
0.0
  0
LINE
  5
42A
  8
0
  6
CONTINUOUS
 62
     7
 10
63.75824003850002
 20
-48.49906119180001
 30
0.0
 11
64.0582401142
 21
-48.49906101720001
 31
0.0
  0
LINE
  5
42B
  8
0
  6
CONTINUOUS
 62
     7
 10
63.75824012020004
 20
-50.4691408054
 30
0.0
 11
64.05823996310002
 21
-50.46914063690001
 31
0.0
  0
LINE
  5
42C
  8
0
  6
CONTINUOUS
 62
     7
 10
63.75824007230003
 20
-49.80319950350001
 30
0.0
 11
64.05824014790002
 21
-49.80319932900001
 31
0.0
  0
LINE
  5
42D
  8
0
  6
CONTINUOUS
 62
     7
 10
63.75824007540004
 20
-47.02843848410001
 30
0.0
 11
64.05824015110002
 21
-47.0284383095
 31
0.0
  0
LINE
  5
42E
  8
0
  6
CONTINUOUS
 62
     7
 10
63.75824012199999
 20
-51.3293182492
 30
0.0
 11
64.05824019760004
 21
-51.32931807460001
 31
0.0
  0
LINE
  5
42F
  8
0
  6
CONTINUOUS
 62
     7
 10
63.75824006370001
 20
-47.80537186800001
 30
0.0
 11
64.0582401394
 21
-47.80537169340001
 31
0.0
  0
LINE
  5
430
  8
0
  6
CONTINUOUS
 62
     7
 10
63.75824005800004
 20
-50.44139651350001
 30
0.0
 11
64.05824013370002
 21
-50.44139633890001
 31
0.0
  0
LINE
  5
431
  8
0
  6
CONTINUOUS
 62
     7
 10
63.75824011520004
 20
-50.19166805750001
 30
0.0
 11
64.05824019090002
 21
-50.19166788290001
 31
0.0
  0
LINE
  5
432
  8
0
  6
CONTINUOUS
 62
     7
 10
63.75824007280002
 20
-59.32919989850001
 30
0.0
 11
64.05824011080003
 21
-59.329207178
 31
0.0
  0
LINE
  5
433
  8
0
  6
CONTINUOUS
 62
     7
 10
63.7582402294
 20
-54.9720079696
 30
0.0
 11
64.05824007230004
 21
-54.97200780110001
 31
0.0
  0
LINE
  5
434
  8
0
  6
CONTINUOUS
 62
     7
 10
63.75824016100003
 20
-58.96841600960001
 30
0.0
 11
64.058240004
 21
-58.96841584110001
 31
0.0
  0
LINE
  5
435
  8
0
  6
CONTINUOUS
 62
     7
 10
63.75824003030002
 20
-55.3605473347
 30
0.0
 11
64.058240106
 21
-55.3605471601
 31
0.0
  0
POLYLINE
  5
436
  8
0
  6
CONTINUOUS
 62
     7
 66
     1
 10
0.0
 20
0.0
 30
0.0
  0
VERTEX
  5
437
  8
0
  6
CONTINUOUS
 62
     7
 10
65.76260487210001
 20
-53.92722639990001
 30
0.0
  0
VERTEX
  5
438
  8
0
  6
CONTINUOUS
 62
     7
 10
65.7652801554
 20
-55.80508540460001
 30
0.0
  0
VERTEX
  5
439
  8
0
  6
CONTINUOUS
 62
     7
 10
65.76778215160002
 20
-57.63663516870001
 30
0.0
  0
VERTEX
  5
43A
  8
0
  6
CONTINUOUS
 62
     7
 10
65.77004937500001
 20
-59.37680074390001
 30
0.0
  0
VERTEX
  5
43B
  8
0
  6
CONTINUOUS
 62
     7
 10
65.77202570450001
 20
-60.9827355293
 30
0.0
  0
VERTEX
  5
43C
  8
0
  6
CONTINUOUS
 62
     7
 10
65.77366296750003
 20
-62.41493171960001
 30
0.0
  0
VERTEX
  5
43D
  8
0
  6
CONTINUOUS
 62
     7
 10
65.77492050790002
 20
-63.63812214650001
 30
0.0
  0
VERTEX
  5
43E
  8
0
  6
CONTINUOUS
 62
     7
 10
65.7757674913
 20
-64.62220440690001
 30
0.0
  0
VERTEX
  5
43F
  8
0
  6
CONTINUOUS
 62
     7
 10
65.77618300820004
 20
-65.3429563609
 30
0.0
  0
VERTEX
  5
440
  8
0
  6
CONTINUOUS
 62
     7
 10
65.77615697600001
 20
-65.782639812
 30
0.0
  0
VERTEX
  5
441
  8
0
  6
CONTINUOUS
 62
     7
 10
65.77568985069999
 20
-65.93042534380001
 30
0.0
  0
SEQEND
  5
442
  8
0
  6
CONTINUOUS
 62
     7
  0
LINE
  5
443
  8
0
  6
CONTINUOUS
 62
     7
 10
65.76260487210001
 20
-53.92722639990001
 30
0.0
 11
65.50824011940003
 21
-53.93610820950001
 31
0.0
  0
LINE
  5
444
  8
0
  6
CONTINUOUS
 62
     7
 10
65.50735903170002
 20
-53.98127491790001
 30
0.0
 11
64.21464727970002
 21
-53.90221077720001
 31
0.0
  0
POLYLINE
  5
445
  8
0
  6
CONTINUOUS
 62
     7
 66
     1
 10
0.0
 20
0.0
 30
0.0
  0
VERTEX
  5
446
  8
0
  6
CONTINUOUS
 62
     7
 10
64.22771571820002
 20
-65.86144411330001
 30
0.0
  0
VERTEX
  5
447
  8
0
  6
CONTINUOUS
 62
     7
 10
64.22131776950002
 20
-65.7140395844
 30
0.0
  0
VERTEX
  5
448
  8
0
  6
CONTINUOUS
 62
     7
 10
64.2158227372
 20
-65.27624474090001
 30
0.0
  0
VERTEX
  5
449
  8
0
  6
CONTINUOUS
 62
     7
 10
64.2113653397
 20
-64.5587811158
 30
0.0
  0
VERTEX
  5
44A
  8
0
  6
CONTINUOUS
 62
     7
 10
64.20805416300001
 20
-63.57919054450001
 30
0.0
  0
VERTEX
  5
44B
  8
0
  6
CONTINUOUS
 62
     7
 10
64.20597047660002
 20
-62.3614252735
 30
0.0
  0
VERTEX
  5
44C
  8
0
  6
CONTINUOUS
 62
     7
 10
64.20516508630001
 20
-60.93527415140001
 30
0.0
  0
VERTEX
  5
44D
  8
0
  6
CONTINUOUS
 62
     7
 10
64.2056574886
 20
-59.3356098845
 30
0.0
  0
VERTEX
  5
44E
  8
0
  6
CONTINUOUS
 62
     7
 10
64.20743629570003
 20
-57.60156918070001
 30
0.0
  0
VERTEX
  5
44F
  8
0
  6
CONTINUOUS
 62
     7
 10
64.21045734470002
 20
-55.77554662610001
 30
0.0
  0
VERTEX
  5
450
  8
0
  6
CONTINUOUS
 62
     7
 10
64.21464727970002
 20
-53.90221077720001
 30
0.0
  0
SEQEND
  5
451
  8
0
  6
CONTINUOUS
 62
     7
  0
POLYLINE
  5
452
  8
0
  6
CONTINUOUS
 62
     7
 66
     1
 10
0.0
 20
0.0
 30
0.0
  0
VERTEX
  5
453
  8
0
  6
CONTINUOUS
 62
     7
 10
64.21464723060004
 20
72.00583541289998
 30
0.0
  0
VERTEX
  5
454
  8
0
  6
CONTINUOUS
 62
     7
 10
64.20644447100003
 20
73.8809410785
 30
0.0
  0
VERTEX
  5
455
  8
0
  6
CONTINUOUS
 62
     7
 10
64.19950110160002
 20
75.7076790662
 30
0.0
  0
VERTEX
  5
456
  8
0
  6
CONTINUOUS
 62
     7
 10
64.19398598720002
 20
77.4416256627
 30
0.0
  0
VERTEX
  5
457
  8
0
  6
CONTINUOUS
 62
     7
 10
64.19003319910004
 20
79.04062199629999
 30
0.0
  0
VERTEX
  5
458
  8
0
  6
CONTINUOUS
 62
     7
 10
64.18773907790003
 20
80.46578013339999
 30
0.0
  0
VERTEX
  5
459
  8
0
  6
CONTINUOUS
 62
     7
 10
64.18715908550004
 20
81.68245935659999
 30
0.0
  0
VERTEX
  5
45A
  8
0
  6
CONTINUOUS
 62
     7
 10
64.18830734040003
 20
82.66107109149999
 30
0.0
  0
VERTEX
  5
45B
  8
0
  6
CONTINUOUS
 62
     7
 10
64.19115616220003
 20
83.37781675419998
 30
0.0
  0
VERTEX
  5
45C
  8
0
  6
CONTINUOUS
 62
     7
 10
64.1956362992
 20
83.8152616497
 30
0.0
  0
VERTEX
  5
45D
  8
0
  6
CONTINUOUS
 62
     7
 10
64.20163860930003
 20
83.96278220299999
 30
0.0
  0
SEQEND
  5
45E
  8
0
  6
CONTINUOUS
 62
     7
  0
LINE
  5
45F
  8
0
  6
CONTINUOUS
 62
     7
 10
64.21464723060004
 20
72.00583541289998
 30
0.0
 11
65.50735841510001
 21
72.15311550210001
 31
0.0
  0
LINE
  5
460
  8
0
  6
CONTINUOUS
 62
     7
 10
65.50824018239999
 20
72.10799495570001
 30
0.0
 11
65.7626049161
 21
72.1124346965
 31
0.0
  0
POLYLINE
  5
461
  8
0
  6
CONTINUOUS
 62
     7
 66
     1
 10
0.0
 20
0.0
 30
0.0
  0
VERTEX
  5
462
  8
0
  6
CONTINUOUS
 62
     7
 10
65.74951389140003
 20
84.11586452929998
 30
0.0
  0
VERTEX
  5
463
  8
0
  6
CONTINUOUS
 62
     7
 10
65.75030397309999
 20
83.9680895592
 30
0.0
  0
VERTEX
  5
464
  8
0
  6
CONTINUOUS
 62
     7
 10
65.7512894072
 20
83.5283729692
 30
0.0
  0
VERTEX
  5
465
  8
0
  6
CONTINUOUS
 62
     7
 10
65.75244632709999
 20
82.80754353879999
 30
0.0
  0
VERTEX
  5
466
  8
0
  6
CONTINUOUS
 62
     7
 10
65.75374567790001
 20
81.8233613271
 30
0.0
  0
VERTEX
  5
467
  8
0
  6
CONTINUOUS
 62
     7
 10
65.7551558026
 20
80.6000630986
 30
0.0
  0
VERTEX
  5
468
  8
0
  6
CONTINUOUS
 62
     7
 10
65.75664179040004
 20
79.1677735094
 30
0.0
  0
VERTEX
  5
469
  8
0
  6
CONTINUOUS
 62
     7
 10
65.75816752390003
 20
77.56175984659998
 30
0.0
  0
VERTEX
  5
46A
  8
0
  6
CONTINUOUS
 62
     7
 10
65.75969467510001
 20
75.8215897981
 30
0.0
  0
VERTEX
  5
46B
  8
0
  6
CONTINUOUS
 62
     7
 10
65.761185955
 20
73.9901179115
 30
0.0
  0
VERTEX
  5
46C
  8
0
  6
CONTINUOUS
 62
     7
 10
65.7626049161
 20
72.1124346965
 30
0.0
  0
SEQEND
  5
46D
  8
0
  6
CONTINUOUS
 62
     7
  0
POLYLINE
  5
46E
  8
0
  6
CONTINUOUS
 62
     7
 66
     1
 10
0.0
 20
0.0
 30
0.0
  0
VERTEX
  5
46F
  8
0
  6
CONTINUOUS
 62
     7
 10
64.21464727970002
 20
-53.90221077720001
 30
0.0
  0
VERTEX
  5
470
  8
0
  6
CONTINUOUS
 62
     7
 10
64.12355740480004
 20
-53.9022110465
 30
0.0
  0
VERTEX
  5
471
  8
0
  6
CONTINUOUS
 62
     7
 10
64.03708563440003
 20
-53.9022096365
 30
0.0
  0
VERTEX
  5
472
  8
0
  6
CONTINUOUS
 62
     7
 10
63.95819703240002
 20
-53.902210889
 30
0.0
  0
VERTEX
  5
473
  8
0
  6
CONTINUOUS
 62
     7
 10
63.88959628980004
 20
-53.90221105720001
 30
0.0
  0
VERTEX
  5
474
  8
0
  6
CONTINUOUS
 62
     7
 10
63.83363617820001
 20
-53.90221560990001
 30
0.0
  0
VERTEX
  5
475
  8
0
  6
CONTINUOUS
 62
     7
 10
63.79223484170004
 20
-53.90221158440001
 30
0.0
  0
VERTEX
  5
476
  8
0
  6
CONTINUOUS
 62
     7
 10
63.76681226209999
 20
-53.9022139691
 30
0.0
  0
VERTEX
  5
477
  8
0
  6
CONTINUOUS
 62
     7
 10
63.75824024850002
 20
-53.90221484120001
 30
0.0
  0
SEQEND
  5
478
  8
0
  6
CONTINUOUS
 62
     7
  0
POLYLINE
  5
479
  8
0
  6
CONTINUOUS
 62
     7
 66
     1
 10
0.0
 20
0.0
 30
0.0
  0
VERTEX
  5
47A
  8
0
  6
CONTINUOUS
 62
     7
 10
64.21464723060004
 20
72.00583541289998
 30
0.0
  0
VERTEX
  5
47B
  8
0
  6
CONTINUOUS
 62
     7
 10
64.1235573557
 20
72.00583514369998
 30
0.0
  0
VERTEX
  5
47C
  8
0
  6
CONTINUOUS
 62
     7
 10
64.03708578030003
 20
72.00582910559999
 30
0.0
  0
VERTEX
  5
47D
  8
0
  6
CONTINUOUS
 62
     7
 10
63.9581969251
 20
72.0058352996
 30
0.0
  0
VERTEX
  5
47E
  8
0
  6
CONTINUOUS
 62
     7
 10
63.8895962988
 20
72.0058351344
 30
0.0
  0
VERTEX
  5
47F
  8
0
  6
CONTINUOUS
 62
     7
 10
63.83363610000001
 20
72.0058305794
 30
0.0
  0
VERTEX
  5
480
  8
0
  6
CONTINUOUS
 62
     7
 10
63.79223473440001
 20
72.0058346042
 30
0.0
  0
VERTEX
  5
481
  8
0
  6
CONTINUOUS
 62
     7
 10
63.76681227110001
 20
72.0058322225
 30
0.0
  0
VERTEX
  5
482
  8
0
  6
CONTINUOUS
 62
     7
 10
63.75824011210003
 20
72.0058313467
 30
0.0
  0
SEQEND
  5
483
  8
0
  6
CONTINUOUS
 62
     7
  0
POLYLINE
  5
484
  8
0
  6
CONTINUOUS
 62
     7
 66
     1
 10
0.0
 20
0.0
 30
0.0
  0
VERTEX
  5
485
  8
0
  6
CONTINUOUS
 62
     7
 10
65.7626049161
 20
72.1124346965
 30
0.0
  0
VERTEX
  5
486
  8
0
  6
CONTINUOUS
 62
     7
 10
65.85952816970004
 20
72.1124386555
 30
0.0
  0
VERTEX
  5
487
  8
0
  6
CONTINUOUS
 62
     7
 10
65.9526019816
 20
72.112438704
 30
0.0
  0
VERTEX
  5
488
  8
0
  6
CONTINUOUS
 62
     7
 10
66.038289262
 20
72.1124391109
 30
0.0
  0
VERTEX
  5
489
  8
0
  6
CONTINUOUS
 62
     7
 10
66.11333331020003
 20
72.11243658089998
 30
0.0
  0
VERTEX
  5
48A
  8
0
  6
CONTINUOUS
 62
     7
 10
66.1748819465
 20
72.11243841159998
 30
0.0
  0
VERTEX
  5
48B
  8
0
  6
CONTINUOUS
 62
     7
 10
66.2205962889
 20
72.1124355291
 30
0.0
  0
VERTEX
  5
48C
  8
0
  6
CONTINUOUS
 62
     7
 10
66.24873888340002
 20
72.11243460859998
 30
0.0
  0
VERTEX
  5
48D
  8
0
  6
CONTINUOUS
 62
     7
 10
66.258240158
 20
72.11243745479999
 30
0.0
  0
SEQEND
  5
48E
  8
0
  6
CONTINUOUS
 62
     7
  0
POLYLINE
  5
48F
  8
0
  6
CONTINUOUS
 62
     7
 66
     1
 10
0.0
 20
0.0
 30
0.0
  0
VERTEX
  5
490
  8
0
  6
CONTINUOUS
 62
     7
 10
65.76260487210001
 20
-53.92722639990001
 30
0.0
  0
VERTEX
  5
491
  8
0
  6
CONTINUOUS
 62
     7
 10
65.85952826249999
 20
-53.9272298905
 30
0.0
  0
VERTEX
  5
492
  8
0
  6
CONTINUOUS
 62
     7
 10
65.95260219090002
 20
-53.9272298389
 30
0.0
  0
VERTEX
  5
493
  8
0
  6
CONTINUOUS
 62
     7
 10
66.03828941309999
 20
-53.9272294336
 30
0.0
  0
VERTEX
  5
494
  8
0
  6
CONTINUOUS
 62
     7
 10
66.11333326619999
 20
-53.9272245155
 30
0.0
  0
VERTEX
  5
495
  8
0
  6
CONTINUOUS
 62
     7
 10
66.17488212660001
 20
-53.92723013210001
 30
0.0
  0
VERTEX
  5
496
  8
0
  6
CONTINUOUS
 62
     7
 10
66.2205963031
 20
-53.9272255658
 30
0.0
  0
VERTEX
  5
497
  8
0
  6
CONTINUOUS
 62
     7
 10
66.2487388685
 20
-53.9272264871
 30
0.0
  0
VERTEX
  5
498
  8
0
  6
CONTINUOUS
 62
     7
 10
66.2582400268
 20
-53.92722364400001
 30
0.0
  0
SEQEND
  5
499
  8
0
  6
CONTINUOUS
 62
     7
  0
LINE
  5
49A
  8
0
  6
CONTINUOUS
 62
     7
 10
64.21464727970002
 20
-53.90221077720001
 30
0.0
 11
64.21464723060004
 21
72.00583541289998
 31
0.0
  0
LINE
  5
49B
  8
0
  6
CONTINUOUS
 62
     7
 10
65.7626049161
 20
72.1124346965
 30
0.0
 11
65.76260487210001
 21
-53.92722639990001
 31
0.0
  0
POLYLINE
  5
49C
  8
0
  6
CONTINUOUS
 62
     7
 66
     1
 10
0.0
 20
0.0
 30
0.0
  0
VERTEX
  5
49D
  8
0
  6
CONTINUOUS
 62
     7
 10
64.29081368500002
 20
-48.5568181415
 30
0.0
  0
VERTEX
  5
49E
  8
0
  6
CONTINUOUS
 62
     7
 10
64.0245267841
 20
-48.29052938240001
 30
0.0
  0
VERTEX
  5
49F
  8
0
  6
CONTINUOUS
 62
     7
 10
63.75824021349999
 20
-48.0242443413
 30
0.0
  0
SEQEND
  5
4A0
  8
0
  6
CONTINUOUS
 62
     7
  0
POLYLINE
  5
4A1
  8
0
  6
CONTINUOUS
 62
     7
 66
     1
 10
0.0
 20
0.0
 30
0.0
  0
VERTEX
  5
4A2
  8
0
  6
CONTINUOUS
 62
     7
 10
63.75824010980003
 20
-53.93462107400001
 30
0.0
  0
VERTEX
  5
4A3
  8
0
  6
CONTINUOUS
 62
     7
 10
64.01061293340004
 20
-53.6695526574
 30
0.0
  0
VERTEX
  5
4A4
  8
0
  6
CONTINUOUS
 62
     7
 10
64.26298565940002
 20
-53.40448051680001
 30
0.0
  0
SEQEND
  5
4A5
  8
0
  6
CONTINUOUS
 62
     7
  0
POLYLINE
  5
4A6
  8
0
  6
CONTINUOUS
 62
     7
 66
     1
 10
0.0
 20
0.0
 30
0.0
  0
VERTEX
  5
4A7
  8
0
  6
CONTINUOUS
 62
     7
 10
64.2908137002
 20
71.4431841514
 30
0.0
  0
VERTEX
  5
4A8
  8
0
  6
CONTINUOUS
 62
     7
 10
64.02452689680004
 20
71.70946918639999
 30
0.0
  0
VERTEX
  5
4A9
  8
0
  6
CONTINUOUS
 62
     7
 10
63.75824008330002
 20
71.97575794779999
 30
0.0
  0
SEQEND
  5
4AA
  8
0
  6
CONTINUOUS
 62
     7
  0
LINE
  5
4AB
  8
0
  6
CONTINUOUS
 62
     7
 10
63.75824009589999
 20
66.06538121809999
 30
0.0
 11
64.26298565570002
 21
66.59551804899999
 31
0.0
  0
POLYLINE
  5
4AC
  8
0
  6
CONTINUOUS
 62
     7
 66
     1
 10
0.0
 20
0.0
 30
0.0
  0
VERTEX
  5
4AD
  8
0
  6
CONTINUOUS
 62
     7
 10
66.2582401087
 20
71.32284864740001
 30
0.0
  0
VERTEX
  5
4AE
  8
0
  6
CONTINUOUS
 62
     7
 10
65.2500159615
 20
71.38451733400001
 30
0.0
  0
VERTEX
  5
4AF
  8
0
  6
CONTINUOUS
 62
     7
 10
64.2417918536
 20
71.446182295
 30
0.0
  0
SEQEND
  5
4B0
  8
0
  6
CONTINUOUS
 62
     7
  0
LINE
  5
4B1
  8
0
  6
CONTINUOUS
 62
     7
 10
64.2510099216
 20
66.59415728799999
 30
0.0
 11
66.25824007579999
 21
66.82285093619998
 31
0.0
  0
LINE
  5
4B2
  8
0
  6
CONTINUOUS
 62
     7
 10
66.2582401123
 20
-48.6771499184
 30
0.0
 11
64.24179183840002
 21
-48.55381999790001
 31
0.0
  0
LINE
  5
4B3
  8
0
  6
CONTINUOUS
 62
     7
 10
64.2510099646
 20
-53.4058450034
 30
0.0
 11
66.25824014780002
 21
-53.17715135430001
 31
0.0
  0
LINE
  5
4B4
  8
0
  6
CONTINUOUS
 62
     7
 10
32.25824118700001
 20
-29.6764859781
 30
0.0
 11
86.4828514305
 21
-27.87767331000001
 31
0.0
  0
LINE
  5
4B5
  8
0
  6
CONTINUOUS
 62
     7
 10
84.51958022930003
 20
47.0966290424
 30
0.0
 11
32.25823848680002
 21
46.0931572728
 31
0.0
  0
LINE
  5
4B6
  8
0
  6
CONTINUOUS
 62
     7
 10
180.2582400906831
 20
49.93808527586526
 30
0.0
 11
84.51958022930003
 21
47.0966290424
 31
0.0
  0
LINE
  5
4B7
  8
0
  6
CONTINUOUS
 62
     7
 10
90.99296606190003
 20
-27.775324002
 30
0.0
 11
180.2582400906831
 21
-25.74961017603754
 31
0.0
  0
LINE
  5
4B8
  8
0
  6
CONTINUOUS
 62
     7
 10
86.4828514305
 20
-27.87767331000001
 30
0.0
 11
90.4814795238
 21
-27.77296554840001
 31
0.0
  0
POLYLINE
  5
4B9
  8
0
  6
CONTINUOUS
 62
     7
 66
     1
 10
0.0
 20
0.0
 30
0.0
  0
VERTEX
  5
4BA
  8
0
  6
CONTINUOUS
 62
     7
 10
64.05824003699999
 20
78.1116555225
 30
0.0
  0
VERTEX
  5
4BB
  8
0
  6
CONTINUOUS
 62
     7
 10
63.89919944290003
 20
78.2625757228
 30
0.0
  0
VERTEX
  5
4BC
  8
0
  6
CONTINUOUS
 62
     7
 10
63.74015865380002
 20
78.41350337099999
 30
0.0
  0
SEQEND
  5
4BD
  8
0
  6
CONTINUOUS
 62
     7
  0
LINE
  5
4BE
  8
0
  6
CONTINUOUS
 62
     7
 10
63.75639214259999
 20
59.79357223380001
 30
0.0
 11
64.05824008150003
 21
60.1116535029
 31
0.0
  0
LINE
  5
4BF
  8
0
  6
CONTINUOUS
 62
     7
 10
64.09643816120004
 20
-49.3283846794
 30
0.0
 11
63.7149208045
 21
-49.3283841361
 31
0.0
  0
LINE
  5
4C0
  8
0
  6
CONTINUOUS
 62
     7
 10
-17.04967574729997
 20
-65.93976904440001
 30
0.0
 11
-143.056070372
 21
-65.93976904440001
 31
0.0
  0
ARC
  5
4C1
  8
0
  6
CONTINUOUS
 62
     7
 10
-17.05901897929999
 20
72.1124203622
 30
0.0
 40
12.00392862686107
 50
0.0000684190000183
 51
26.57120705420006
  0
LINE
  5
4C2
  8
0
  6
CONTINUOUS
 62
     7
 10
-17.0551593747
 20
84.1116557906
 30
0.0
 11
-17.05726788899997
 21
84.11586452929998
 31
0.0
  0
LINE
  5
4C3
  8
0
  6
CONTINUOUS
 62
     7
 10
-143.0505867447
 20
84.1116557906
 30
0.0
 11
-17.0551593747
 21
84.1116557906
 31
0.0
  0
LINE
  5
4C4
  8
0
  6
CONTINUOUS
 62
     7
 10
-16.98006497279999
 20
84.1113759122
 30
0.0
 11
-17.0551593747
 21
84.1116557906
 31
0.0
  0
ARC
  5
4C5
  8
0
  6
CONTINUOUS
 62
     7
 10
-17.06088797029997
 20
72.10360993129999
 30
0.0
 40
12.0080379832445
 50
0.2362141345999548
 51
89.61435401729995
  0
LINE
  5
4C6
  8
0
  6
CONTINUOUS
 62
     7
 10
-17.09420786759998
 20
83.96278220299999
 30
0.0
 11
-16.98006497279999
 21
84.1113759122
 31
0.0
  0
LINE
  5
4C7
  8
0
  6
BORDER
 62
     4
 10
-80.05287305970064
 20
86.11586452929998
 30
0.0
 11
-80.0528730596493
 21
-67.93976904440001
 31
0.0
  0
LINE
  5
4C8
  8
0
  6
BORDER
 62
     4
 10
-157.0528760422021
 20
7.243653616899991
 30
0.0
 11
-3.052870079874992
 21
7.243653616899991
 31
0.0
  0
LINE
  5
4C9
  8
0
  6
BORDER
 62
     4
 10
30.2589242132488
 20
6.300978354812306
 30
0.0
 11
182.2575547406342
 21
10.28120257232825
 31
0.0
  0
LINE
  5
4CA
  8
0
  6
BORDER
 62
     4
 10
30.25823865830898
 20
7.243653616894534
 30
0.0
 11
182.2582400906831
 21
7.243653616894534
 31
0.0
  0
LINE
  5
4CB
  8
0
  6
CONTINUOUS
 62
     4
 10
-90.73762496508013
 20
-61.25591460104005
 30
0.0
 11
-132.3380376542801
 21
-61.25591460104005
 31
0.0
  0
LINE
  5
4CC
  8
0
  6
CONTINUOUS
 62
     4
 10
-90.73762496508013
 20
-44.65508954124005
 30
0.0
 11
-90.73762496508013
 21
-61.25591460104005
 31
0.0
  0
LINE
  5
4CD
  8
0
  6
CONTINUOUS
 62
     4
 10
-132.3380376542801
 20
-44.65508954124005
 30
0.0
 11
-90.73762496508013
 21
-44.65508954124005
 31
0.0
  0
LINE
  5
4CE
  8
0
  6
CONTINUOUS
 62
     4
 10
-132.3380376542801
 20
-61.25591460104005
 30
0.0
 11
-132.3380376542801
 21
-44.65508954124005
 31
0.0
  0
LINE
  5
4CF
  8
0
  6
CONTINUOUS
 62
     4
 10
-91.03783027778013
 20
-60.93977482404004
 30
0.0
 11
-90.73762496508013
 21
-61.25591460104005
 31
0.0
  0
LINE
  5
4D0
  8
0
  6
CONTINUOUS
 62
     4
 10
-91.03783027778013
 20
-44.93977675414004
 30
0.0
 11
-91.03783027778013
 21
-60.93977482404004
 31
0.0
  0
LINE
  5
4D1
  8
0
  6
CONTINUOUS
 62
     4
 10
-91.03783027778013
 20
-44.93977675414004
 30
0.0
 11
-90.73762496508013
 21
-44.65508954124005
 31
0.0
  0
LINE
  5
4D2
  8
0
  6
CONTINUOUS
 62
     4
 10
-132.0378314102801
 20
-44.93977675414004
 30
0.0
 11
-132.3380376542801
 21
-44.65508954124005
 31
0.0
  0
LINE
  5
4D3
  8
0
  6
CONTINUOUS
 62
     4
 10
-132.0378314102801
 20
-60.93977482404004
 30
0.0
 11
-132.0378314102801
 21
-44.93977675414004
 31
0.0
  0
LINE
  5
4D4
  8
0
  6
CONTINUOUS
 62
     4
 10
-132.0378314102801
 20
-60.93977482404004
 30
0.0
 11
-132.3380376542801
 21
-61.25591460104005
 31
0.0
  0
POLYLINE
  5
4D5
  8
0
  6
CONTINUOUS
 62
     4
 66
     1
 10
0.0
 20
0.0
 30
0.0
  0
VERTEX
  5
4D6
  8
0
  6
CONTINUOUS
 62
     4
 10
-96.38681256718013
 20
-60.57797002904005
 30
0.0
  0
VERTEX
  5
4D7
  8
0
  6
CONTINUOUS
 62
     4
 10
-97.40217210298013
 20
-58.90776728674005
 30
0.0
  0
VERTEX
  5
4D8
  8
0
  6
CONTINUOUS
 62
     4
 10
-97.64573158278012
 20
-57.38699988174005
 30
0.0
  0
SEQEND
  5
4D9
  8
0
  6
CONTINUOUS
 62
     4
  0
POLYLINE
  5
4DA
  8
0
  6
CONTINUOUS
 62
     4
 66
     1
 10
0.0
 20
0.0
 30
0.0
  0
VERTEX
  5
4DB
  8
0
  6
CONTINUOUS
 62
     4
 10
-97.64573158278012
 20
-57.38699988174005
 30
0.0
  0
VERTEX
  5
4DC
  8
0
  6
CONTINUOUS
 62
     4
 10
-97.24642516628012
 20
-55.47425723664004
 30
0.0
  0
VERTEX
  5
4DD
  8
0
  6
CONTINUOUS
 62
     4
 10
-96.38681256718013
 20
-54.19602229244005
 30
0.0
  0
SEQEND
  5
4DE
  8
0
  6
CONTINUOUS
 62
     4
  0
LINE
  5
4DF
  8
0
  6
CONTINUOUS
 62
     4
 10
-96.38681256718013
 20
-54.19602229244005
 30
0.0
 11
-96.11036436208013
 21
-54.50124306234005
 31
0.0
  0
POLYLINE
  5
4E0
  8
0
  6
CONTINUOUS
 62
     4
 66
     1
 10
0.0
 20
0.0
 30
0.0
  0
VERTEX
  5
4E1
  8
0
  6
CONTINUOUS
 62
     4
 10
-96.11036436208013
 20
-54.50124306234005
 30
0.0
  0
VERTEX
  5
4E2
  8
0
  6
CONTINUOUS
 62
     4
 10
-97.04814659008014
 20
-56.00618745024005
 30
0.0
  0
VERTEX
  5
4E3
  8
0
  6
CONTINUOUS
 62
     4
 10
-97.26857015438011
 20
-57.38699988174005
 30
0.0
  0
SEQEND
  5
4E4
  8
0
  6
CONTINUOUS
 62
     4
  0
POLYLINE
  5
4E5
  8
0
  6
CONTINUOUS
 62
     4
 66
     1
 10
0.0
 20
0.0
 30
0.0
  0
VERTEX
  5
4E6
  8
0
  6
CONTINUOUS
 62
     4
 10
-97.26857015438011
 20
-57.38699988174005
 30
0.0
  0
VERTEX
  5
4E7
  8
0
  6
CONTINUOUS
 62
     4
 10
-96.90607333138013
 20
-59.12343863814004
 30
0.0
  0
VERTEX
  5
4E8
  8
0
  6
CONTINUOUS
 62
     4
 10
-96.11036436208013
 20
-60.27274925914004
 30
0.0
  0
SEQEND
  5
4E9
  8
0
  6
CONTINUOUS
 62
     4
  0
LINE
  5
4EA
  8
0
  6
CONTINUOUS
 62
     4
 10
-96.11036436208013
 20
-60.27274925914004
 30
0.0
 11
-96.38681256718013
 21
-60.57797002904005
 31
0.0
  0
POLYLINE
  5
4EB
  8
0
  6
CONTINUOUS
 62
     4
 66
     1
 10
0.0
 20
0.0
 30
0.0
  0
VERTEX
  5
4EC
  8
0
  6
CONTINUOUS
 62
     4
 10
-91.61853877408012
 20
-57.38699988174005
 30
0.0
  0
VERTEX
  5
4ED
  8
0
  6
CONTINUOUS
 62
     4
 10
-92.01784519058012
 20
-59.29973508484005
 30
0.0
  0
VERTEX
  5
4EE
  8
0
  6
CONTINUOUS
 62
     4
 10
-92.87745778958012
 20
-60.57797002904005
 30
0.0
  0
SEQEND
  5
4EF
  8
0
  6
CONTINUOUS
 62
     4
  0
LINE
  5
4F0
  8
0
  6
CONTINUOUS
 62
     4
 10
-92.87745778958012
 20
-60.57797002904005
 30
0.0
 11
-93.15390692598012
 21
-60.27274925914004
 31
0.0
  0
POLYLINE
  5
4F1
  8
0
  6
CONTINUOUS
 62
     4
 66
     1
 10
0.0
 20
0.0
 30
0.0
  0
VERTEX
  5
4F2
  8
0
  6
CONTINUOUS
 62
     4
 10
-93.15390692598012
 20
-60.27274925914004
 30
0.0
  0
VERTEX
  5
4F3
  8
0
  6
CONTINUOUS
 62
     4
 10
-92.21611352218014
 20
-58.76780486514005
 30
0.0
  0
VERTEX
  5
4F4
  8
0
  6
CONTINUOUS
 62
     4
 10
-91.99570020238014
 20
-57.38699988174005
 30
0.0
  0
SEQEND
  5
4F5
  8
0
  6
CONTINUOUS
 62
     4
  0
POLYLINE
  5
4F6
  8
0
  6
CONTINUOUS
 62
     4
 66
     1
 10
0.0
 20
0.0
 30
0.0
  0
VERTEX
  5
4F7
  8
0
  6
CONTINUOUS
 62
     4
 10
-91.99570020238014
 20
-57.38699988174005
 30
0.0
  0
VERTEX
  5
4F8
  8
0
  6
CONTINUOUS
 62
     4
 10
-92.35817746768012
 20
-55.65055368334005
 30
0.0
  0
VERTEX
  5
4F9
  8
0
  6
CONTINUOUS
 62
     4
 10
-93.15390692598012
 20
-54.50124306234005
 30
0.0
  0
SEQEND
  5
4FA
  8
0
  6
CONTINUOUS
 62
     4
  0
LINE
  5
4FB
  8
0
  6
CONTINUOUS
 62
     4
 10
-93.15390692598012
 20
-54.50124306234005
 30
0.0
 11
-92.87745778958012
 21
-54.19602229244005
 31
0.0
  0
POLYLINE
  5
4FC
  8
0
  6
CONTINUOUS
 62
     4
 66
     1
 10
0.0
 20
0.0
 30
0.0
  0
VERTEX
  5
4FD
  8
0
  6
CONTINUOUS
 62
     4
 10
-92.87745778958012
 20
-54.19602229244005
 30
0.0
  0
VERTEX
  5
4FE
  8
0
  6
CONTINUOUS
 62
     4
 10
-91.86209918508013
 20
-55.86622503474004
 30
0.0
  0
VERTEX
  5
4FF
  8
0
  6
CONTINUOUS
 62
     4
 10
-91.61853877408012
 20
-57.38699988174005
 30
0.0
  0
SEQEND
  5
500
  8
0
  6
CONTINUOUS
 62
     4
  0
POLYLINE
  5
501
  8
0
  6
CONTINUOUS
 62
     4
 66
     1
 10
0.0
 20
0.0
 30
0.0
  0
VERTEX
  5
502
  8
0
  6
CONTINUOUS
 62
     4
 10
-112.9417437458801
 20
-47.16628908834005
 30
0.0
  0
VERTEX
  5
503
  8
0
  6
CONTINUOUS
 62
     4
 10
-113.1154354060801
 20
-47.03602319984005
 30
0.0
  0
VERTEX
  5
504
  8
0
  6
CONTINUOUS
 62
     4
 10
-113.2819707835801
 20
-46.99977115794005
 30
0.0
  0
SEQEND
  5
505
  8
0
  6
CONTINUOUS
 62
     4
  0
POLYLINE
  5
506
  8
0
  6
CONTINUOUS
 62
     4
 66
     1
 10
0.0
 20
0.0
 30
0.0
  0
VERTEX
  5
507
  8
0
  6
CONTINUOUS
 62
     4
 10
-113.2819707835801
 20
-46.99977115794005
 30
0.0
  0
VERTEX
  5
508
  8
0
  6
CONTINUOUS
 62
     4
 10
-113.4905460620801
 20
-47.05786461314004
 30
0.0
  0
VERTEX
  5
509
  8
0
  6
CONTINUOUS
 62
     4
 10
-113.6232297266801
 20
-47.16628908834005
 30
0.0
  0
SEQEND
  5
50A
  8
0
  6
CONTINUOUS
 62
     4
  0
ARC
  5
50B
  8
0
  6
CONTINUOUS
 62
     4
 10
-111.0931681739801
 20
-48.85723249344005
 30
0.0
 40
3.043107139068686
 50
146.2435764128
 51
185.7949938548999
  0
POLYLINE
  5
50C
  8
0
  6
CONTINUOUS
 62
     4
 66
     1
 10
0.0
 20
0.0
 30
0.0
  0
VERTEX
  5
50D
  8
0
  6
CONTINUOUS
 62
     4
 10
-114.1207236195801
 20
-49.16449310524004
 30
0.0
  0
VERTEX
  5
50E
  8
0
  6
CONTINUOUS
 62
     4
 10
-114.0125635410801
 20
-50.34997006104005
 30
0.0
  0
VERTEX
  5
50F
  8
0
  6
CONTINUOUS
 62
     4
 10
-113.6232297266801
 20
-51.19045259834004
 30
0.0
  0
SEQEND
  5
510
  8
0
  6
CONTINUOUS
 62
     4
  0
POLYLINE
  5
511
  8
0
  6
CONTINUOUS
 62
     4
 66
     1
 10
0.0
 20
0.0
 30
0.0
  0
VERTEX
  5
512
  8
0
  6
CONTINUOUS
 62
     4
 10
-113.6232297266801
 20
-51.19045259834004
 30
0.0
  0
VERTEX
  5
513
  8
0
  6
CONTINUOUS
 62
     4
 10
-113.4484391058801
 20
-51.31976821124005
 30
0.0
  0
VERTEX
  5
514
  8
0
  6
CONTINUOUS
 62
     4
 10
-113.2819707835801
 20
-51.35697052874005
 30
0.0
  0
SEQEND
  5
515
  8
0
  6
CONTINUOUS
 62
     4
  0
POLYLINE
  5
516
  8
0
  6
CONTINUOUS
 62
     4
 66
     1
 10
0.0
 20
0.0
 30
0.0
  0
VERTEX
  5
517
  8
0
  6
CONTINUOUS
 62
     4
 10
-113.2819707835801
 20
-51.35697052874005
 30
0.0
  0
VERTEX
  5
518
  8
0
  6
CONTINUOUS
 62
     4
 10
-113.0741852665801
 20
-51.29829945524004
 30
0.0
  0
VERTEX
  5
519
  8
0
  6
CONTINUOUS
 62
     4
 10
-112.9417437458801
 20
-51.19045259834004
 30
0.0
  0
SEQEND
  5
51A
  8
0
  6
CONTINUOUS
 62
     4
  0
ARC
  5
51B
  8
0
  6
CONTINUOUS
 62
     4
 10
-115.4656893902801
 20
-49.49507779494004
 30
0.0
 40
3.040492943573764
 50
326.1101084993001
 51
6.241957115399833
  0
POLYLINE
  5
51C
  8
0
  6
CONTINUOUS
 62
     4
 66
     1
 10
0.0
 20
0.0
 30
0.0
  0
VERTEX
  5
51D
  8
0
  6
CONTINUOUS
 62
     4
 10
-112.4432216728801
 20
-49.16449310524004
 30
0.0
  0
VERTEX
  5
51E
  8
0
  6
CONTINUOUS
 62
     4
 10
-112.5524471843801
 20
-47.99409756994005
 30
0.0
  0
VERTEX
  5
51F
  8
0
  6
CONTINUOUS
 62
     4
 10
-112.9417437458801
 20
-47.16628908834005
 30
0.0
  0
SEQEND
  5
520
  8
0
  6
CONTINUOUS
 62
     4
  0
POLYLINE
  5
521
  8
0
  6
CONTINUOUS
 62
     4
 66
     1
 10
0.0
 20
0.0
 30
0.0
  0
VERTEX
  5
522
  8
0
  6
CONTINUOUS
 62
     4
 10
-114.7240939880801
 20
-49.16449310524004
 30
0.0
  0
VERTEX
  5
523
  8
0
  6
CONTINUOUS
 62
     4
 10
-114.5772951985801
 20
-47.80863004164004
 30
0.0
  0
VERTEX
  5
524
  8
0
  6
CONTINUOUS
 62
     4
 10
-114.0950265670801
 20
-46.86100869154005
 30
0.0
  0
SEQEND
  5
525
  8
0
  6
CONTINUOUS
 62
     4
  0
POLYLINE
  5
526
  8
0
  6
CONTINUOUS
 62
     4
 66
     1
 10
0.0
 20
0.0
 30
0.0
  0
VERTEX
  5
527
  8
0
  6
CONTINUOUS
 62
     4
 10
-114.0950265670801
 20
-46.86100869154005
 30
0.0
  0
VERTEX
  5
528
  8
0
  6
CONTINUOUS
 62
     4
 10
-113.6789302671801
 20
-46.55540781624005
 30
0.0
  0
VERTEX
  5
529
  8
0
  6
CONTINUOUS
 62
     4
 10
-113.2819707835801
 20
-46.47246933254004
 30
0.0
  0
SEQEND
  5
52A
  8
0
  6
CONTINUOUS
 62
     4
  0
POLYLINE
  5
52B
  8
0
  6
CONTINUOUS
 62
     4
 66
     1
 10
0.0
 20
0.0
 30
0.0
  0
VERTEX
  5
52C
  8
0
  6
CONTINUOUS
 62
     4
 10
-113.2819707835801
 20
-46.47246933254004
 30
0.0
  0
VERTEX
  5
52D
  8
0
  6
CONTINUOUS
 62
     4
 10
-112.7864475692801
 20
-46.60615248204005
 30
0.0
  0
VERTEX
  5
52E
  8
0
  6
CONTINUOUS
 62
     4
 10
-112.4699431801801
 20
-46.86100869154005
 30
0.0
  0
SEQEND
  5
52F
  8
0
  6
CONTINUOUS
 62
     4
  0
ARC
  5
530
  8
0
  6
CONTINUOUS
 62
     4
 10
-115.1481669852801
 20
-48.83004921394004
 30
0.0
 40
3.324154528486312
 50
354.2256897393
 51
36.32346979680002
  0
POLYLINE
  5
531
  8
0
  6
CONTINUOUS
 62
     4
 66
     1
 10
0.0
 20
0.0
 30
0.0
  0
VERTEX
  5
532
  8
0
  6
CONTINUOUS
 62
     4
 10
-111.8408794844801
 20
-49.16449310524004
 30
0.0
  0
VERTEX
  5
533
  8
0
  6
CONTINUOUS
 62
     4
 10
-111.9865010822801
 20
-50.53575062584005
 30
0.0
  0
VERTEX
  5
534
  8
0
  6
CONTINUOUS
 62
     4
 10
-112.4699431801801
 20
-51.49573299514005
 30
0.0
  0
SEQEND
  5
535
  8
0
  6
CONTINUOUS
 62
     4
  0
POLYLINE
  5
536
  8
0
  6
CONTINUOUS
 62
     4
 66
     1
 10
0.0
 20
0.0
 30
0.0
  0
VERTEX
  5
537
  8
0
  6
CONTINUOUS
 62
     4
 10
-112.4699431801801
 20
-51.49573299514005
 30
0.0
  0
VERTEX
  5
538
  8
0
  6
CONTINUOUS
 62
     4
 10
-112.8860804582801
 20
-51.79910911054004
 30
0.0
  0
VERTEX
  5
539
  8
0
  6
CONTINUOUS
 62
     4
 10
-113.2819707835801
 20
-51.88221529064005
 30
0.0
  0
SEQEND
  5
53A
  8
0
  6
CONTINUOUS
 62
     4
  0
POLYLINE
  5
53B
  8
0
  6
CONTINUOUS
 62
     4
 66
     1
 10
0.0
 20
0.0
 30
0.0
  0
VERTEX
  5
53C
  8
0
  6
CONTINUOUS
 62
     4
 10
-113.2819707835801
 20
-51.88221529064005
 30
0.0
  0
VERTEX
  5
53D
  8
0
  6
CONTINUOUS
 62
     4
 10
-113.7776132071801
 20
-51.74926999564005
 30
0.0
  0
VERTEX
  5
53E
  8
0
  6
CONTINUOUS
 62
     4
 10
-114.0950265670801
 20
-51.49573299514005
 30
0.0
  0
SEQEND
  5
53F
  8
0
  6
CONTINUOUS
 62
     4
  0
ARC
  5
540
  8
0
  6
CONTINUOUS
 62
     4
 10
-111.3619850274801
 20
-49.50774795984005
 30
0.0
 40
3.379585855990878
 50
174.170579745
 51
216.0317397729
  0
LINE
  5
541
  8
0
  6
CONTINUOUS
 62
     4
 10
-100.6258949036801
 20
-51.88221529064005
 30
0.0
 11
-100.6258949036801
 21
-47.57744126164005
 31
0.0
  0
LINE
  5
542
  8
0
  6
CONTINUOUS
 62
     4
 10
-100.6258949036801
 20
-47.57744126164005
 30
0.0
 11
-101.3947519803801
 21
-47.57744126164005
 31
0.0
  0
LINE
  5
543
  8
0
  6
CONTINUOUS
 62
     4
 10
-101.3947519803801
 20
-47.57744126164005
 30
0.0
 11
-101.3947519803801
 21
-47.24954805654005
 31
0.0
  0
ARC
  5
544
  8
0
  6
CONTINUOUS
 62
     4
 10
-101.2688036397801
 20
-46.29272483264005
 30
0.0
 40
0.9650770261238637
 50
262.5011670144008
 51
349.2660473926999
  0
LINE
  5
545
  8
0
  6
CONTINUOUS
 62
     4
 10
-100.3206129515801
 20
-46.47246933254004
 30
0.0
 11
-100.0060811037801
 21
-46.47246933254004
 31
0.0
  0
LINE
  5
546
  8
0
  6
CONTINUOUS
 62
     4
 10
-100.0060811037801
 20
-46.47246933254004
 30
0.0
 11
-100.0060811037801
 21
-51.88221529064005
 31
0.0
  0
LINE
  5
547
  8
0
  6
CONTINUOUS
 62
     4
 10
-100.0060811037801
 20
-51.88221529064005
 30
0.0
 11
-100.6258949036801
 21
-51.88221529064005
 31
0.0
  0
LINE
  5
548
  8
0
  6
CONTINUOUS
 62
     4
 10
-120.4050797367801
 20
-49.05348239104005
 30
0.0
 11
-119.8027375484801
 21
-49.05348239104005
 31
0.0
  0
POLYLINE
  5
549
  8
0
  6
CONTINUOUS
 62
     4
 66
     1
 10
0.0
 20
0.0
 30
0.0
  0
VERTEX
  5
54A
  8
0
  6
CONTINUOUS
 62
     4
 10
-119.8027375484801
 20
-49.05348239104005
 30
0.0
  0
VERTEX
  5
54B
  8
0
  6
CONTINUOUS
 62
     4
 10
-119.3602289403801
 20
-48.97464313824004
 30
0.0
  0
VERTEX
  5
54C
  8
0
  6
CONTINUOUS
 62
     4
 10
-119.0688292825801
 20
-48.77595374634005
 30
0.0
  0
SEQEND
  5
54D
  8
0
  6
CONTINUOUS
 62
     4
  0
POLYLINE
  5
54E
  8
0
  6
CONTINUOUS
 62
     4
 66
     1
 10
0.0
 20
0.0
 30
0.0
  0
VERTEX
  5
54F
  8
0
  6
CONTINUOUS
 62
     4
 10
-119.0688292825801
 20
-48.77595374634005
 30
0.0
  0
VERTEX
  5
550
  8
0
  6
CONTINUOUS
 62
     4
 10
-118.8680808389801
 20
-48.37825820794005
 30
0.0
  0
VERTEX
  5
551
  8
0
  6
CONTINUOUS
 62
     4
 10
-118.8324186349801
 20
-48.02662677444005
 30
0.0
  0
SEQEND
  5
552
  8
0
  6
CONTINUOUS
 62
     4
  0
POLYLINE
  5
553
  8
0
  6
CONTINUOUS
 62
     4
 66
     1
 10
0.0
 20
0.0
 30
0.0
  0
VERTEX
  5
554
  8
0
  6
CONTINUOUS
 62
     4
 10
-118.8324186349801
 20
-48.02662677444005
 30
0.0
  0
VERTEX
  5
555
  8
0
  6
CONTINUOUS
 62
     4
 10
-118.8935580993801
 20
-47.58185724094005
 30
0.0
  0
VERTEX
  5
556
  8
0
  6
CONTINUOUS
 62
     4
 10
-119.0688292825801
 20
-47.27729980264004
 30
0.0
  0
SEQEND
  5
557
  8
0
  6
CONTINUOUS
 62
     4
  0
POLYLINE
  5
558
  8
0
  6
CONTINUOUS
 62
     4
 66
     1
 10
0.0
 20
0.0
 30
0.0
  0
VERTEX
  5
559
  8
0
  6
CONTINUOUS
 62
     4
 10
-119.0688292825801
 20
-47.27729980264004
 30
0.0
  0
VERTEX
  5
55A
  8
0
  6
CONTINUOUS
 62
     4
 10
-119.4511595512801
 20
-47.04438934584005
 30
0.0
  0
VERTEX
  5
55B
  8
0
  6
CONTINUOUS
 62
     4
 10
-119.8027375484801
 20
-46.99771781234004
 30
0.0
  0
SEQEND
  5
55C
  8
0
  6
CONTINUOUS
 62
     4
  0
LINE
  5
55D
  8
0
  6
CONTINUOUS
 62
     4
 10
-119.8027375484801
 20
-46.99771781234004
 30
0.0
 11
-120.4050797367801
 21
-46.99771781234004
 31
0.0
  0
LINE
  5
55E
  8
0
  6
CONTINUOUS
 62
     4
 10
-120.4050797367801
 20
-46.99771781234004
 30
0.0
 11
-120.4050797367801
 21
-49.05348239104005
 31
0.0
  0
POLYLINE
  5
55F
  8
0
  6
CONTINUOUS
 62
     4
 66
     1
 10
0.0
 20
0.0
 30
0.0
  0
VERTEX
  5
560
  8
0
  6
CONTINUOUS
 62
     4
 10
-119.6454744184801
 20
-46.47246933254004
 30
0.0
  0
VERTEX
  5
561
  8
0
  6
CONTINUOUS
 62
     4
 10
-119.0436090672801
 20
-46.58515327484005
 30
0.0
  0
VERTEX
  5
562
  8
0
  6
CONTINUOUS
 62
     4
 10
-118.6494547272801
 20
-46.86100869154005
 30
0.0
  0
SEQEND
  5
563
  8
0
  6
CONTINUOUS
 62
     4
  0
POLYLINE
  5
564
  8
0
  6
CONTINUOUS
 62
     4
 66
     1
 10
0.0
 20
0.0
 30
0.0
  0
VERTEX
  5
565
  8
0
  6
CONTINUOUS
 62
     4
 10
-118.6494547272801
 20
-46.86100869154005
 30
0.0
  0
VERTEX
  5
566
  8
0
  6
CONTINUOUS
 62
     4
 10
-118.3198559427801
 20
-47.47697300454004
 30
0.0
  0
VERTEX
  5
567
  8
0
  6
CONTINUOUS
 62
     4
 10
-118.2557772243801
 20
-48.02662677444005
 30
0.0
  0
SEQEND
  5
568
  8
0
  6
CONTINUOUS
 62
     4
  0
POLYLINE
  5
569
  8
0
  6
CONTINUOUS
 62
     4
 66
     1
 10
0.0
 20
0.0
 30
0.0
  0
VERTEX
  5
56A
  8
0
  6
CONTINUOUS
 62
     4
 10
-118.2557772243801
 20
-48.02662677444005
 30
0.0
  0
VERTEX
  5
56B
  8
0
  6
CONTINUOUS
 62
     4
 10
-118.3642986560801
 20
-48.72089744064004
 30
0.0
  0
VERTEX
  5
56C
  8
0
  6
CONTINUOUS
 62
     4
 10
-118.6494547272801
 20
-49.19224858144004
 30
0.0
  0
SEQEND
  5
56D
  8
0
  6
CONTINUOUS
 62
     4
  0
POLYLINE
  5
56E
  8
0
  6
CONTINUOUS
 62
     4
 66
     1
 10
0.0
 20
0.0
 30
0.0
  0
VERTEX
  5
56F
  8
0
  6
CONTINUOUS
 62
     4
 10
-118.6494547272801
 20
-49.19224858144004
 30
0.0
  0
VERTEX
  5
570
  8
0
  6
CONTINUOUS
 62
     4
 10
-119.1679704333801
 20
-49.51192842864005
 30
0.0
  0
VERTEX
  5
571
  8
0
  6
CONTINUOUS
 62
     4
 10
-119.6454744184801
 20
-49.57873087694004
 30
0.0
  0
SEQEND
  5
572
  8
0
  6
CONTINUOUS
 62
     4
  0
LINE
  5
573
  8
0
  6
CONTINUOUS
 62
     4
 10
-119.6454744184801
 20
-49.57873087694004
 30
0.0
 11
-120.4050797367801
 21
-49.57873087694004
 31
0.0
  0
LINE
  5
574
  8
0
  6
CONTINUOUS
 62
     4
 10
-120.4050797367801
 20
-49.57873087694004
 30
0.0
 11
-120.4050797367801
 21
-51.88221529064005
 31
0.0
  0
LINE
  5
575
  8
0
  6
CONTINUOUS
 62
     4
 10
-120.4050797367801
 20
-51.88221529064005
 30
0.0
 11
-121.0248935366801
 21
-51.88221529064005
 31
0.0
  0
LINE
  5
576
  8
0
  6
CONTINUOUS
 62
     4
 10
-121.0248935366801
 20
-51.88221529064005
 30
0.0
 11
-121.0248935366801
 21
-46.47246933254004
 31
0.0
  0
LINE
  5
577
  8
0
  6
CONTINUOUS
 62
     4
 10
-121.0248935366801
 20
-46.47246933254004
 30
0.0
 11
-119.6454744184801
 21
-46.47246933254004
 31
0.0
  0
LINE
  5
578
  8
0
  6
CONTINUOUS
 62
     4
 10
-96.88086429188013
 20
-50.08033801364004
 30
0.0
 11
-96.88086429188013
 21
-47.63808741554004
 31
0.0
  0
LINE
  5
579
  8
0
  6
CONTINUOUS
 62
     4
 10
-96.88086429188013
 20
-47.63808741554004
 30
0.0
 11
-98.04340073418012
 21
-50.08033801364004
 31
0.0
  0
LINE
  5
57A
  8
0
  6
CONTINUOUS
 62
     4
 10
-98.04340073418012
 20
-50.08033801364004
 30
0.0
 11
-96.88086429188013
 21
-50.08033801364004
 31
0.0
  0
LINE
  5
57B
  8
0
  6
CONTINUOUS
 62
     4
 10
-96.88086429188013
 20
-51.88221529064005
 30
0.0
 11
-96.88086429188013
 21
-50.60558649344004
 31
0.0
  0
LINE
  5
57C
  8
0
  6
CONTINUOUS
 62
     4
 10
-96.88086429188013
 20
-50.60558649344004
 30
0.0
 11
-98.62004214478011
 21
-50.60558649344004
 31
0.0
  0
LINE
  5
57D
  8
0
  6
CONTINUOUS
 62
     4
 10
-98.62004214478011
 20
-50.60558649344004
 30
0.0
 11
-98.62004214478011
 21
-50.08033801364004
 31
0.0
  0
LINE
  5
57E
  8
0
  6
CONTINUOUS
 62
     4
 10
-98.62004214478011
 20
-50.08033801364004
 30
0.0
 11
-96.86339081778013
 21
-46.47246933254004
 31
0.0
  0
LINE
  5
57F
  8
0
  6
CONTINUOUS
 62
     4
 10
-96.86339081778013
 20
-46.47246933254004
 30
0.0
 11
-96.26105049208013
 21
-46.47246933254004
 31
0.0
  0
LINE
  5
580
  8
0
  6
CONTINUOUS
 62
     4
 10
-96.26105049208013
 20
-46.47246933254004
 30
0.0
 11
-96.26105049208013
 21
-50.08033801364004
 31
0.0
  0
LINE
  5
581
  8
0
  6
CONTINUOUS
 62
     4
 10
-96.26105049208013
 20
-50.08033801364004
 30
0.0
 11
-95.71010613388012
 21
-50.08033801364004
 31
0.0
  0
LINE
  5
582
  8
0
  6
CONTINUOUS
 62
     4
 10
-95.71010613388012
 20
-50.08033801364004
 30
0.0
 11
-95.71010613388012
 21
-50.60558649344004
 31
0.0
  0
LINE
  5
583
  8
0
  6
CONTINUOUS
 62
     4
 10
-95.71010613388012
 20
-50.60558649344004
 30
0.0
 11
-96.26105049208013
 21
-50.60558649344004
 31
0.0
  0
LINE
  5
584
  8
0
  6
CONTINUOUS
 62
     4
 10
-96.26105049208013
 20
-50.60558649344004
 30
0.0
 11
-96.26105049208013
 21
-51.88221529064005
 31
0.0
  0
LINE
  5
585
  8
0
  6
CONTINUOUS
 62
     4
 10
-96.26105049208013
 20
-51.88221529064005
 30
0.0
 11
-96.88086429188013
 21
-51.88221529064005
 31
0.0
  0
POLYLINE
  5
586
  8
0
  6
CONTINUOUS
 62
     4
 66
     1
 10
0.0
 20
0.0
 30
0.0
  0
VERTEX
  5
587
  8
0
  6
CONTINUOUS
 62
     4
 10
-126.4540459359801
 20
-48.49842510164005
 30
0.0
  0
VERTEX
  5
588
  8
0
  6
CONTINUOUS
 62
     4
 10
-125.8569452310801
 20
-48.99062638554005
 30
0.0
  0
VERTEX
  5
589
  8
0
  6
CONTINUOUS
 62
     4
 10
-125.3531853998801
 20
-49.33101104174004
 30
0.0
  0
SEQEND
  5
58A
  8
0
  6
CONTINUOUS
 62
     4
  0
ARC
  5
58B
  8
0
  6
CONTINUOUS
 62
     4
 10
-125.9173984441801
 20
-50.35371519354004
 30
0.0
 40
1.168015471445136
 50
358.4348266457001
 51
61.11502983249984
  0
POLYLINE
  5
58C
  8
0
  6
CONTINUOUS
 62
     4
 66
     1
 10
0.0
 20
0.0
 30
0.0
  0
VERTEX
  5
58D
  8
0
  6
CONTINUOUS
 62
     4
 10
-124.7498187566801
 20
-50.38561840434005
 30
0.0
  0
VERTEX
  5
58E
  8
0
  6
CONTINUOUS
 62
     4
 10
-124.8630042517801
 20
-51.04847038384004
 30
0.0
  0
VERTEX
  5
58F
  8
0
  6
CONTINUOUS
 62
     4
 10
-125.1434962595801
 20
-51.49573299514005
 30
0.0
  0
SEQEND
  5
590
  8
0
  6
CONTINUOUS
 62
     4
  0
POLYLINE
  5
591
  8
0
  6
CONTINUOUS
 62
     4
 66
     1
 10
0.0
 20
0.0
 30
0.0
  0
VERTEX
  5
592
  8
0
  6
CONTINUOUS
 62
     4
 10
-125.1434962595801
 20
-51.49573299514005
 30
0.0
  0
VERTEX
  5
593
  8
0
  6
CONTINUOUS
 62
     4
 10
-125.6765219712801
 20
-51.81706743814004
 30
0.0
  0
VERTEX
  5
594
  8
0
  6
CONTINUOUS
 62
     4
 10
-126.1652130032801
 20
-51.88221529064005
 30
0.0
  0
SEQEND
  5
595
  8
0
  6
CONTINUOUS
 62
     4
  0
POLYLINE
  5
596
  8
0
  6
CONTINUOUS
 62
     4
 66
     1
 10
0.0
 20
0.0
 30
0.0
  0
VERTEX
  5
597
  8
0
  6
CONTINUOUS
 62
     4
 10
-126.1652130032801
 20
-51.88221529064005
 30
0.0
  0
VERTEX
  5
598
  8
0
  6
CONTINUOUS
 62
     4
 10
-126.7495098853801
 20
-51.78244762964005
 30
0.0
  0
VERTEX
  5
599
  8
0
  6
CONTINUOUS
 62
     4
 10
-127.1355356419801
 20
-51.52348474124005
 30
0.0
  0
SEQEND
  5
59A
  8
0
  6
CONTINUOUS
 62
     4
  0
POLYLINE
  5
59B
  8
0
  6
CONTINUOUS
 62
     4
 66
     1
 10
0.0
 20
0.0
 30
0.0
  0
VERTEX
  5
59C
  8
0
  6
CONTINUOUS
 62
     4
 10
-127.1355356419801
 20
-51.52348474124005
 30
0.0
  0
VERTEX
  5
59D
  8
0
  6
CONTINUOUS
 62
     4
 10
-127.4744513774801
 20
-50.97235152004005
 30
0.0
  0
VERTEX
  5
59E
  8
0
  6
CONTINUOUS
 62
     4
 10
-127.5549101973801
 20
-50.46887737254005
 30
0.0
  0
SEQEND
  5
59F
  8
0
  6
CONTINUOUS
 62
     4
  0
LINE
  5
5A0
  8
0
  6
CONTINUOUS
 62
     4
 10
-127.5549101973801
 20
-50.46887737254005
 30
0.0
 11
-127.5549101973801
 21
-50.19134872794005
 31
0.0
  0
LINE
  5
5A1
  8
0
  6
CONTINUOUS
 62
     4
 10
-127.5549101973801
 20
-50.19134872794005
 30
0.0
 11
-126.9515435541801
 21
-50.19134872794005
 31
0.0
  0
LINE
  5
5A2
  8
0
  6
CONTINUOUS
 62
     4
 10
-126.9515435541801
 20
-50.19134872794005
 30
0.0
 11
-126.9515435541801
 21
-50.44112562654004
 31
0.0
  0
POLYLINE
  5
5A3
  8
0
  6
CONTINUOUS
 62
     4
 66
     1
 10
0.0
 20
0.0
 30
0.0
  0
VERTEX
  5
5A4
  8
0
  6
CONTINUOUS
 62
     4
 10
-126.9515435541801
 20
-50.44112562654004
 30
0.0
  0
VERTEX
  5
5A5
  8
0
  6
CONTINUOUS
 62
     4
 10
-126.8970127547801
 20
-50.83630573074005
 30
0.0
  0
VERTEX
  5
5A6
  8
0
  6
CONTINUOUS
 62
     4
 10
-126.7418544138801
 20
-51.10719363014005
 30
0.0
  0
SEQEND
  5
5A7
  8
0
  6
CONTINUOUS
 62
     4
  0
POLYLINE
  5
5A8
  8
0
  6
CONTINUOUS
 62
     4
 66
     1
 10
0.0
 20
0.0
 30
0.0
  0
VERTEX
  5
5A9
  8
0
  6
CONTINUOUS
 62
     4
 10
-126.7418544138801
 20
-51.10719363014005
 30
0.0
  0
VERTEX
  5
5AA
  8
0
  6
CONTINUOUS
 62
     4
 10
-126.4709513033801
 20
-51.28747005394004
 30
0.0
  0
VERTEX
  5
5AB
  8
0
  6
CONTINUOUS
 62
     4
 10
-126.2176352883801
 20
-51.32921505874005
 30
0.0
  0
SEQEND
  5
5AC
  8
0
  6
CONTINUOUS
 62
     4
  0
POLYLINE
  5
5AD
  8
0
  6
CONTINUOUS
 62
     4
 66
     1
 10
0.0
 20
0.0
 30
0.0
  0
VERTEX
  5
5AE
  8
0
  6
CONTINUOUS
 62
     4
 10
-126.2176352883801
 20
-51.32921505874005
 30
0.0
  0
VERTEX
  5
5AF
  8
0
  6
CONTINUOUS
 62
     4
 10
-125.8398908520801
 20
-51.26983593504005
 30
0.0
  0
VERTEX
  5
5B0
  8
0
  6
CONTINUOUS
 62
     4
 10
-125.5885715926801
 20
-51.10719363014005
 30
0.0
  0
SEQEND
  5
5B1
  8
0
  6
CONTINUOUS
 62
     4
  0
POLYLINE
  5
5B2
  8
0
  6
CONTINUOUS
 62
     4
 66
     1
 10
0.0
 20
0.0
 30
0.0
  0
VERTEX
  5
5B3
  8
0
  6
CONTINUOUS
 62
     4
 10
-125.5885715926801
 20
-51.10719363014005
 30
0.0
  0
VERTEX
  5
5B4
  8
0
  6
CONTINUOUS
 62
     4
 10
-125.3948564971801
 20
-50.77194045754004
 30
0.0
  0
VERTEX
  5
5B5
  8
0
  6
CONTINUOUS
 62
     4
 10
-125.3531853998801
 20
-50.46887737254005
 30
0.0
  0
SEQEND
  5
5B6
  8
0
  6
CONTINUOUS
 62
     4
  0
ARC
  5
5B7
  8
0
  6
CONTINUOUS
 62
     4
 10
-126.1207966965801
 20
-50.45765694314005
 30
0.0
 40
0.7676932987217225
 50
359.1625481911005
 51
58.54022304019887
  0
POLYLINE
  5
5B8
  8
0
  6
CONTINUOUS
 62
     4
 66
     1
 10
0.0
 20
0.0
 30
0.0
  0
VERTEX
  5
5B9
  8
0
  6
CONTINUOUS
 62
     4
 10
-125.7201376701801
 20
-49.80280936894005
 30
0.0
  0
VERTEX
  5
5BA
  8
0
  6
CONTINUOUS
 62
     4
 10
-126.4233644450801
 20
-49.29207586324004
 30
0.0
  0
VERTEX
  5
5BB
  8
0
  6
CONTINUOUS
 62
     4
 10
-126.9515435541801
 20
-48.85921271454005
 30
0.0
  0
SEQEND
  5
5BC
  8
0
  6
CONTINUOUS
 62
     4
  0
POLYLINE
  5
5BD
  8
0
  6
CONTINUOUS
 62
     4
 66
     1
 10
0.0
 20
0.0
 30
0.0
  0
VERTEX
  5
5BE
  8
0
  6
CONTINUOUS
 62
     4
 10
-126.9515435541801
 20
-48.85921271454005
 30
0.0
  0
VERTEX
  5
5BF
  8
0
  6
CONTINUOUS
 62
     4
 10
-127.3041124785801
 20
-48.36098184424004
 30
0.0
  0
VERTEX
  5
5C0
  8
0
  6
CONTINUOUS
 62
     4
 10
-127.3976433420801
 20
-47.88786431414005
 30
0.0
  0
SEQEND
  5
5C1
  8
0
  6
CONTINUOUS
 62
     4
  0
POLYLINE
  5
5C2
  8
0
  6
CONTINUOUS
 62
     4
 66
     1
 10
0.0
 20
0.0
 30
0.0
  0
VERTEX
  5
5C3
  8
0
  6
CONTINUOUS
 62
     4
 10
-127.3976433420801
 20
-47.88786431414005
 30
0.0
  0
VERTEX
  5
5C4
  8
0
  6
CONTINUOUS
 62
     4
 10
-127.2882874453801
 20
-47.26772252324005
 30
0.0
  0
VERTEX
  5
5C5
  8
0
  6
CONTINUOUS
 62
     4
 10
-127.0039658392801
 20
-46.86100869154005
 30
0.0
  0
SEQEND
  5
5C6
  8
0
  6
CONTINUOUS
 62
     4
  0
POLYLINE
  5
5C7
  8
0
  6
CONTINUOUS
 62
     4
 66
     1
 10
0.0
 20
0.0
 30
0.0
  0
VERTEX
  5
5C8
  8
0
  6
CONTINUOUS
 62
     4
 10
-127.0039658392801
 20
-46.86100869154005
 30
0.0
  0
VERTEX
  5
5C9
  8
0
  6
CONTINUOUS
 62
     4
 10
-126.5573296094801
 20
-46.55434574704005
 30
0.0
  0
VERTEX
  5
5CA
  8
0
  6
CONTINUOUS
 62
     4
 10
-126.1395159507801
 20
-46.47246933254004
 30
0.0
  0
SEQEND
  5
5CB
  8
0
  6
CONTINUOUS
 62
     4
  0
POLYLINE
  5
5CC
  8
0
  6
CONTINUOUS
 62
     4
 66
     1
 10
0.0
 20
0.0
 30
0.0
  0
VERTEX
  5
5CD
  8
0
  6
CONTINUOUS
 62
     4
 10
-126.1395159507801
 20
-46.47246933254004
 30
0.0
  0
VERTEX
  5
5CE
  8
0
  6
CONTINUOUS
 62
     4
 10
-125.6024706507801
 20
-46.56588319854005
 30
0.0
  0
VERTEX
  5
5CF
  8
0
  6
CONTINUOUS
 62
     4
 10
-125.2483408296801
 20
-46.80550147544005
 30
0.0
  0
SEQEND
  5
5D0
  8
0
  6
CONTINUOUS
 62
     4
  0
POLYLINE
  5
5D1
  8
0
  6
CONTINUOUS
 62
     4
 66
     1
 10
0.0
 20
0.0
 30
0.0
  0
VERTEX
  5
5D2
  8
0
  6
CONTINUOUS
 62
     4
 10
-125.2483408296801
 20
-46.80550147544005
 30
0.0
  0
VERTEX
  5
5D3
  8
0
  6
CONTINUOUS
 62
     4
 10
-124.9278578305801
 20
-47.42211048174005
 30
0.0
  0
VERTEX
  5
5D4
  8
0
  6
CONTINUOUS
 62
     4
 10
-124.8813848341801
 20
-47.97112328234005
 30
0.0
  0
SEQEND
  5
5D5
  8
0
  6
CONTINUOUS
 62
     4
  0
LINE
  5
5D6
  8
0
  6
CONTINUOUS
 62
     4
 10
-124.8813848341801
 20
-47.97112328234005
 30
0.0
 11
-125.4837270224801
 21
-47.97112328234005
 31
0.0
  0
POLYLINE
  5
5D7
  8
0
  6
CONTINUOUS
 62
     4
 66
     1
 10
0.0
 20
0.0
 30
0.0
  0
VERTEX
  5
5D8
  8
0
  6
CONTINUOUS
 62
     4
 10
-125.4837270224801
 20
-47.97112328234005
 30
0.0
  0
VERTEX
  5
5D9
  8
0
  6
CONTINUOUS
 62
     4
 10
-125.5162190044801
 20
-47.52485939544005
 30
0.0
  0
VERTEX
  5
5DA
  8
0
  6
CONTINUOUS
 62
     4
 10
-125.6934124375801
 20
-47.22179630444005
 30
0.0
  0
SEQEND
  5
5DB
  8
0
  6
CONTINUOUS
 62
     4
  0
POLYLINE
  5
5DC
  8
0
  6
CONTINUOUS
 62
     4
 66
     1
 10
0.0
 20
0.0
 30
0.0
  0
VERTEX
  5
5DD
  8
0
  6
CONTINUOUS
 62
     4
 10
-125.6934124375801
 20
-47.22179630444005
 30
0.0
  0
VERTEX
  5
5DE
  8
0
  6
CONTINUOUS
 62
     4
 10
-125.9234193111801
 20
-47.06513887354005
 30
0.0
  0
VERTEX
  5
5DF
  8
0
  6
CONTINUOUS
 62
     4
 10
-126.1395159507801
 20
-47.02752662804005
 30
0.0
  0
SEQEND
  5
5E0
  8
0
  6
CONTINUOUS
 62
     4
  0
POLYLINE
  5
5E1
  8
0
  6
CONTINUOUS
 62
     4
 66
     1
 10
0.0
 20
0.0
 30
0.0
  0
VERTEX
  5
5E2
  8
0
  6
CONTINUOUS
 62
     4
 10
-126.1395159507801
 20
-47.02752662804005
 30
0.0
  0
VERTEX
  5
5E3
  8
0
  6
CONTINUOUS
 62
     4
 10
-126.4103967095801
 20
-47.08906343674005
 30
0.0
  0
VERTEX
  5
5E4
  8
0
  6
CONTINUOUS
 62
     4
 10
-126.5845875585801
 20
-47.22179630444005
 30
0.0
  0
SEQEND
  5
5E5
  8
0
  6
CONTINUOUS
 62
     4
  0
POLYLINE
  5
5E6
  8
0
  6
CONTINUOUS
 62
     4
 66
     1
 10
0.0
 20
0.0
 30
0.0
  0
VERTEX
  5
5E7
  8
0
  6
CONTINUOUS
 62
     4
 10
-126.5845875585801
 20
-47.22179630444005
 30
0.0
  0
VERTEX
  5
5E8
  8
0
  6
CONTINUOUS
 62
     4
 10
-126.7746332431801
 20
-47.52598481554004
 30
0.0
  0
VERTEX
  5
5E9
  8
0
  6
CONTINUOUS
 62
     4
 10
-126.8210019315801
 20
-47.80460534594005
 30
0.0
  0
SEQEND
  5
5EA
  8
0
  6
CONTINUOUS
 62
     4
  0
ARC
  5
5EB
  8
0
  6
CONTINUOUS
 62
     4
 10
-125.8863002051801
 20
-47.75419870324005
 30
0.0
 40
0.9360599056229071
 50
183.0868596152996
 51
232.6611865407008
  0
LINE
  5
5EC
  8
0
  6
CONTINUOUS
 62
     4
 10
-130.0675104702801
 20
-49.05348239104005
 30
0.0
 11
-129.4651682818801
 21
-49.05348239104005
 31
0.0
  0
POLYLINE
  5
5ED
  8
0
  6
CONTINUOUS
 62
     4
 66
     1
 10
0.0
 20
0.0
 30
0.0
  0
VERTEX
  5
5EE
  8
0
  6
CONTINUOUS
 62
     4
 10
-129.4651682818801
 20
-49.05348239104005
 30
0.0
  0
VERTEX
  5
5EF
  8
0
  6
CONTINUOUS
 62
     4
 10
-129.0226596737801
 20
-48.97464313824004
 30
0.0
  0
VERTEX
  5
5F0
  8
0
  6
CONTINUOUS
 62
     4
 10
-128.7312600160801
 20
-48.77595374634005
 30
0.0
  0
SEQEND
  5
5F1
  8
0
  6
CONTINUOUS
 62
     4
  0
POLYLINE
  5
5F2
  8
0
  6
CONTINUOUS
 62
     4
 66
     1
 10
0.0
 20
0.0
 30
0.0
  0
VERTEX
  5
5F3
  8
0
  6
CONTINUOUS
 62
     4
 10
-128.7312600160801
 20
-48.77595374634005
 30
0.0
  0
VERTEX
  5
5F4
  8
0
  6
CONTINUOUS
 62
     4
 10
-128.5305115724801
 20
-48.37825820794005
 30
0.0
  0
VERTEX
  5
5F5
  8
0
  6
CONTINUOUS
 62
     4
 10
-128.4948493684801
 20
-48.02662677444005
 30
0.0
  0
SEQEND
  5
5F6
  8
0
  6
CONTINUOUS
 62
     4
  0
POLYLINE
  5
5F7
  8
0
  6
CONTINUOUS
 62
     4
 66
     1
 10
0.0
 20
0.0
 30
0.0
  0
VERTEX
  5
5F8
  8
0
  6
CONTINUOUS
 62
     4
 10
-128.4948493684801
 20
-48.02662677444005
 30
0.0
  0
VERTEX
  5
5F9
  8
0
  6
CONTINUOUS
 62
     4
 10
-128.5559888327801
 20
-47.58185724094005
 30
0.0
  0
VERTEX
  5
5FA
  8
0
  6
CONTINUOUS
 62
     4
 10
-128.7312600160801
 20
-47.27729980264004
 30
0.0
  0
SEQEND
  5
5FB
  8
0
  6
CONTINUOUS
 62
     4
  0
POLYLINE
  5
5FC
  8
0
  6
CONTINUOUS
 62
     4
 66
     1
 10
0.0
 20
0.0
 30
0.0
  0
VERTEX
  5
5FD
  8
0
  6
CONTINUOUS
 62
     4
 10
-128.7312600160801
 20
-47.27729980264004
 30
0.0
  0
VERTEX
  5
5FE
  8
0
  6
CONTINUOUS
 62
     4
 10
-129.1135902846801
 20
-47.04438934584005
 30
0.0
  0
VERTEX
  5
5FF
  8
0
  6
CONTINUOUS
 62
     4
 10
-129.4651682818801
 20
-46.99771781234004
 30
0.0
  0
SEQEND
  5
600
  8
0
  6
CONTINUOUS
 62
     4
  0
LINE
  5
601
  8
0
  6
CONTINUOUS
 62
     4
 10
-129.4651682818801
 20
-46.99771781234004
 30
0.0
 11
-130.0675104702801
 21
-46.99771781234004
 31
0.0
  0
LINE
  5
602
  8
0
  6
CONTINUOUS
 62
     4
 10
-130.0675104702801
 20
-46.99771781234004
 30
0.0
 11
-130.0675104702801
 21
-49.05348239104005
 31
0.0
  0
POLYLINE
  5
603
  8
0
  6
CONTINUOUS
 62
     4
 66
     1
 10
0.0
 20
0.0
 30
0.0
  0
VERTEX
  5
604
  8
0
  6
CONTINUOUS
 62
     4
 10
-129.3079014266801
 20
-46.47246933254004
 30
0.0
  0
VERTEX
  5
605
  8
0
  6
CONTINUOUS
 62
     4
 10
-128.7060398007801
 20
-46.58515327484005
 30
0.0
  0
VERTEX
  5
606
  8
0
  6
CONTINUOUS
 62
     4
 10
-128.3118854606801
 20
-46.86100869154005
 30
0.0
  0
SEQEND
  5
607
  8
0
  6
CONTINUOUS
 62
     4
  0
POLYLINE
  5
608
  8
0
  6
CONTINUOUS
 62
     4
 66
     1
 10
0.0
 20
0.0
 30
0.0
  0
VERTEX
  5
609
  8
0
  6
CONTINUOUS
 62
     4
 10
-128.3118854606801
 20
-46.86100869154005
 30
0.0
  0
VERTEX
  5
60A
  8
0
  6
CONTINUOUS
 62
     4
 10
-127.9822829509801
 20
-47.47697300454004
 30
0.0
  0
VERTEX
  5
60B
  8
0
  6
CONTINUOUS
 62
     4
 10
-127.9182042325801
 20
-48.02662677444005
 30
0.0
  0
SEQEND
  5
60C
  8
0
  6
CONTINUOUS
 62
     4
  0
POLYLINE
  5
60D
  8
0
  6
CONTINUOUS
 62
     4
 66
     1
 10
0.0
 20
0.0
 30
0.0
  0
VERTEX
  5
60E
  8
0
  6
CONTINUOUS
 62
     4
 10
-127.9182042325801
 20
-48.02662677444005
 30
0.0
  0
VERTEX
  5
60F
  8
0
  6
CONTINUOUS
 62
     4
 10
-128.0267256642801
 20
-48.72089744064004
 30
0.0
  0
VERTEX
  5
610
  8
0
  6
CONTINUOUS
 62
     4
 10
-128.3118854606801
 20
-49.19224858144004
 30
0.0
  0
SEQEND
  5
611
  8
0
  6
CONTINUOUS
 62
     4
  0
POLYLINE
  5
612
  8
0
  6
CONTINUOUS
 62
     4
 66
     1
 10
0.0
 20
0.0
 30
0.0
  0
VERTEX
  5
613
  8
0
  6
CONTINUOUS
 62
     4
 10
-128.3118854606801
 20
-49.19224858144004
 30
0.0
  0
VERTEX
  5
614
  8
0
  6
CONTINUOUS
 62
     4
 10
-128.8304011667801
 20
-49.51192842864005
 30
0.0
  0
VERTEX
  5
615
  8
0
  6
CONTINUOUS
 62
     4
 10
-129.3079014266801
 20
-49.57873087694004
 30
0.0
  0
SEQEND
  5
616
  8
0
  6
CONTINUOUS
 62
     4
  0
LINE
  5
617
  8
0
  6
CONTINUOUS
 62
     4
 10
-129.3079014266801
 20
-49.57873087694004
 30
0.0
 11
-130.0675104702801
 21
-49.57873087694004
 31
0.0
  0
LINE
  5
618
  8
0
  6
CONTINUOUS
 62
     4
 10
-130.0675104702801
 20
-49.57873087694004
 30
0.0
 11
-130.0675104702801
 21
-51.88221529064005
 31
0.0
  0
LINE
  5
619
  8
0
  6
CONTINUOUS
 62
     4
 10
-130.0675104702801
 20
-51.88221529064005
 30
0.0
 11
-130.6873205447801
 21
-51.88221529064005
 31
0.0
  0
LINE
  5
61A
  8
0
  6
CONTINUOUS
 62
     4
 10
-130.6873205447801
 20
-46.47246933254004
 30
0.0
 11
-129.3079014266801
 21
-46.47246933254004
 31
0.0
  0
LINE
  5
61B
  8
0
  6
CONTINUOUS
 62
     4
 10
-130.6873205447801
 20
-51.88221529064005
 30
0.0
 11
-130.6873205447801
 21
-46.47246933254004
 31
0.0
  0
LINE
  5
61C
  8
0
  6
CONTINUOUS
 62
     4
 10
-124.2724265301801
 20
-46.47246933254004
 30
0.0
 11
-121.5033102179801
 21
-46.47246933254004
 31
0.0
  0
LINE
  5
61D
  8
0
  6
CONTINUOUS
 62
     4
 10
-121.5033102179801
 20
-46.47246933254004
 30
0.0
 11
-121.5033102179801
 21
-46.99771781234004
 31
0.0
  0
LINE
  5
61E
  8
0
  6
CONTINUOUS
 62
     4
 10
-121.5033102179801
 20
-46.99771781234004
 30
0.0
 11
-123.6526127303801
 21
-46.99771781234004
 31
0.0
  0
LINE
  5
61F
  8
0
  6
CONTINUOUS
 62
     4
 10
-123.6526127303801
 20
-46.99771781234004
 30
0.0
 11
-123.6526127303801
 21
-48.80370549234004
 31
0.0
  0
LINE
  5
620
  8
0
  6
CONTINUOUS
 62
     4
 10
-123.6526127303801
 20
-48.80370549234004
 30
0.0
 11
-122.0275293434801
 21
-48.80370549234004
 31
0.0
  0
LINE
  5
621
  8
0
  6
CONTINUOUS
 62
     4
 10
-122.0275293434801
 20
-48.80370549234004
 30
0.0
 11
-122.0275293434801
 21
-49.32895397824005
 31
0.0
  0
LINE
  5
622
  8
0
  6
CONTINUOUS
 62
     4
 10
-122.0275293434801
 20
-49.32895397824005
 30
0.0
 11
-123.6526127303801
 21
-49.32895397824005
 31
0.0
  0
LINE
  5
623
  8
0
  6
CONTINUOUS
 62
     4
 10
-123.6526127303801
 20
-49.32895397824005
 30
0.0
 11
-123.6526127303801
 21
-51.88221529064005
 31
0.0
  0
LINE
  5
624
  8
0
  6
CONTINUOUS
 62
     4
 10
-123.6526127303801
 20
-51.88221529064005
 30
0.0
 11
-124.2724265301801
 21
-51.88221529064005
 31
0.0
  0
LINE
  5
625
  8
0
  6
CONTINUOUS
 62
     4
 10
-124.2724265301801
 20
-51.88221529064005
 30
0.0
 11
-124.2724265301801
 21
-46.47246933254004
 31
0.0
  0
POLYLINE
  5
626
  8
0
  6
CONTINUOUS
 62
     4
 66
     1
 10
0.0
 20
0.0
 30
0.0
  0
VERTEX
  5
627
  8
0
  6
CONTINUOUS
 62
     4
 10
-107.6009868974801
 20
-50.35786665824004
 30
0.0
  0
VERTEX
  5
628
  8
0
  6
CONTINUOUS
 62
     4
 10
-107.5324210668801
 20
-50.85172999194005
 30
0.0
  0
VERTEX
  5
629
  8
0
  6
CONTINUOUS
 62
     4
 10
-107.3388754720801
 20
-51.19045259834004
 30
0.0
  0
SEQEND
  5
62A
  8
0
  6
CONTINUOUS
 62
     4
  0
POLYLINE
  5
62B
  8
0
  6
CONTINUOUS
 62
     4
 66
     1
 10
0.0
 20
0.0
 30
0.0
  0
VERTEX
  5
62C
  8
0
  6
CONTINUOUS
 62
     4
 10
-107.3388754720801
 20
-51.19045259834004
 30
0.0
  0
VERTEX
  5
62D
  8
0
  6
CONTINUOUS
 62
     4
 10
-107.1056667114801
 20
-51.32920760454004
 30
0.0
  0
VERTEX
  5
62E
  8
0
  6
CONTINUOUS
 62
     4
 10
-106.8927738214801
 20
-51.35697052874005
 30
0.0
  0
SEQEND
  5
62F
  8
0
  6
CONTINUOUS
 62
     4
  0
POLYLINE
  5
630
  8
0
  6
CONTINUOUS
 62
     4
 66
     1
 10
0.0
 20
0.0
 30
0.0
  0
VERTEX
  5
631
  8
0
  6
CONTINUOUS
 62
     4
 10
-106.8927738214801
 20
-51.35697052874005
 30
0.0
  0
VERTEX
  5
632
  8
0
  6
CONTINUOUS
 62
     4
 10
-106.6208239043801
 20
-51.27773625634005
 30
0.0
  0
VERTEX
  5
633
  8
0
  6
CONTINUOUS
 62
     4
 10
-106.4477003509801
 20
-51.13494538224005
 30
0.0
  0
SEQEND
  5
634
  8
0
  6
CONTINUOUS
 62
     4
  0
ARC
  5
635
  8
0
  6
CONTINUOUS
 62
     4
 10
-107.7145266990801
 20
-50.17639607124005
 30
0.0
 40
1.588604978545608
 50
322.8868806129997
 51
5.47479069490013
  0
POLYLINE
  5
636
  8
0
  6
CONTINUOUS
 62
     4
 66
     1
 10
0.0
 20
0.0
 30
0.0
  0
VERTEX
  5
637
  8
0
  6
CONTINUOUS
 62
     4
 10
-106.1331685031801
 20
-50.02483079144005
 30
0.0
  0
VERTEX
  5
638
  8
0
  6
CONTINUOUS
 62
     4
 10
-106.1928513789801
 20
-49.43816848074005
 30
0.0
  0
VERTEX
  5
639
  8
0
  6
CONTINUOUS
 62
     4
 10
-106.3952799285801
 20
-49.02573064494004
 30
0.0
  0
SEQEND
  5
63A
  8
0
  6
CONTINUOUS
 62
     4
  0
POLYLINE
  5
63B
  8
0
  6
CONTINUOUS
 62
     4
 66
     1
 10
0.0
 20
0.0
 30
0.0
  0
VERTEX
  5
63C
  8
0
  6
CONTINUOUS
 62
     4
 10
-106.3952799285801
 20
-49.02573064494004
 30
0.0
  0
VERTEX
  5
63D
  8
0
  6
CONTINUOUS
 62
     4
 10
-106.5837833429801
 20
-48.89262138974004
 30
0.0
  0
VERTEX
  5
63E
  8
0
  6
CONTINUOUS
 62
     4
 10
-106.7622340614801
 20
-48.85921271454005
 30
0.0
  0
SEQEND
  5
63F
  8
0
  6
CONTINUOUS
 62
     4
  0
ARC
  5
640
  8
0
  6
CONTINUOUS
 62
     4
 10
-106.7102010348801
 20
-49.71345113144005
 30
0.0
 40
0.855821657032963
 50
93.4856708406996
 51
161.5089529096001
  0
LINE
  5
641
  8
0
  6
CONTINUOUS
 62
     4
 10
-107.5218393797801
 20
-49.44202175604005
 30
0.0
 11
-108.0799791360801
 21
-49.44202175604005
 31
0.0
  0
LINE
  5
642
  8
0
  6
CONTINUOUS
 62
     4
 10
-108.0799791360801
 20
-49.44202175604005
 30
0.0
 11
-107.9227141434801
 21
-46.47246933254004
 31
0.0
  0
LINE
  5
643
  8
0
  6
CONTINUOUS
 62
     4
 10
-107.9227141434801
 20
-46.47246933254004
 30
0.0
 11
-105.6346464300801
 21
-46.47246933254004
 31
0.0
  0
LINE
  5
644
  8
0
  6
CONTINUOUS
 62
     4
 10
-105.6346464300801
 20
-46.47246933254004
 30
0.0
 11
-105.6346464300801
 21
-46.99771781234004
 31
0.0
  0
LINE
  5
645
  8
0
  6
CONTINUOUS
 62
     4
 10
-105.6346464300801
 20
-46.99771781234004
 30
0.0
 11
-107.3912977571801
 21
-46.99771781234004
 31
0.0
  0
LINE
  5
646
  8
0
  6
CONTINUOUS
 62
     4
 10
-107.3912977571801
 20
-46.99771781234004
 30
0.0
 11
-107.4961423272801
 21
-48.80370549234004
 31
0.0
  0
POLYLINE
  5
647
  8
0
  6
CONTINUOUS
 62
     4
 66
     1
 10
0.0
 20
0.0
 30
0.0
  0
VERTEX
  5
648
  8
0
  6
CONTINUOUS
 62
     4
 10
-107.4961423272801
 20
-48.80370549234004
 30
0.0
  0
VERTEX
  5
649
  8
0
  6
CONTINUOUS
 62
     4
 10
-107.0579364294801
 20
-48.46875044194005
 30
0.0
  0
VERTEX
  5
64A
  8
0
  6
CONTINUOUS
 62
     4
 10
-106.6306642586801
 20
-48.38741438734004
 30
0.0
  0
SEQEND
  5
64B
  8
0
  6
CONTINUOUS
 62
     4
  0
POLYLINE
  5
64C
  8
0
  6
CONTINUOUS
 62
     4
 66
     1
 10
0.0
 20
0.0
 30
0.0
  0
VERTEX
  5
64D
  8
0
  6
CONTINUOUS
 62
     4
 10
-106.6306642586801
 20
-48.38741438734004
 30
0.0
  0
VERTEX
  5
64E
  8
0
  6
CONTINUOUS
 62
     4
 10
-106.2158364201801
 20
-48.48685037954004
 30
0.0
  0
VERTEX
  5
64F
  8
0
  6
CONTINUOUS
 62
     4
 10
-105.9491782779801
 20
-48.69269478414004
 30
0.0
  0
SEQEND
  5
650
  8
0
  6
CONTINUOUS
 62
     4
  0
POLYLINE
  5
651
  8
0
  6
CONTINUOUS
 62
     4
 66
     1
 10
0.0
 20
0.0
 30
0.0
  0
VERTEX
  5
652
  8
0
  6
CONTINUOUS
 62
     4
 10
-105.9491782779801
 20
-48.69269478414004
 30
0.0
  0
VERTEX
  5
653
  8
0
  6
CONTINUOUS
 62
     4
 10
-105.5932398284801
 20
-49.39993390434005
 30
0.0
  0
VERTEX
  5
654
  8
0
  6
CONTINUOUS
 62
     4
 10
-105.5298018599801
 20
-50.02483079144005
 30
0.0
  0
SEQEND
  5
655
  8
0
  6
CONTINUOUS
 62
     4
  0
POLYLINE
  5
656
  8
0
  6
CONTINUOUS
 62
     4
 66
     1
 10
0.0
 20
0.0
 30
0.0
  0
VERTEX
  5
657
  8
0
  6
CONTINUOUS
 62
     4
 10
-105.5298018599801
 20
-50.02483079144005
 30
0.0
  0
VERTEX
  5
658
  8
0
  6
CONTINUOUS
 62
     4
 10
-105.6669670487801
 20
-50.90126724844005
 30
0.0
  0
VERTEX
  5
659
  8
0
  6
CONTINUOUS
 62
     4
 10
-106.0283257956801
 20
-51.49573299514005
 30
0.0
  0
SEQEND
  5
65A
  8
0
  6
CONTINUOUS
 62
     4
  0
POLYLINE
  5
65B
  8
0
  6
CONTINUOUS
 62
     4
 66
     1
 10
0.0
 20
0.0
 30
0.0
  0
VERTEX
  5
65C
  8
0
  6
CONTINUOUS
 62
     4
 10
-106.0283257956801
 20
-51.49573299514005
 30
0.0
  0
VERTEX
  5
65D
  8
0
  6
CONTINUOUS
 62
     4
 10
-106.4881160253801
 20
-51.80725911144005
 30
0.0
  0
VERTEX
  5
65E
  8
0
  6
CONTINUOUS
 62
     4
 10
-106.9194990540801
 20
-51.88221529064005
 30
0.0
  0
SEQEND
  5
65F
  8
0
  6
CONTINUOUS
 62
     4
  0
POLYLINE
  5
660
  8
0
  6
CONTINUOUS
 62
     4
 66
     1
 10
0.0
 20
0.0
 30
0.0
  0
VERTEX
  5
661
  8
0
  6
CONTINUOUS
 62
     4
 10
-106.9194990540801
 20
-51.88221529064005
 30
0.0
  0
VERTEX
  5
662
  8
0
  6
CONTINUOUS
 62
     4
 10
-107.4408329421801
 20
-51.78683006844005
 30
0.0
  0
VERTEX
  5
663
  8
0
  6
CONTINUOUS
 62
     4
 10
-107.7839489424801
 20
-51.55124021124004
 30
0.0
  0
SEQEND
  5
664
  8
0
  6
CONTINUOUS
 62
     4
  0
POLYLINE
  5
665
  8
0
  6
CONTINUOUS
 62
     4
 66
     1
 10
0.0
 20
0.0
 30
0.0
  0
VERTEX
  5
666
  8
0
  6
CONTINUOUS
 62
     4
 10
-107.7839489424801
 20
-51.55124021124004
 30
0.0
  0
VERTEX
  5
667
  8
0
  6
CONTINUOUS
 62
     4
 10
-108.1244125360801
 20
-50.92013858714004
 30
0.0
  0
VERTEX
  5
668
  8
0
  6
CONTINUOUS
 62
     4
 10
-108.2033253604801
 20
-50.35786665824004
 30
0.0
  0
SEQEND
  5
669
  8
0
  6
CONTINUOUS
 62
     4
  0
LINE
  5
66A
  8
0
  6
CONTINUOUS
 62
     4
 10
-108.2033253604801
 20
-50.35786665824004
 30
0.0
 11
-107.6009868974801
 21
-50.35786665824004
 31
0.0
  0
LINE
  5
66B
  8
0
  6
CONTINUOUS
 62
     4
 10
-110.6378044331801
 20
-51.88221529064005
 30
0.0
 11
-109.3539781267801
 21
-46.99771781234004
 31
0.0
  0
LINE
  5
66C
  8
0
  6
CONTINUOUS
 62
     4
 10
-109.3539781267801
 20
-46.99771781234004
 30
0.0
 11
-111.2935933614801
 21
-46.99771781234004
 31
0.0
  0
LINE
  5
66D
  8
0
  6
CONTINUOUS
 62
     4
 10
-111.2935933614801
 20
-46.99771781234004
 30
0.0
 11
-111.2935933614801
 21
-46.47246933254004
 31
0.0
  0
LINE
  5
66E
  8
0
  6
CONTINUOUS
 62
     4
 10
-111.2935933614801
 20
-46.47246933254004
 30
0.0
 11
-108.8030337686801
 21
-46.47246933254004
 31
0.0
  0
LINE
  5
66F
  8
0
  6
CONTINUOUS
 62
     4
 10
-108.8030337686801
 20
-46.47246933254004
 30
0.0
 11
-108.8030337686801
 21
-47.05527837404004
 31
0.0
  0
LINE
  5
670
  8
0
  6
CONTINUOUS
 62
     4
 10
-108.8030337686801
 20
-47.05527837404004
 30
0.0
 11
-110.0354659701801
 21
-51.88221529064005
 31
0.0
  0
LINE
  5
671
  8
0
  6
CONTINUOUS
 62
     4
 10
-110.0354659701801
 20
-51.88221529064005
 30
0.0
 11
-110.6378044331801
 21
-51.88221529064005
 31
0.0
  0
ARC
  5
672
  8
0
  6
CONTINUOUS
 62
     4
 10
-93.48457942488014
 20
-47.83100556584004
 30
0.0
 40
1.133903452423702
 50
144.1108009673006
 51
185.6869613367003
  0
LINE
  5
673
  8
0
  6
CONTINUOUS
 62
     4
 10
-94.61290197028012
 20
-47.94336780624005
 30
0.0
 11
-94.61290197028012
 21
-47.97112328234005
 31
0.0
  0
POLYLINE
  5
674
  8
0
  6
CONTINUOUS
 62
     4
 66
     1
 10
0.0
 20
0.0
 30
0.0
  0
VERTEX
  5
675
  8
0
  6
CONTINUOUS
 62
     4
 10
-94.61290197028012
 20
-47.97112328234005
 30
0.0
  0
VERTEX
  5
676
  8
0
  6
CONTINUOUS
 62
     4
 10
-94.56150227738013
 20
-48.39723389224005
 30
0.0
  0
VERTEX
  5
677
  8
0
  6
CONTINUOUS
 62
     4
 10
-94.40321376128011
 20
-48.69269478414004
 30
0.0
  0
SEQEND
  5
678
  8
0
  6
CONTINUOUS
 62
     4
  0
POLYLINE
  5
679
  8
0
  6
CONTINUOUS
 62
     4
 66
     1
 10
0.0
 20
0.0
 30
0.0
  0
VERTEX
  5
67A
  8
0
  6
CONTINUOUS
 62
     4
 10
-94.40321376128011
 20
-48.69269478414004
 30
0.0
  0
VERTEX
  5
67B
  8
0
  6
CONTINUOUS
 62
     4
 10
-94.17321061298011
 20
-48.84934849104005
 30
0.0
  0
VERTEX
  5
67C
  8
0
  6
CONTINUOUS
 62
     4
 10
-93.95711304198014
 20
-48.88696446064004
 30
0.0
  0
SEQEND
  5
67D
  8
0
  6
CONTINUOUS
 62
     4
  0
POLYLINE
  5
67E
  8
0
  6
CONTINUOUS
 62
     4
 66
     1
 10
0.0
 20
0.0
 30
0.0
  0
VERTEX
  5
67F
  8
0
  6
CONTINUOUS
 62
     4
 10
-93.95711304198014
 20
-48.88696446064004
 30
0.0
  0
VERTEX
  5
680
  8
0
  6
CONTINUOUS
 62
     4
 10
-93.68623321458014
 20
-48.82542765194005
 30
0.0
  0
VERTEX
  5
681
  8
0
  6
CONTINUOUS
 62
     4
 10
-93.51203957148013
 20
-48.69269478414004
 30
0.0
  0
SEQEND
  5
682
  8
0
  6
CONTINUOUS
 62
     4
  0
ARC
  5
683
  8
0
  6
CONTINUOUS
 62
     4
 10
-94.32550333348013
 20
-48.06504936474005
 30
0.0
 40
1.02745416668746
 50
322.3472473152001
 51
5.245092369200275
  0
LINE
  5
684
  8
0
  6
CONTINUOUS
 62
     4
 10
-93.30235136248012
 20
-47.97112328234005
 30
0.0
 11
-93.30235136248012
 21
-47.94336780624005
 31
0.0
  0
POLYLINE
  5
685
  8
0
  6
CONTINUOUS
 62
     4
 66
     1
 10
0.0
 20
0.0
 30
0.0
  0
VERTEX
  5
686
  8
0
  6
CONTINUOUS
 62
     4
 10
-93.30235136248012
 20
-47.94336780624005
 30
0.0
  0
VERTEX
  5
687
  8
0
  6
CONTINUOUS
 62
     4
 10
-93.35089375778011
 20
-47.48635277104005
 30
0.0
  0
VERTEX
  5
688
  8
0
  6
CONTINUOUS
 62
     4
 10
-93.51203957148013
 20
-47.16628908834005
 30
0.0
  0
SEQEND
  5
689
  8
0
  6
CONTINUOUS
 62
     4
  0
POLYLINE
  5
68A
  8
0
  6
CONTINUOUS
 62
     4
 66
     1
 10
0.0
 20
0.0
 30
0.0
  0
VERTEX
  5
68B
  8
0
  6
CONTINUOUS
 62
     4
 10
-93.51203957148013
 20
-47.16628908834005
 30
0.0
  0
VERTEX
  5
68C
  8
0
  6
CONTINUOUS
 62
     4
 10
-93.74135819778013
 20
-47.00944905274005
 30
0.0
  0
VERTEX
  5
68D
  8
0
  6
CONTINUOUS
 62
     4
 10
-93.95711304198014
 20
-46.97201940584004
 30
0.0
  0
SEQEND
  5
68E
  8
0
  6
CONTINUOUS
 62
     4
  0
POLYLINE
  5
68F
  8
0
  6
CONTINUOUS
 62
     4
 66
     1
 10
0.0
 20
0.0
 30
0.0
  0
VERTEX
  5
690
  8
0
  6
CONTINUOUS
 62
     4
 10
-93.95711304198014
 20
-46.97201940584004
 30
0.0
  0
VERTEX
  5
691
  8
0
  6
CONTINUOUS
 62
     4
 10
-94.22850323418012
 20
-47.03367546214005
 30
0.0
  0
VERTEX
  5
692
  8
0
  6
CONTINUOUS
 62
     4
 10
-94.40321376128011
 20
-47.16628908834005
 30
0.0
  0
SEQEND
  5
693
  8
0
  6
CONTINUOUS
 62
     4
  0
POLYLINE
  5
694
  8
0
  6
CONTINUOUS
 62
     4
 66
     1
 10
0.0
 20
0.0
 30
0.0
  0
VERTEX
  5
695
  8
0
  6
CONTINUOUS
 62
     4
 10
-94.45563604638014
 20
-49.58078794034004
 30
0.0
  0
VERTEX
  5
696
  8
0
  6
CONTINUOUS
 62
     4
 10
-94.67359626248012
 20
-49.97581152634005
 30
0.0
  0
VERTEX
  5
697
  8
0
  6
CONTINUOUS
 62
     4
 10
-94.71774654038012
 20
-50.33011491224005
 30
0.0
  0
SEQEND
  5
698
  8
0
  6
CONTINUOUS
 62
     4
  0
POLYLINE
  5
699
  8
0
  6
CONTINUOUS
 62
     4
 66
     1
 10
0.0
 20
0.0
 30
0.0
  0
VERTEX
  5
69A
  8
0
  6
CONTINUOUS
 62
     4
 10
-94.71774654038012
 20
-50.33011491224005
 30
0.0
  0
VERTEX
  5
69B
  8
0
  6
CONTINUOUS
 62
     4
 10
-94.64918070978013
 20
-50.82397824594004
 30
0.0
  0
VERTEX
  5
69C
  8
0
  6
CONTINUOUS
 62
     4
 10
-94.45563604638014
 20
-51.16269712834004
 30
0.0
  0
SEQEND
  5
69D
  8
0
  6
CONTINUOUS
 62
     4
  0
POLYLINE
  5
69E
  8
0
  6
CONTINUOUS
 62
     4
 66
     1
 10
0.0
 20
0.0
 30
0.0
  0
VERTEX
  5
69F
  8
0
  6
CONTINUOUS
 62
     4
 10
-94.45563604638014
 20
-51.16269712834004
 30
0.0
  0
VERTEX
  5
6A0
  8
0
  6
CONTINUOUS
 62
     4
 10
-94.19904270718013
 20
-51.34067425714005
 30
0.0
  0
VERTEX
  5
6A1
  8
0
  6
CONTINUOUS
 62
     4
 10
-93.95711304198014
 20
-51.38472228094005
 30
0.0
  0
SEQEND
  5
6A2
  8
0
  6
CONTINUOUS
 62
     4
  0
POLYLINE
  5
6A3
  8
0
  6
CONTINUOUS
 62
     4
 66
     1
 10
0.0
 20
0.0
 30
0.0
  0
VERTEX
  5
6A4
  8
0
  6
CONTINUOUS
 62
     4
 10
-93.95711304198014
 20
-51.38472228094005
 30
0.0
  0
VERTEX
  5
6A5
  8
0
  6
CONTINUOUS
 62
     4
 10
-93.65432237788013
 20
-51.31252376124004
 30
0.0
  0
VERTEX
  5
6A6
  8
0
  6
CONTINUOUS
 62
     4
 10
-93.45961728638014
 20
-51.16269712834004
 30
0.0
  0
SEQEND
  5
6A7
  8
0
  6
CONTINUOUS
 62
     4
  0
POLYLINE
  5
6A8
  8
0
  6
CONTINUOUS
 62
     4
 66
     1
 10
0.0
 20
0.0
 30
0.0
  0
VERTEX
  5
6A9
  8
0
  6
CONTINUOUS
 62
     4
 10
-93.45961728638014
 20
-51.16269712834004
 30
0.0
  0
VERTEX
  5
6AA
  8
0
  6
CONTINUOUS
 62
     4
 10
-93.23749498978012
 20
-50.72059581104004
 30
0.0
  0
VERTEX
  5
6AB
  8
0
  6
CONTINUOUS
 62
     4
 10
-93.19750679238012
 20
-50.33011491224005
 30
0.0
  0
SEQEND
  5
6AC
  8
0
  6
CONTINUOUS
 62
     4
  0
POLYLINE
  5
6AD
  8
0
  6
CONTINUOUS
 62
     4
 66
     1
 10
0.0
 20
0.0
 30
0.0
  0
VERTEX
  5
6AE
  8
0
  6
CONTINUOUS
 62
     4
 10
-93.19750679238012
 20
-50.33011491224005
 30
0.0
  0
VERTEX
  5
6AF
  8
0
  6
CONTINUOUS
 62
     4
 10
-93.27197813938014
 20
-49.88300137114005
 30
0.0
  0
VERTEX
  5
6B0
  8
0
  6
CONTINUOUS
 62
     4
 10
-93.45961728638014
 20
-49.58078794034004
 30
0.0
  0
SEQEND
  5
6B1
  8
0
  6
CONTINUOUS
 62
     4
  0
POLYLINE
  5
6B2
  8
0
  6
CONTINUOUS
 62
     4
 66
     1
 10
0.0
 20
0.0
 30
0.0
  0
VERTEX
  5
6B3
  8
0
  6
CONTINUOUS
 62
     4
 10
-93.45961728638014
 20
-49.58078794034004
 30
0.0
  0
VERTEX
  5
6B4
  8
0
  6
CONTINUOUS
 62
     4
 10
-93.71570678008013
 20
-49.40287416244004
 30
0.0
  0
VERTEX
  5
6B5
  8
0
  6
CONTINUOUS
 62
     4
 10
-93.95711304198014
 20
-49.35876278784005
 30
0.0
  0
SEQEND
  5
6B6
  8
0
  6
CONTINUOUS
 62
     4
  0
POLYLINE
  5
6B7
  8
0
  6
CONTINUOUS
 62
     4
 66
     1
 10
0.0
 20
0.0
 30
0.0
  0
VERTEX
  5
6B8
  8
0
  6
CONTINUOUS
 62
     4
 10
-93.95711304198014
 20
-49.35876278784005
 30
0.0
  0
VERTEX
  5
6B9
  8
0
  6
CONTINUOUS
 62
     4
 10
-94.26061523658012
 20
-49.43067808124005
 30
0.0
  0
VERTEX
  5
6BA
  8
0
  6
CONTINUOUS
 62
     4
 10
-94.45563604638014
 20
-49.58078794034004
 30
0.0
  0
SEQEND
  5
6BB
  8
0
  6
CONTINUOUS
 62
     4
  0
POLYLINE
  5
6BC
  8
0
  6
CONTINUOUS
 62
     4
 66
     1
 10
0.0
 20
0.0
 30
0.0
  0
VERTEX
  5
6BD
  8
0
  6
CONTINUOUS
 62
     4
 10
-93.43289205378014
 20
-49.10898961314005
 30
0.0
  0
VERTEX
  5
6BE
  8
0
  6
CONTINUOUS
 62
     4
 10
-93.18132319998014
 20
-49.23959461854005
 30
0.0
  0
VERTEX
  5
6BF
  8
0
  6
CONTINUOUS
 62
     4
 10
-93.01351656718012
 20
-49.38651825784005
 30
0.0
  0
SEQEND
  5
6C0
  8
0
  6
CONTINUOUS
 62
     4
  0
POLYLINE
  5
6C1
  8
0
  6
CONTINUOUS
 62
     4
 66
     1
 10
0.0
 20
0.0
 30
0.0
  0
VERTEX
  5
6C2
  8
0
  6
CONTINUOUS
 62
     4
 10
-93.01351656718012
 20
-49.38651825784005
 30
0.0
  0
VERTEX
  5
6C3
  8
0
  6
CONTINUOUS
 62
     4
 10
-92.68506424078012
 20
-49.87623764814005
 30
0.0
  0
VERTEX
  5
6C4
  8
0
  6
CONTINUOUS
 62
     4
 10
-92.59414014918013
 20
-50.33011491224005
 30
0.0
  0
SEQEND
  5
6C5
  8
0
  6
CONTINUOUS
 62
     4
  0
POLYLINE
  5
6C6
  8
0
  6
CONTINUOUS
 62
     4
 66
     1
 10
0.0
 20
0.0
 30
0.0
  0
VERTEX
  5
6C7
  8
0
  6
CONTINUOUS
 62
     4
 10
-92.59414014918013
 20
-50.33011491224005
 30
0.0
  0
VERTEX
  5
6C8
  8
0
  6
CONTINUOUS
 62
     4
 10
-92.71327958948012
 20
-51.04246315974005
 30
0.0
  0
VERTEX
  5
6C9
  8
0
  6
CONTINUOUS
 62
     4
 10
-93.01351656718012
 20
-51.52348474124005
 30
0.0
  0
SEQEND
  5
6CA
  8
0
  6
CONTINUOUS
 62
     4
  0
POLYLINE
  5
6CB
  8
0
  6
CONTINUOUS
 62
     4
 66
     1
 10
0.0
 20
0.0
 30
0.0
  0
VERTEX
  5
6CC
  8
0
  6
CONTINUOUS
 62
     4
 10
-93.01351656718012
 20
-51.52348474124005
 30
0.0
  0
VERTEX
  5
6CD
  8
0
  6
CONTINUOUS
 62
     4
 10
-93.50548585458012
 20
-51.82173682714004
 30
0.0
  0
VERTEX
  5
6CE
  8
0
  6
CONTINUOUS
 62
     4
 10
-93.95711304198014
 20
-51.88221529064005
 30
0.0
  0
SEQEND
  5
6CF
  8
0
  6
CONTINUOUS
 62
     4
  0
POLYLINE
  5
6D0
  8
0
  6
CONTINUOUS
 62
     4
 66
     1
 10
0.0
 20
0.0
 30
0.0
  0
VERTEX
  5
6D1
  8
0
  6
CONTINUOUS
 62
     4
 10
-93.95711304198014
 20
-51.88221529064005
 30
0.0
  0
VERTEX
  5
6D2
  8
0
  6
CONTINUOUS
 62
     4
 10
-94.52637372118014
 20
-51.78031230704005
 30
0.0
  0
VERTEX
  5
6D3
  8
0
  6
CONTINUOUS
 62
     4
 10
-94.90070951678013
 20
-51.52348474124005
 30
0.0
  0
SEQEND
  5
6D4
  8
0
  6
CONTINUOUS
 62
     4
  0
POLYLINE
  5
6D5
  8
0
  6
CONTINUOUS
 62
     4
 66
     1
 10
0.0
 20
0.0
 30
0.0
  0
VERTEX
  5
6D6
  8
0
  6
CONTINUOUS
 62
     4
 10
-94.90070951678013
 20
-51.52348474124005
 30
0.0
  0
VERTEX
  5
6D7
  8
0
  6
CONTINUOUS
 62
     4
 10
-95.24960437368011
 20
-50.89463023324005
 30
0.0
  0
VERTEX
  5
6D8
  8
0
  6
CONTINUOUS
 62
     4
 10
-95.32008593478014
 20
-50.33011491224005
 30
0.0
  0
SEQEND
  5
6D9
  8
0
  6
CONTINUOUS
 62
     4
  0
POLYLINE
  5
6DA
  8
0
  6
CONTINUOUS
 62
     4
 66
     1
 10
0.0
 20
0.0
 30
0.0
  0
VERTEX
  5
6DB
  8
0
  6
CONTINUOUS
 62
     4
 10
-95.32008593478014
 20
-50.33011491224005
 30
0.0
  0
VERTEX
  5
6DC
  8
0
  6
CONTINUOUS
 62
     4
 10
-95.17499891618013
 20
-49.76130285954005
 30
0.0
  0
VERTEX
  5
6DD
  8
0
  6
CONTINUOUS
 62
     4
 10
-94.90070951678013
 20
-49.38651825784005
 30
0.0
  0
SEQEND
  5
6DE
  8
0
  6
CONTINUOUS
 62
     4
  0
POLYLINE
  5
6DF
  8
0
  6
CONTINUOUS
 62
     4
 66
     1
 10
0.0
 20
0.0
 30
0.0
  0
VERTEX
  5
6E0
  8
0
  6
CONTINUOUS
 62
     4
 10
-94.90070951678013
 20
-49.38651825784005
 30
0.0
  0
VERTEX
  5
6E1
  8
0
  6
CONTINUOUS
 62
     4
 10
-94.68223614198013
 20
-49.20565304364004
 30
0.0
  0
VERTEX
  5
6E2
  8
0
  6
CONTINUOUS
 62
     4
 10
-94.48133309878014
 20
-49.10898961314005
 30
0.0
  0
SEQEND
  5
6E3
  8
0
  6
CONTINUOUS
 62
     4
  0
POLYLINE
  5
6E4
  8
0
  6
CONTINUOUS
 62
     4
 66
     1
 10
0.0
 20
0.0
 30
0.0
  0
VERTEX
  5
6E5
  8
0
  6
CONTINUOUS
 62
     4
 10
-94.48133309878014
 20
-49.10898961314005
 30
0.0
  0
VERTEX
  5
6E6
  8
0
  6
CONTINUOUS
 62
     4
 10
-94.68453744008013
 20
-49.00273027104005
 30
0.0
  0
VERTEX
  5
6E7
  8
0
  6
CONTINUOUS
 62
     4
 10
-94.82259017928013
 20
-48.88696446064004
 30
0.0
  0
SEQEND
  5
6E8
  8
0
  6
CONTINUOUS
 62
     4
  0
POLYLINE
  5
6E9
  8
0
  6
CONTINUOUS
 62
     4
 66
     1
 10
0.0
 20
0.0
 30
0.0
  0
VERTEX
  5
6EA
  8
0
  6
CONTINUOUS
 62
     4
 10
-94.82259017928013
 20
-48.88696446064004
 30
0.0
  0
VERTEX
  5
6EB
  8
0
  6
CONTINUOUS
 62
     4
 10
-95.11850302618012
 20
-48.40864464194004
 30
0.0
  0
VERTEX
  5
6EC
  8
0
  6
CONTINUOUS
 62
     4
 10
-95.18954431218012
 20
-47.97112328234005
 30
0.0
  0
SEQEND
  5
6ED
  8
0
  6
CONTINUOUS
 62
     4
  0
LINE
  5
6EE
  8
0
  6
CONTINUOUS
 62
     4
 10
-95.18954431218012
 20
-47.97112328234005
 30
0.0
 11
-95.18954431218012
 21
-47.94336780624005
 31
0.0
  0
POLYLINE
  5
6EF
  8
0
  6
CONTINUOUS
 62
     4
 66
     1
 10
0.0
 20
0.0
 30
0.0
  0
VERTEX
  5
6F0
  8
0
  6
CONTINUOUS
 62
     4
 10
-95.18954431218012
 20
-47.94336780624005
 30
0.0
  0
VERTEX
  5
6F1
  8
0
  6
CONTINUOUS
 62
     4
 10
-95.07663355718012
 20
-47.28042266544004
 30
0.0
  0
VERTEX
  5
6F2
  8
0
  6
CONTINUOUS
 62
     4
 10
-94.79586587798013
 20
-46.83325694544004
 30
0.0
  0
SEQEND
  5
6F3
  8
0
  6
CONTINUOUS
 62
     4
  0
POLYLINE
  5
6F4
  8
0
  6
CONTINUOUS
 62
     4
 66
     1
 10
0.0
 20
0.0
 30
0.0
  0
VERTEX
  5
6F5
  8
0
  6
CONTINUOUS
 62
     4
 10
-94.79586587798013
 20
-46.83325694544004
 30
0.0
  0
VERTEX
  5
6F6
  8
0
  6
CONTINUOUS
 62
     4
 10
-94.36293219728012
 20
-46.54153380524005
 30
0.0
  0
VERTEX
  5
6F7
  8
0
  6
CONTINUOUS
 62
     4
 10
-93.95711304198014
 20
-46.47246933254004
 30
0.0
  0
SEQEND
  5
6F8
  8
0
  6
CONTINUOUS
 62
     4
  0
POLYLINE
  5
6F9
  8
0
  6
CONTINUOUS
 62
     4
 66
     1
 10
0.0
 20
0.0
 30
0.0
  0
VERTEX
  5
6FA
  8
0
  6
CONTINUOUS
 62
     4
 10
-93.95711304198014
 20
-46.47246933254004
 30
0.0
  0
VERTEX
  5
6FB
  8
0
  6
CONTINUOUS
 62
     4
 10
-93.44768238768012
 20
-46.58634577594005
 30
0.0
  0
VERTEX
  5
6FC
  8
0
  6
CONTINUOUS
 62
     4
 10
-93.11836020598014
 20
-46.83325694544004
 30
0.0
  0
SEQEND
  5
6FD
  8
0
  6
CONTINUOUS
 62
     4
  0
POLYLINE
  5
6FE
  8
0
  6
CONTINUOUS
 62
     4
 66
     1
 10
0.0
 20
0.0
 30
0.0
  0
VERTEX
  5
6FF
  8
0
  6
CONTINUOUS
 62
     4
 10
-93.11836020598014
 20
-46.83325694544004
 30
0.0
  0
VERTEX
  5
700
  8
0
  6
CONTINUOUS
 62
     4
 10
-92.79263292948013
 20
-47.41799262464005
 30
0.0
  0
VERTEX
  5
701
  8
0
  6
CONTINUOUS
 62
     4
 10
-92.72570902058013
 20
-47.94336780624005
 30
0.0
  0
SEQEND
  5
702
  8
0
  6
CONTINUOUS
 62
     4
  0
LINE
  5
703
  8
0
  6
CONTINUOUS
 62
     4
 10
-92.72570902058013
 20
-47.94336780624005
 30
0.0
 11
-92.72570902058013
 21
-47.97112328234005
 31
0.0
  0
POLYLINE
  5
704
  8
0
  6
CONTINUOUS
 62
     4
 66
     1
 10
0.0
 20
0.0
 30
0.0
  0
VERTEX
  5
705
  8
0
  6
CONTINUOUS
 62
     4
 10
-92.72570902058013
 20
-47.97112328234005
 30
0.0
  0
VERTEX
  5
706
  8
0
  6
CONTINUOUS
 62
     4
 10
-92.84177975308012
 20
-48.52142919954005
 30
0.0
  0
VERTEX
  5
707
  8
0
  6
CONTINUOUS
 62
     4
 10
-93.09266315348012
 20
-48.88696446064004
 30
0.0
  0
SEQEND
  5
708
  8
0
  6
CONTINUOUS
 62
     4
  0
POLYLINE
  5
709
  8
0
  6
CONTINUOUS
 62
     4
 66
     1
 10
0.0
 20
0.0
 30
0.0
  0
VERTEX
  5
70A
  8
0
  6
CONTINUOUS
 62
     4
 10
-93.09266315348012
 20
-48.88696446064004
 30
0.0
  0
VERTEX
  5
70B
  8
0
  6
CONTINUOUS
 62
     4
 10
-93.27151247808013
 20
-49.02939758554005
 30
0.0
  0
VERTEX
  5
70C
  8
0
  6
CONTINUOUS
 62
     4
 10
-93.43289205378014
 20
-49.10898961314005
 30
0.0
  0
SEQEND
  5
70D
  8
0
  6
CONTINUOUS
 62
     4
  0
LINE
  5
70E
  8
0
  6
CONTINUOUS
 62
     4
 10
-109.7011472428801
 20
-59.88222736574005
 30
0.0
 11
-108.4679196918801
 21
-54.99865035274004
 31
0.0
  0
LINE
  5
70F
  8
0
  6
CONTINUOUS
 62
     4
 10
-108.4679196918801
 20
-54.99865035274004
 30
0.0
 11
-110.3311199093801
 21
-54.99865035274004
 31
0.0
  0
LINE
  5
710
  8
0
  6
CONTINUOUS
 62
     4
 10
-110.3311199093801
 20
-54.99865035274004
 30
0.0
 11
-110.3311199093801
 21
-54.47349504034004
 31
0.0
  0
LINE
  5
711
  8
0
  6
CONTINUOUS
 62
     4
 10
-110.3311199093801
 20
-54.47349504034004
 30
0.0
 11
-107.9386583859801
 21
-54.47349504034004
 31
0.0
  0
LINE
  5
712
  8
0
  6
CONTINUOUS
 62
     4
 10
-107.9386583859801
 20
-54.47349504034004
 30
0.0
 11
-107.9386583859801
 21
-55.05619601224005
 31
0.0
  0
LINE
  5
713
  8
0
  6
CONTINUOUS
 62
     4
 10
-107.9386583859801
 20
-55.05619601224005
 30
0.0
 11
-109.1225575054801
 21
-59.88222736574005
 31
0.0
  0
LINE
  5
714
  8
0
  6
CONTINUOUS
 62
     4
 10
-109.1225575054801
 20
-59.88222736574005
 30
0.0
 11
-109.7011472428801
 21
-59.88222736574005
 31
0.0
  0
ARC
  5
715
  8
0
  6
CONTINUOUS
 62
     4
 10
-131.5905470843801
 20
-57.50446807814005
 30
0.0
 40
2.911555863875785
 50
329.8096554858001
 51
6.145729648699934
  0
POLYLINE
  5
716
  8
0
  6
CONTINUOUS
 62
     4
 66
     1
 10
0.0
 20
0.0
 30
0.0
  0
VERTEX
  5
717
  8
0
  6
CONTINUOUS
 62
     4
 10
-128.6957244718801
 20
-57.19276374574005
 30
0.0
  0
VERTEX
  5
718
  8
0
  6
CONTINUOUS
 62
     4
 10
-128.7785451257801
 20
-56.12788223174005
 30
0.0
  0
VERTEX
  5
719
  8
0
  6
CONTINUOUS
 62
     4
 10
-129.0985810900801
 20
-55.36142423014005
 30
0.0
  0
SEQEND
  5
71A
  8
0
  6
CONTINUOUS
 62
     4
  0
POLYLINE
  5
71B
  8
0
  6
CONTINUOUS
 62
     4
 66
     1
 10
0.0
 20
0.0
 30
0.0
  0
VERTEX
  5
71C
  8
0
  6
CONTINUOUS
 62
     4
 10
-129.0985810900801
 20
-55.36142423014005
 30
0.0
  0
VERTEX
  5
71D
  8
0
  6
CONTINUOUS
 62
     4
 10
-129.4979284847801
 20
-55.07159418704005
 30
0.0
  0
VERTEX
  5
71E
  8
0
  6
CONTINUOUS
 62
     4
 10
-129.8796254540801
 20
-54.99865035274004
 30
0.0
  0
SEQEND
  5
71F
  8
0
  6
CONTINUOUS
 62
     4
  0
LINE
  5
720
  8
0
  6
CONTINUOUS
 62
     4
 10
-129.8796254540801
 20
-54.99865035274004
 30
0.0
 11
-130.1560717964801
 21
-54.99865035274004
 31
0.0
  0
LINE
  5
721
  8
0
  6
CONTINUOUS
 62
     4
 10
-130.1560717964801
 20
-54.99865035274004
 30
0.0
 11
-130.1560717964801
 21
-59.35707950134005
 31
0.0
  0
LINE
  5
722
  8
0
  6
CONTINUOUS
 62
     4
 10
-130.1560717964801
 20
-59.35707950134005
 30
0.0
 11
-129.8796254540801
 21
-59.35707950134005
 31
0.0
  0
POLYLINE
  5
723
  8
0
  6
CONTINUOUS
 62
     4
 66
     1
 10
0.0
 20
0.0
 30
0.0
  0
VERTEX
  5
724
  8
0
  6
CONTINUOUS
 62
     4
 10
-129.8796254540801
 20
-59.35707950134005
 30
0.0
  0
VERTEX
  5
725
  8
0
  6
CONTINUOUS
 62
     4
 10
-129.3862182045801
 20
-59.22521118984005
 30
0.0
  0
VERTEX
  5
726
  8
0
  6
CONTINUOUS
 62
     4
 10
-129.0739159429801
 20
-58.96861467144005
 30
0.0
  0
SEQEND
  5
727
  8
0
  6
CONTINUOUS
 62
     4
  0
POLYLINE
  5
728
  8
0
  6
CONTINUOUS
 62
     4
 66
     1
 10
0.0
 20
0.0
 30
0.0
  0
VERTEX
  5
729
  8
0
  6
CONTINUOUS
 62
     4
 10
-129.8796254540801
 20
-54.47349504034004
 30
0.0
  0
VERTEX
  5
72A
  8
0
  6
CONTINUOUS
 62
     4
 10
-129.1303391898801
 20
-54.61962119824005
 30
0.0
  0
VERTEX
  5
72B
  8
0
  6
CONTINUOUS
 62
     4
 10
-128.6453697229801
 20
-54.97295195224005
 30
0.0
  0
SEQEND
  5
72C
  8
0
  6
CONTINUOUS
 62
     4
  0
ARC
  5
72D
  8
0
  6
CONTINUOUS
 62
     4
 10
-131.3602943606801
 20
-56.86590197034005
 30
0.0
 40
3.309694179113342
 50
354.3322927616999
 51
34.88569342950018
  0
POLYLINE
  5
72E
  8
0
  6
CONTINUOUS
 62
     4
 66
     1
 10
0.0
 20
0.0
 30
0.0
  0
VERTEX
  5
72F
  8
0
  6
CONTINUOUS
 62
     4
 10
-128.0667799854801
 20
-57.19276374574005
 30
0.0
  0
VERTEX
  5
730
  8
0
  6
CONTINUOUS
 62
     4
 10
-128.1836386168801
 20
-58.44231902454004
 30
0.0
  0
VERTEX
  5
731
  8
0
  6
CONTINUOUS
 62
     4
 10
-128.5950112486801
 20
-59.32933147934004
 30
0.0
  0
SEQEND
  5
732
  8
0
  6
CONTINUOUS
 62
     4
  0
POLYLINE
  5
733
  8
0
  6
CONTINUOUS
 62
     4
 66
     1
 10
0.0
 20
0.0
 30
0.0
  0
VERTEX
  5
734
  8
0
  6
CONTINUOUS
 62
     4
 10
-128.5950112486801
 20
-59.32933147934004
 30
0.0
  0
VERTEX
  5
735
  8
0
  6
CONTINUOUS
 62
     4
 10
-129.2566675091801
 20
-59.77869587274004
 30
0.0
  0
VERTEX
  5
736
  8
0
  6
CONTINUOUS
 62
     4
 10
-129.8796254540801
 20
-59.88222736574005
 30
0.0
  0
SEQEND
  5
737
  8
0
  6
CONTINUOUS
 62
     4
  0
LINE
  5
738
  8
0
  6
CONTINUOUS
 62
     4
 10
-129.8796254540801
 20
-59.88222736574005
 30
0.0
 11
-130.7521331454801
 21
-59.88222736574005
 31
0.0
  0
LINE
  5
739
  8
0
  6
CONTINUOUS
 62
     4
 10
-130.7521331454801
 20
-59.88222736574005
 30
0.0
 11
-130.7521331454801
 21
-54.47349504034004
 31
0.0
  0
LINE
  5
73A
  8
0
  6
CONTINUOUS
 62
     4
 10
-130.7521331454801
 20
-54.47349504034004
 30
0.0
 11
-129.8796254540801
 21
-54.47349504034004
 31
0.0
  0
LINE
  5
73B
  8
0
  6
CONTINUOUS
 62
     4
 10
-120.4647551620801
 20
-58.08068548154004
 30
0.0
 11
-120.4647551620801
 21
-55.63889697804005
 31
0.0
  0
LINE
  5
73C
  8
0
  6
CONTINUOUS
 62
     4
 10
-120.4647551620801
 20
-55.63889697804005
 30
0.0
 11
-121.5808260584801
 21
-58.08068548154004
 31
0.0
  0
LINE
  5
73D
  8
0
  6
CONTINUOUS
 62
     4
 10
-121.5808260584801
 20
-58.08068548154004
 30
0.0
 11
-120.4647551620801
 21
-58.08068548154004
 31
0.0
  0
LINE
  5
73E
  8
0
  6
CONTINUOUS
 62
     4
 10
-120.4647551620801
 20
-59.88222736574005
 30
0.0
 11
-120.4647551620801
 21
-58.60584079394005
 31
0.0
  0
LINE
  5
73F
  8
0
  6
CONTINUOUS
 62
     4
 10
-120.4647551620801
 20
-58.60584079394005
 30
0.0
 11
-122.1347506488801
 21
-58.60584079394005
 31
0.0
  0
LINE
  5
740
  8
0
  6
CONTINUOUS
 62
     4
 10
-122.1347506488801
 20
-58.60584079394005
 30
0.0
 11
-122.1347506488801
 21
-58.08068548154004
 31
0.0
  0
LINE
  5
741
  8
0
  6
CONTINUOUS
 62
     4
 10
-122.1347506488801
 20
-58.08068548154004
 30
0.0
 11
-120.4472835505801
 21
-54.47349504034004
 31
0.0
  0
LINE
  5
742
  8
0
  6
CONTINUOUS
 62
     4
 10
-120.4472835505801
 20
-54.47349504034004
 30
0.0
 11
-119.8686938131801
 21
-54.47349504034004
 31
0.0
  0
LINE
  5
743
  8
0
  6
CONTINUOUS
 62
     4
 10
-119.8686938131801
 20
-54.47349504034004
 30
0.0
 11
-119.8686938131801
 21
-58.08068548154004
 31
0.0
  0
LINE
  5
744
  8
0
  6
CONTINUOUS
 62
     4
 10
-119.8686938131801
 20
-58.08068548154004
 30
0.0
 11
-119.3394343698801
 21
-58.08068548154004
 31
0.0
  0
LINE
  5
745
  8
0
  6
CONTINUOUS
 62
     4
 10
-119.3394343698801
 20
-58.08068548154004
 30
0.0
 11
-119.3394343698801
 21
-58.60584079394005
 31
0.0
  0
LINE
  5
746
  8
0
  6
CONTINUOUS
 62
     4
 10
-119.3394343698801
 20
-58.60584079394005
 30
0.0
 11
-119.8686938131801
 21
-58.60584079394005
 31
0.0
  0
LINE
  5
747
  8
0
  6
CONTINUOUS
 62
     4
 10
-119.8686938131801
 20
-58.60584079394005
 30
0.0
 11
-119.8686938131801
 21
-59.88222736574005
 31
0.0
  0
LINE
  5
748
  8
0
  6
CONTINUOUS
 62
     4
 10
-119.8686938131801
 20
-59.88222736574005
 30
0.0
 11
-120.4647551620801
 21
-59.88222736574005
 31
0.0
  0
LINE
  5
749
  8
0
  6
CONTINUOUS
 62
     4
 10
-127.8515811408801
 20
-59.88222736574005
 30
0.0
 11
-127.8515811408801
 21
-54.47349504034004
 31
0.0
  0
LINE
  5
74A
  8
0
  6
CONTINUOUS
 62
     4
 10
-127.8515811408801
 20
-54.47349504034004
 30
0.0
 11
-127.2555235172801
 21
-54.47349504034004
 31
0.0
  0
LINE
  5
74B
  8
0
  6
CONTINUOUS
 62
     4
 10
-127.2555235172801
 20
-54.47349504034004
 30
0.0
 11
-127.2555235172801
 21
-56.74880287784005
 31
0.0
  0
LINE
  5
74C
  8
0
  6
CONTINUOUS
 62
     4
 10
-127.2555235172801
 20
-56.74880287784005
 30
0.0
 11
-125.8208657944801
 21
-54.47349504034004
 31
0.0
  0
LINE
  5
74D
  8
0
  6
CONTINUOUS
 62
     4
 10
-125.8208657944801
 20
-54.47349504034004
 30
0.0
 11
-125.1405383790801
 21
-54.47349504034004
 31
0.0
  0
LINE
  5
74E
  8
0
  6
CONTINUOUS
 62
     4
 10
-125.1405383790801
 20
-54.47349504034004
 30
0.0
 11
-126.4755073333801
 21
-56.61006277384004
 31
0.0
  0
LINE
  5
74F
  8
0
  6
CONTINUOUS
 62
     4
 10
-126.4755073333801
 20
-56.61006277384004
 30
0.0
 11
-125.0398251558801
 21
-59.88222736574005
 31
0.0
  0
LINE
  5
750
  8
0
  6
CONTINUOUS
 62
     4
 10
-125.0398251558801
 20
-59.88222736574005
 30
0.0
 11
-125.6944629693801
 21
-59.88222736574005
 31
0.0
  0
LINE
  5
751
  8
0
  6
CONTINUOUS
 62
     4
 10
-125.6944629693801
 20
-59.88222736574005
 30
0.0
 11
-126.8526668990801
 21
-57.13726770784005
 31
0.0
  0
LINE
  5
752
  8
0
  6
CONTINUOUS
 62
     4
 10
-126.8526668990801
 20
-57.13726770784005
 30
0.0
 11
-127.2555235172801
 21
-57.74771669564005
 31
0.0
  0
LINE
  5
753
  8
0
  6
CONTINUOUS
 62
     4
 10
-127.2555235172801
 20
-57.74771669564005
 30
0.0
 11
-127.2555235172801
 21
-59.88222736574005
 31
0.0
  0
LINE
  5
754
  8
0
  6
CONTINUOUS
 62
     4
 10
-127.2555235172801
 20
-59.88222736574005
 30
0.0
 11
-127.8515811408801
 21
-59.88222736574005
 31
0.0
  0
POLYLINE
  5
755
  8
0
  6
CONTINUOUS
 62
     4
 66
     1
 10
0.0
 20
0.0
 30
0.0
  0
VERTEX
  5
756
  8
0
  6
CONTINUOUS
 62
     4
 10
-106.9773584002801
 20
-58.35816568354005
 30
0.0
  0
VERTEX
  5
757
  8
0
  6
CONTINUOUS
 62
     4
 10
-106.9125420743801
 20
-58.85012474194005
 30
0.0
  0
VERTEX
  5
758
  8
0
  6
CONTINUOUS
 62
     4
 10
-106.7255734796801
 20
-59.19059138134004
 30
0.0
  0
SEQEND
  5
759
  8
0
  6
CONTINUOUS
 62
     4
  0
POLYLINE
  5
75A
  8
0
  6
CONTINUOUS
 62
     4
 66
     1
 10
0.0
 20
0.0
 30
0.0
  0
VERTEX
  5
75B
  8
0
  6
CONTINUOUS
 62
     4
 10
-106.7255734796801
 20
-59.19059138134004
 30
0.0
  0
VERTEX
  5
75C
  8
0
  6
CONTINUOUS
 62
     4
 10
-106.5026670093801
 20
-59.32886193054004
 30
0.0
  0
VERTEX
  5
75D
  8
0
  6
CONTINUOUS
 62
     4
 10
-106.2970272595801
 20
-59.35707950134005
 30
0.0
  0
SEQEND
  5
75E
  8
0
  6
CONTINUOUS
 62
     4
  0
POLYLINE
  5
75F
  8
0
  6
CONTINUOUS
 62
     4
 66
     1
 10
0.0
 20
0.0
 30
0.0
  0
VERTEX
  5
760
  8
0
  6
CONTINUOUS
 62
     4
 10
-106.2970272595801
 20
-59.35707950134005
 30
0.0
  0
VERTEX
  5
761
  8
0
  6
CONTINUOUS
 62
     4
 10
-106.0343607658801
 20
-59.27709991414005
 30
0.0
  0
VERTEX
  5
762
  8
0
  6
CONTINUOUS
 62
     4
 10
-105.8695092195801
 20
-59.13509534334004
 30
0.0
  0
SEQEND
  5
763
  8
0
  6
CONTINUOUS
 62
     4
  0
POLYLINE
  5
764
  8
0
  6
CONTINUOUS
 62
     4
 66
     1
 10
0.0
 20
0.0
 30
0.0
  0
VERTEX
  5
765
  8
0
  6
CONTINUOUS
 62
     4
 10
-105.8695092195801
 20
-59.13509534334004
 30
0.0
  0
VERTEX
  5
766
  8
0
  6
CONTINUOUS
 62
     4
 10
-105.6085340077801
 20
-58.53990292034004
 30
0.0
  0
VERTEX
  5
767
  8
0
  6
CONTINUOUS
 62
     4
 10
-105.5673676872801
 20
-58.02518944354004
 30
0.0
  0
SEQEND
  5
768
  8
0
  6
CONTINUOUS
 62
     4
  0
POLYLINE
  5
769
  8
0
  6
CONTINUOUS
 62
     4
 66
     1
 10
0.0
 20
0.0
 30
0.0
  0
VERTEX
  5
76A
  8
0
  6
CONTINUOUS
 62
     4
 10
-105.5673676872801
 20
-58.02518944354004
 30
0.0
  0
VERTEX
  5
76B
  8
0
  6
CONTINUOUS
 62
     4
 10
-105.6237182909801
 20
-57.44049102894004
 30
0.0
  0
VERTEX
  5
76C
  8
0
  6
CONTINUOUS
 62
     4
 10
-105.8191526079801
 20
-57.02627562574004
 30
0.0
  0
SEQEND
  5
76D
  8
0
  6
CONTINUOUS
 62
     4
  0
POLYLINE
  5
76E
  8
0
  6
CONTINUOUS
 62
     4
 66
     1
 10
0.0
 20
0.0
 30
0.0
  0
VERTEX
  5
76F
  8
0
  6
CONTINUOUS
 62
     4
 10
-105.8191526079801
 20
-57.02627562574004
 30
0.0
  0
VERTEX
  5
770
  8
0
  6
CONTINUOUS
 62
     4
 10
-105.9990394259801
 20
-56.89347567094005
 30
0.0
  0
VERTEX
  5
771
  8
0
  6
CONTINUOUS
 62
     4
 10
-106.1716488892801
 20
-56.85979495384005
 30
0.0
  0
SEQEND
  5
772
  8
0
  6
CONTINUOUS
 62
     4
  0
ARC
  5
773
  8
0
  6
CONTINUOUS
 62
     4
 10
-106.1108268961801
 20
-57.68414763144004
 30
0.0
 40
0.8265934018691703
 50
94.21972376440041
 51
163.0015088149001
  0
LINE
  5
774
  8
0
  6
CONTINUOUS
 62
     4
 10
-106.9013084614801
 20
-57.44249592574005
 30
0.0
 11
-107.4377633029801
 21
-57.44249592574005
 31
0.0
  0
LINE
  5
775
  8
0
  6
CONTINUOUS
 62
     4
 10
-107.4377633029801
 20
-57.44249592574005
 30
0.0
 11
-107.2866934681801
 21
-54.47349504034004
 31
0.0
  0
LINE
  5
776
  8
0
  6
CONTINUOUS
 62
     4
 10
-107.2866934681801
 20
-54.47349504034004
 30
0.0
 11
-105.0884648556801
 21
-54.47349504034004
 31
0.0
  0
LINE
  5
777
  8
0
  6
CONTINUOUS
 62
     4
 10
-105.0884648556801
 20
-54.47349504034004
 30
0.0
 11
-105.0884648556801
 21
-54.99865035274004
 31
0.0
  0
LINE
  5
778
  8
0
  6
CONTINUOUS
 62
     4
 10
-105.0884648556801
 20
-54.99865035274004
 30
0.0
 11
-106.7759319538801
 21
-54.99865035274004
 31
0.0
  0
LINE
  5
779
  8
0
  6
CONTINUOUS
 62
     4
 10
-106.7759319538801
 20
-54.99865035274004
 30
0.0
 11
-106.8766451770801
 21
-56.80429891584005
 31
0.0
  0
POLYLINE
  5
77A
  8
0
  6
CONTINUOUS
 62
     4
 66
     1
 10
0.0
 20
0.0
 30
0.0
  0
VERTEX
  5
77B
  8
0
  6
CONTINUOUS
 62
     4
 10
-106.8766451770801
 20
-56.80429891584005
 30
0.0
  0
VERTEX
  5
77C
  8
0
  6
CONTINUOUS
 62
     4
 10
-106.4586750561801
 20
-56.47062207984004
 30
0.0
  0
VERTEX
  5
77D
  8
0
  6
CONTINUOUS
 62
     4
 10
-106.0452442014801
 20
-56.38808606394005
 30
0.0
  0
SEQEND
  5
77E
  8
0
  6
CONTINUOUS
 62
     4
  0
POLYLINE
  5
77F
  8
0
  6
CONTINUOUS
 62
     4
 66
     1
 10
0.0
 20
0.0
 30
0.0
  0
VERTEX
  5
780
  8
0
  6
CONTINUOUS
 62
     4
 10
-106.0452442014801
 20
-56.38808606394005
 30
0.0
  0
VERTEX
  5
781
  8
0
  6
CONTINUOUS
 62
     4
 10
-105.6447214776801
 20
-56.48859903964005
 30
0.0
  0
VERTEX
  5
782
  8
0
  6
CONTINUOUS
 62
     4
 10
-105.3906063879801
 20
-56.69330683384004
 30
0.0
  0
SEQEND
  5
783
  8
0
  6
CONTINUOUS
 62
     4
  0
POLYLINE
  5
784
  8
0
  6
CONTINUOUS
 62
     4
 66
     1
 10
0.0
 20
0.0
 30
0.0
  0
VERTEX
  5
785
  8
0
  6
CONTINUOUS
 62
     4
 10
-105.3906063879801
 20
-56.69330683384004
 30
0.0
  0
VERTEX
  5
786
  8
0
  6
CONTINUOUS
 62
     4
 10
-105.0483192647801
 20
-57.40315082534005
 30
0.0
  0
VERTEX
  5
787
  8
0
  6
CONTINUOUS
 62
     4
 10
-104.9877516324801
 20
-58.02518944354004
 30
0.0
  0
SEQEND
  5
788
  8
0
  6
CONTINUOUS
 62
     4
  0
POLYLINE
  5
789
  8
0
  6
CONTINUOUS
 62
     4
 66
     1
 10
0.0
 20
0.0
 30
0.0
  0
VERTEX
  5
78A
  8
0
  6
CONTINUOUS
 62
     4
 10
-104.9877516324801
 20
-58.02518944354004
 30
0.0
  0
VERTEX
  5
78B
  8
0
  6
CONTINUOUS
 62
     4
 10
-105.1181163037801
 20
-58.89800367264004
 30
0.0
  0
VERTEX
  5
78C
  8
0
  6
CONTINUOUS
 62
     4
 10
-105.4666544640801
 20
-59.49581959934005
 30
0.0
  0
SEQEND
  5
78D
  8
0
  6
CONTINUOUS
 62
     4
  0
POLYLINE
  5
78E
  8
0
  6
CONTINUOUS
 62
     4
 66
     1
 10
0.0
 20
0.0
 30
0.0
  0
VERTEX
  5
78F
  8
0
  6
CONTINUOUS
 62
     4
 10
-105.4666544640801
 20
-59.49581959934005
 30
0.0
  0
VERTEX
  5
790
  8
0
  6
CONTINUOUS
 62
     4
 10
-105.9058233494801
 20
-59.80619048504005
 30
0.0
  0
VERTEX
  5
791
  8
0
  6
CONTINUOUS
 62
     4
 10
-106.3227205867801
 20
-59.88222736574005
 30
0.0
  0
SEQEND
  5
792
  8
0
  6
CONTINUOUS
 62
     4
  0
POLYLINE
  5
793
  8
0
  6
CONTINUOUS
 62
     4
 66
     1
 10
0.0
 20
0.0
 30
0.0
  0
VERTEX
  5
794
  8
0
  6
CONTINUOUS
 62
     4
 10
-106.3227205867801
 20
-59.88222736574005
 30
0.0
  0
VERTEX
  5
795
  8
0
  6
CONTINUOUS
 62
     4
 10
-106.8259234870801
 20
-59.78585088544004
 30
0.0
  0
VERTEX
  5
796
  8
0
  6
CONTINUOUS
 62
     4
 10
-107.1530933821801
 20
-59.55130818924005
 30
0.0
  0
SEQEND
  5
797
  8
0
  6
CONTINUOUS
 62
     4
  0
POLYLINE
  5
798
  8
0
  6
CONTINUOUS
 62
     4
 66
     1
 10
0.0
 20
0.0
 30
0.0
  0
VERTEX
  5
799
  8
0
  6
CONTINUOUS
 62
     4
 10
-107.1530933821801
 20
-59.55130818924005
 30
0.0
  0
VERTEX
  5
79A
  8
0
  6
CONTINUOUS
 62
     4
 10
-107.4811834240801
 20
-58.91791100024005
 30
0.0
  0
VERTEX
  5
79B
  8
0
  6
CONTINUOUS
 62
     4
 10
-107.5559481377801
 20
-58.35816568354005
 30
0.0
  0
SEQEND
  5
79C
  8
0
  6
CONTINUOUS
 62
     4
  0
LINE
  5
79D
  8
0
  6
CONTINUOUS
 62
     4
 10
-107.5559481377801
 20
-58.35816568354005
 30
0.0
 11
-106.9773584002801
 21
-58.35816568354005
 31
0.0
  0
LINE
  5
79E
  8
0
  6
CONTINUOUS
 62
     4
 10
-122.3663929248801
 20
-59.35707950134005
 30
0.0
 11
-122.3663929248801
 21
-59.88222736574005
 31
0.0
  0
LINE
  5
79F
  8
0
  6
CONTINUOUS
 62
     4
 10
-122.3663929248801
 20
-59.88222736574005
 30
0.0
 11
-124.9345894301801
 21
-59.88222736574005
 31
0.0
  0
LINE
  5
7A0
  8
0
  6
CONTINUOUS
 62
     4
 10
-124.9345894301801
 20
-59.88222736574005
 30
0.0
 11
-124.9345894301801
 21
-59.44032356134005
 31
0.0
  0
POLYLINE
  5
7A1
  8
0
  6
CONTINUOUS
 62
     4
 66
     1
 10
0.0
 20
0.0
 30
0.0
  0
VERTEX
  5
7A2
  8
0
  6
CONTINUOUS
 62
     4
 10
-124.9345894301801
 20
-59.44032356134005
 30
0.0
  0
VERTEX
  5
7A3
  8
0
  6
CONTINUOUS
 62
     4
 10
-124.1914349938801
 20
-58.12744644624004
 30
0.0
  0
VERTEX
  5
7A4
  8
0
  6
CONTINUOUS
 62
     4
 10
-123.4989072526801
 20
-57.16501572374004
 30
0.0
  0
SEQEND
  5
7A5
  8
0
  6
CONTINUOUS
 62
     4
  0
POLYLINE
  5
7A6
  8
0
  6
CONTINUOUS
 62
     4
 66
     1
 10
0.0
 20
0.0
 30
0.0
  0
VERTEX
  5
7A7
  8
0
  6
CONTINUOUS
 62
     4
 10
-123.4989072526801
 20
-57.16501572374004
 30
0.0
  0
VERTEX
  5
7A8
  8
0
  6
CONTINUOUS
 62
     4
 10
-123.1216731811801
 20
-56.48871829344004
 30
0.0
  0
VERTEX
  5
7A9
  8
0
  6
CONTINUOUS
 62
     4
 10
-123.0210307384801
 20
-55.88862915804005
 30
0.0
  0
SEQEND
  5
7AA
  8
0
  6
CONTINUOUS
 62
     4
  0
POLYLINE
  5
7AB
  8
0
  6
CONTINUOUS
 62
     4
 66
     1
 10
0.0
 20
0.0
 30
0.0
  0
VERTEX
  5
7AC
  8
0
  6
CONTINUOUS
 62
     4
 10
-123.0210307384801
 20
-55.88862915804005
 30
0.0
  0
VERTEX
  5
7AD
  8
0
  6
CONTINUOUS
 62
     4
 10
-123.0810749674801
 20
-55.46144529484005
 30
0.0
  0
VERTEX
  5
7AE
  8
0
  6
CONTINUOUS
 62
     4
 10
-123.2471223319801
 20
-55.16718808814005
 30
0.0
  0
SEQEND
  5
7AF
  8
0
  6
CONTINUOUS
 62
     4
  0
POLYLINE
  5
7B0
  8
0
  6
CONTINUOUS
 62
     4
 66
     1
 10
0.0
 20
0.0
 30
0.0
  0
VERTEX
  5
7B1
  8
0
  6
CONTINUOUS
 62
     4
 10
-123.2471223319801
 20
-55.16718808814005
 30
0.0
  0
VERTEX
  5
7B2
  8
0
  6
CONTINUOUS
 62
     4
 10
-123.4551127398801
 20
-55.02975974504005
 30
0.0
  0
VERTEX
  5
7B3
  8
0
  6
CONTINUOUS
 62
     4
 10
-123.6499752248801
 20
-55.00069996814005
 30
0.0
  0
SEQEND
  5
7B4
  8
0
  6
CONTINUOUS
 62
     4
  0
POLYLINE
  5
7B5
  8
0
  6
CONTINUOUS
 62
     4
 66
     1
 10
0.0
 20
0.0
 30
0.0
  0
VERTEX
  5
7B6
  8
0
  6
CONTINUOUS
 62
     4
 10
-123.6499752248801
 20
-55.00069996814005
 30
0.0
  0
VERTEX
  5
7B7
  8
0
  6
CONTINUOUS
 62
     4
 10
-123.8977778101801
 20
-55.08451046834004
 30
0.0
  0
VERTEX
  5
7B8
  8
0
  6
CONTINUOUS
 62
     4
 10
-124.0528318429801
 20
-55.22268412614005
 30
0.0
  0
SEQEND
  5
7B9
  8
0
  6
CONTINUOUS
 62
     4
  0
ARC
  5
7BA
  8
0
  6
CONTINUOUS
 62
     4
 10
-122.6475740828801
 20
-56.07200439104005
 30
0.0
 40
1.641978771082742
 50
148.8517579167
 51
186.2003132845001
  0
LINE
  5
7BB
  8
0
  6
CONTINUOUS
 62
     4
 10
-124.2799478913801
 20
-56.24934596594005
 30
0.0
 11
-124.8338762069801
 21
-56.24934596594005
 31
0.0
  0
POLYLINE
  5
7BC
  8
0
  6
CONTINUOUS
 62
     4
 66
     1
 10
0.0
 20
0.0
 30
0.0
  0
VERTEX
  5
7BD
  8
0
  6
CONTINUOUS
 62
     4
 10
-124.8338762069801
 20
-56.24934596594005
 30
0.0
  0
VERTEX
  5
7BE
  8
0
  6
CONTINUOUS
 62
     4
 10
-124.7168015087801
 20
-55.39983768714005
 30
0.0
  0
VERTEX
  5
7BF
  8
0
  6
CONTINUOUS
 62
     4
 10
-124.4053262615801
 20
-54.80647128024005
 30
0.0
  0
SEQEND
  5
7C0
  8
0
  6
CONTINUOUS
 62
     4
  0
POLYLINE
  5
7C1
  8
0
  6
CONTINUOUS
 62
     4
 66
     1
 10
0.0
 20
0.0
 30
0.0
  0
VERTEX
  5
7C2
  8
0
  6
CONTINUOUS
 62
     4
 10
-124.4053262615801
 20
-54.80647128024005
 30
0.0
  0
VERTEX
  5
7C3
  8
0
  6
CONTINUOUS
 62
     4
 10
-123.9889878178801
 20
-54.53317974034005
 30
0.0
  0
VERTEX
  5
7C4
  8
0
  6
CONTINUOUS
 62
     4
 10
-123.5996204758801
 20
-54.47349504034004
 30
0.0
  0
SEQEND
  5
7C5
  8
0
  6
CONTINUOUS
 62
     4
  0
POLYLINE
  5
7C6
  8
0
  6
CONTINUOUS
 62
     4
 66
     1
 10
0.0
 20
0.0
 30
0.0
  0
VERTEX
  5
7C7
  8
0
  6
CONTINUOUS
 62
     4
 10
-123.5996204758801
 20
-54.47349504034004
 30
0.0
  0
VERTEX
  5
7C8
  8
0
  6
CONTINUOUS
 62
     4
 10
-123.1078486288801
 20
-54.58857143884005
 30
0.0
  0
VERTEX
  5
7C9
  8
0
  6
CONTINUOUS
 62
     4
 10
-122.7939109647801
 20
-54.83421929624005
 30
0.0
  0
SEQEND
  5
7CA
  8
0
  6
CONTINUOUS
 62
     4
  0
POLYLINE
  5
7CB
  8
0
  6
CONTINUOUS
 62
     4
 66
     1
 10
0.0
 20
0.0
 30
0.0
  0
VERTEX
  5
7CC
  8
0
  6
CONTINUOUS
 62
     4
 10
-122.7939109647801
 20
-54.83421929624005
 30
0.0
  0
VERTEX
  5
7CD
  8
0
  6
CONTINUOUS
 62
     4
 10
-122.4982570255801
 20
-55.40833425904005
 30
0.0
  0
VERTEX
  5
7CE
  8
0
  6
CONTINUOUS
 62
     4
 10
-122.4414128208801
 20
-55.91637717404005
 30
0.0
  0
SEQEND
  5
7CF
  8
0
  6
CONTINUOUS
 62
     4
  0
POLYLINE
  5
7D0
  8
0
  6
CONTINUOUS
 62
     4
 66
     1
 10
0.0
 20
0.0
 30
0.0
  0
VERTEX
  5
7D1
  8
0
  6
CONTINUOUS
 62
     4
 10
-122.4414128208801
 20
-55.91637717404005
 30
0.0
  0
VERTEX
  5
7D2
  8
0
  6
CONTINUOUS
 62
     4
 10
-122.6874272669801
 20
-56.90364920084005
 30
0.0
  0
VERTEX
  5
7D3
  8
0
  6
CONTINUOUS
 62
     4
 10
-123.1217439616801
 20
-57.58122857564005
 30
0.0
  0
SEQEND
  5
7D4
  8
0
  6
CONTINUOUS
 62
     4
  0
POLYLINE
  5
7D5
  8
0
  6
CONTINUOUS
 62
     4
 66
     1
 10
0.0
 20
0.0
 30
0.0
  0
VERTEX
  5
7D6
  8
0
  6
CONTINUOUS
 62
     4
 10
-123.1217439616801
 20
-57.58122857564005
 30
0.0
  0
VERTEX
  5
7D7
  8
0
  6
CONTINUOUS
 62
     4
 10
-123.8349619651801
 20
-58.55117951404004
 30
0.0
  0
VERTEX
  5
7D8
  8
0
  6
CONTINUOUS
 62
     4
 10
-124.3303063655801
 20
-59.35707950134005
 30
0.0
  0
SEQEND
  5
7D9
  8
0
  6
CONTINUOUS
 62
     4
  0
LINE
  5
7DA
  8
0
  6
CONTINUOUS
 62
     4
 10
-124.3303063655801
 20
-59.35707950134005
 30
0.0
 11
-122.3663929248801
 21
-59.35707950134005
 31
0.0
  0
LINE
  5
7DB
  8
0
  6
CONTINUOUS
 62
     4
 10
-94.96407856738014
 20
-59.88222736574005
 30
0.0
 11
-94.96407856738014
 21
-54.99865035274004
 31
0.0
  0
LINE
  5
7DC
  8
0
  6
CONTINUOUS
 62
     4
 10
-94.96407856738014
 20
-54.99865035274004
 30
0.0
 11
-95.92907869768013
 21
-54.99865035274004
 31
0.0
  0
LINE
  5
7DD
  8
0
  6
CONTINUOUS
 62
     4
 10
-95.92907869768013
 20
-54.99865035274004
 30
0.0
 11
-95.92907869768013
 21
-54.47349504034004
 31
0.0
  0
LINE
  5
7DE
  8
0
  6
CONTINUOUS
 62
     4
 10
-95.92907869768013
 20
-54.47349504034004
 30
0.0
 11
-93.33519072778012
 21
-54.47349504034004
 31
0.0
  0
LINE
  5
7DF
  8
0
  6
CONTINUOUS
 62
     4
 10
-93.33519072778012
 20
-54.47349504034004
 30
0.0
 11
-93.33519072778012
 21
-54.99865035274004
 31
0.0
  0
LINE
  5
7E0
  8
0
  6
CONTINUOUS
 62
     4
 10
-93.33519072778012
 20
-54.99865035274004
 30
0.0
 11
-94.36801908118014
 21
-54.99865035274004
 31
0.0
  0
LINE
  5
7E1
  8
0
  6
CONTINUOUS
 62
     4
 10
-94.36801908118014
 20
-54.99865035274004
 30
0.0
 11
-94.36801908118014
 21
-59.88222736574005
 31
0.0
  0
LINE
  5
7E2
  8
0
  6
CONTINUOUS
 62
     4
 10
-94.36801908118014
 20
-59.88222736574005
 30
0.0
 11
-94.96407856738014
 21
-59.88222736574005
 31
0.0
  0
LINE
  5
7E3
  8
0
  6
CONTINUOUS
 62
     4
 10
-115.6029607499801
 20
-57.05402364784004
 30
0.0
 11
-115.0243710125801
 21
-57.05402364784004
 31
0.0
  0
POLYLINE
  5
7E4
  8
0
  6
CONTINUOUS
 62
     4
 66
     1
 10
0.0
 20
0.0
 30
0.0
  0
VERTEX
  5
7E5
  8
0
  6
CONTINUOUS
 62
     4
 10
-115.0243710125801
 20
-57.05402364784004
 30
0.0
  0
VERTEX
  5
7E6
  8
0
  6
CONTINUOUS
 62
     4
 10
-114.5971807981801
 20
-56.97442416604005
 30
0.0
  0
VERTEX
  5
7E7
  8
0
  6
CONTINUOUS
 62
     4
 10
-114.3193784499801
 20
-56.77655089384005
 30
0.0
  0
SEQEND
  5
7E8
  8
0
  6
CONTINUOUS
 62
     4
  0
POLYLINE
  5
7E9
  8
0
  6
CONTINUOUS
 62
     4
 66
     1
 10
0.0
 20
0.0
 30
0.0
  0
VERTEX
  5
7EA
  8
0
  6
CONTINUOUS
 62
     4
 10
-114.3193784499801
 20
-56.77655089384005
 30
0.0
  0
VERTEX
  5
7EB
  8
0
  6
CONTINUOUS
 62
     4
 10
-114.1264195883801
 20
-56.37736845614005
 30
0.0
  0
VERTEX
  5
7EC
  8
0
  6
CONTINUOUS
 62
     4
 10
-114.0922586763801
 20
-56.02736180804004
 30
0.0
  0
SEQEND
  5
7ED
  8
0
  6
CONTINUOUS
 62
     4
  0
POLYLINE
  5
7EE
  8
0
  6
CONTINUOUS
 62
     4
 66
     1
 10
0.0
 20
0.0
 30
0.0
  0
VERTEX
  5
7EF
  8
0
  6
CONTINUOUS
 62
     4
 10
-114.0922586763801
 20
-56.02736180804004
 30
0.0
  0
VERTEX
  5
7F0
  8
0
  6
CONTINUOUS
 62
     4
 10
-114.1506600523801
 20
-55.58438475014005
 30
0.0
  0
VERTEX
  5
7F1
  8
0
  6
CONTINUOUS
 62
     4
 10
-114.3193784499801
 20
-55.27818017014005
 30
0.0
  0
SEQEND
  5
7F2
  8
0
  6
CONTINUOUS
 62
     4
  0
POLYLINE
  5
7F3
  8
0
  6
CONTINUOUS
 62
     4
 66
     1
 10
0.0
 20
0.0
 30
0.0
  0
VERTEX
  5
7F4
  8
0
  6
CONTINUOUS
 62
     4
 10
-114.3193784499801
 20
-55.27818017014005
 30
0.0
  0
VERTEX
  5
7F5
  8
0
  6
CONTINUOUS
 62
     4
 10
-114.6847288454801
 20
-55.04607464894005
 30
0.0
  0
VERTEX
  5
7F6
  8
0
  6
CONTINUOUS
 62
     4
 10
-115.0243710125801
 20
-54.99865035274004
 30
0.0
  0
SEQEND
  5
7F7
  8
0
  6
CONTINUOUS
 62
     4
  0
LINE
  5
7F8
  8
0
  6
CONTINUOUS
 62
     4
 10
-115.0243710125801
 20
-54.99865035274004
 30
0.0
 11
-115.6029607499801
 21
-54.99865035274004
 31
0.0
  0
LINE
  5
7F9
  8
0
  6
CONTINUOUS
 62
     4
 10
-115.6029607499801
 20
-54.99865035274004
 30
0.0
 11
-115.6029607499801
 21
-57.05402364784004
 31
0.0
  0
POLYLINE
  5
7FA
  8
0
  6
CONTINUOUS
 62
     4
 66
     1
 10
0.0
 20
0.0
 30
0.0
  0
VERTEX
  5
7FB
  8
0
  6
CONTINUOUS
 62
     4
 10
-114.8733030403801
 20
-54.47349504034004
 30
0.0
  0
VERTEX
  5
7FC
  8
0
  6
CONTINUOUS
 62
     4
 10
-114.2923253918801
 20
-54.58726713814005
 30
0.0
  0
VERTEX
  5
7FD
  8
0
  6
CONTINUOUS
 62
     4
 10
-113.9165218318801
 20
-54.86196731824005
 30
0.0
  0
SEQEND
  5
7FE
  8
0
  6
CONTINUOUS
 62
     4
  0
POLYLINE
  5
7FF
  8
0
  6
CONTINUOUS
 62
     4
 66
     1
 10
0.0
 20
0.0
 30
0.0
  0
VERTEX
  5
800
  8
0
  6
CONTINUOUS
 62
     4
 10
-113.9165218318801
 20
-54.86196731824005
 30
0.0
  0
VERTEX
  5
801
  8
0
  6
CONTINUOUS
 62
     4
 10
-113.5993394399801
 20
-55.48035389804005
 30
0.0
  0
VERTEX
  5
802
  8
0
  6
CONTINUOUS
 62
     4
 10
-113.5383340860801
 20
-56.02736180804004
 30
0.0
  0
SEQEND
  5
803
  8
0
  6
CONTINUOUS
 62
     4
  0
POLYLINE
  5
804
  8
0
  6
CONTINUOUS
 62
     4
 66
     1
 10
0.0
 20
0.0
 30
0.0
  0
VERTEX
  5
805
  8
0
  6
CONTINUOUS
 62
     4
 10
-113.5383340860801
 20
-56.02736180804004
 30
0.0
  0
VERTEX
  5
806
  8
0
  6
CONTINUOUS
 62
     4
 10
-113.6413756156801
 20
-56.71881146374005
 30
0.0
  0
VERTEX
  5
807
  8
0
  6
CONTINUOUS
 62
     4
 10
-113.9165218318801
 20
-57.19276374574005
 30
0.0
  0
SEQEND
  5
808
  8
0
  6
CONTINUOUS
 62
     4
  0
POLYLINE
  5
809
  8
0
  6
CONTINUOUS
 62
     4
 66
     1
 10
0.0
 20
0.0
 30
0.0
  0
VERTEX
  5
80A
  8
0
  6
CONTINUOUS
 62
     4
 10
-113.9165218318801
 20
-57.19276374574005
 30
0.0
  0
VERTEX
  5
80B
  8
0
  6
CONTINUOUS
 62
     4
 10
-114.4119370127801
 20
-57.51172064064005
 30
0.0
  0
VERTEX
  5
80C
  8
0
  6
CONTINUOUS
 62
     4
 10
-114.8733030403801
 20
-57.57917896024004
 30
0.0
  0
SEQEND
  5
80D
  8
0
  6
CONTINUOUS
 62
     4
  0
LINE
  5
80E
  8
0
  6
CONTINUOUS
 62
     4
 10
-114.8733030403801
 20
-57.57917896024004
 30
0.0
 11
-115.6029607499801
 21
-57.57917896024004
 31
0.0
  0
LINE
  5
80F
  8
0
  6
CONTINUOUS
 62
     4
 10
-115.6029607499801
 20
-57.57917896024004
 30
0.0
 11
-115.6029607499801
 21
-59.88222736574005
 31
0.0
  0
LINE
  5
810
  8
0
  6
CONTINUOUS
 62
     4
 10
-115.6029607499801
 20
-59.88222736574005
 30
0.0
 11
-116.1990220988801
 21
-59.88222736574005
 31
0.0
  0
LINE
  5
811
  8
0
  6
CONTINUOUS
 62
     4
 10
-116.1990220988801
 20
-54.47349504034004
 30
0.0
 11
-114.8733030403801
 21
-54.47349504034004
 31
0.0
  0
LINE
  5
812
  8
0
  6
CONTINUOUS
 62
     4
 10
-116.1990220988801
 20
-59.88222736574005
 30
0.0
 11
-116.1990220988801
 21
-54.47349504034004
 31
0.0
  0
POLYLINE
  5
813
  8
0
  6
CONTINUOUS
 62
     4
 66
     1
 10
0.0
 20
0.0
 30
0.0
  0
VERTEX
  5
814
  8
0
  6
CONTINUOUS
 62
     4
 10
-111.7209661150801
 20
-55.16718808814005
 30
0.0
  0
VERTEX
  5
815
  8
0
  6
CONTINUOUS
 62
     4
 10
-111.8868048632801
 20
-55.03753335844004
 30
0.0
  0
VERTEX
  5
816
  8
0
  6
CONTINUOUS
 62
     4
 10
-112.0477709317801
 20
-55.00069996814005
 30
0.0
  0
SEQEND
  5
817
  8
0
  6
CONTINUOUS
 62
     4
  0
POLYLINE
  5
818
  8
0
  6
CONTINUOUS
 62
     4
 66
     1
 10
0.0
 20
0.0
 30
0.0
  0
VERTEX
  5
819
  8
0
  6
CONTINUOUS
 62
     4
 10
-112.0477709317801
 20
-55.00069996814005
 30
0.0
  0
VERTEX
  5
81A
  8
0
  6
CONTINUOUS
 62
     4
 10
-112.2492793346801
 20
-55.05916235674005
 30
0.0
  0
VERTEX
  5
81B
  8
0
  6
CONTINUOUS
 62
     4
 10
-112.3756039286801
 20
-55.16718808814005
 30
0.0
  0
SEQEND
  5
81C
  8
0
  6
CONTINUOUS
 62
     4
  0
ARC
  5
81D
  8
0
  6
CONTINUOUS
 62
     4
 10
-109.7308948866801
 20
-56.85586477384005
 30
0.0
 40
3.13785195084959
 50
147.4413075909001
 51
185.6541312389
  0
POLYLINE
  5
81E
  8
0
  6
CONTINUOUS
 62
     4
 66
     1
 10
0.0
 20
0.0
 30
0.0
  0
VERTEX
  5
81F
  8
0
  6
CONTINUOUS
 62
     4
 10
-112.8534804428801
 20
-57.16501572374004
 30
0.0
  0
VERTEX
  5
820
  8
0
  6
CONTINUOUS
 62
     4
 10
-112.7506475294801
 20
-58.34673257764005
 30
0.0
  0
VERTEX
  5
821
  8
0
  6
CONTINUOUS
 62
     4
 10
-112.3756039286801
 20
-59.19059138134004
 30
0.0
  0
SEQEND
  5
822
  8
0
  6
CONTINUOUS
 62
     4
  0
POLYLINE
  5
823
  8
0
  6
CONTINUOUS
 62
     4
 66
     1
 10
0.0
 20
0.0
 30
0.0
  0
VERTEX
  5
824
  8
0
  6
CONTINUOUS
 62
     4
 10
-112.3756039286801
 20
-59.19059138134004
 30
0.0
  0
VERTEX
  5
825
  8
0
  6
CONTINUOUS
 62
     4
 10
-112.2088748360801
 20
-59.31967221674005
 30
0.0
  0
VERTEX
  5
826
  8
0
  6
CONTINUOUS
 62
     4
 10
-112.0477709317801
 20
-59.35707950134005
 30
0.0
  0
SEQEND
  5
827
  8
0
  6
CONTINUOUS
 62
     4
  0
POLYLINE
  5
828
  8
0
  6
CONTINUOUS
 62
     4
 66
     1
 10
0.0
 20
0.0
 30
0.0
  0
VERTEX
  5
829
  8
0
  6
CONTINUOUS
 62
     4
 10
-112.0477709317801
 20
-59.35707950134005
 30
0.0
  0
VERTEX
  5
82A
  8
0
  6
CONTINUOUS
 62
     4
 10
-111.8472385550801
 20
-59.29770037764004
 30
0.0
  0
VERTEX
  5
82B
  8
0
  6
CONTINUOUS
 62
     4
 10
-111.7209661150801
 20
-59.19059138134004
 30
0.0
  0
SEQEND
  5
82C
  8
0
  6
CONTINUOUS
 62
     4
  0
ARC
  5
82D
  8
0
  6
CONTINUOUS
 62
     4
 10
-114.3743331221801
 20
-57.49386023544005
 30
0.0
 40
3.149484569861333
 50
327.4025724448
 51
5.993300104700098
  0
POLYLINE
  5
82E
  8
0
  6
CONTINUOUS
 62
     4
 66
     1
 10
0.0
 20
0.0
 30
0.0
  0
VERTEX
  5
82F
  8
0
  6
CONTINUOUS
 62
     4
 10
-111.2420632833801
 20
-57.16501572374004
 30
0.0
  0
VERTEX
  5
830
  8
0
  6
CONTINUOUS
 62
     4
 10
-111.3458182061801
 20
-55.99837656624005
 30
0.0
  0
VERTEX
  5
831
  8
0
  6
CONTINUOUS
 62
     4
 10
-111.7209661150801
 20
-55.16718808814005
 30
0.0
  0
SEQEND
  5
832
  8
0
  6
CONTINUOUS
 62
     4
  0
POLYLINE
  5
833
  8
0
  6
CONTINUOUS
 62
     4
 66
     1
 10
0.0
 20
0.0
 30
0.0
  0
VERTEX
  5
834
  8
0
  6
CONTINUOUS
 62
     4
 10
-113.4330983603801
 20
-57.16501572374004
 30
0.0
  0
VERTEX
  5
835
  8
0
  6
CONTINUOUS
 62
     4
 10
-113.2930088186801
 20
-55.81399346954005
 30
0.0
  0
VERTEX
  5
836
  8
0
  6
CONTINUOUS
 62
     4
 10
-112.8288152957801
 20
-54.86196731824005
 30
0.0
  0
SEQEND
  5
837
  8
0
  6
CONTINUOUS
 62
     4
  0
POLYLINE
  5
838
  8
0
  6
CONTINUOUS
 62
     4
 66
     1
 10
0.0
 20
0.0
 30
0.0
  0
VERTEX
  5
839
  8
0
  6
CONTINUOUS
 62
     4
 10
-112.8288152957801
 20
-54.86196731824005
 30
0.0
  0
VERTEX
  5
83A
  8
0
  6
CONTINUOUS
 62
     4
 10
-112.4314050520801
 20
-54.55788688274005
 30
0.0
  0
VERTEX
  5
83B
  8
0
  6
CONTINUOUS
 62
     4
 10
-112.0477709317801
 20
-54.47349504034004
 30
0.0
  0
SEQEND
  5
83C
  8
0
  6
CONTINUOUS
 62
     4
  0
POLYLINE
  5
83D
  8
0
  6
CONTINUOUS
 62
     4
 66
     1
 10
0.0
 20
0.0
 30
0.0
  0
VERTEX
  5
83E
  8
0
  6
CONTINUOUS
 62
     4
 10
-112.0477709317801
 20
-54.47349504034004
 30
0.0
  0
VERTEX
  5
83F
  8
0
  6
CONTINUOUS
 62
     4
 10
-111.5696448231801
 20
-54.60891104464005
 30
0.0
  0
VERTEX
  5
840
  8
0
  6
CONTINUOUS
 62
     4
 10
-111.2677566105801
 20
-54.86196731824005
 30
0.0
  0
SEQEND
  5
841
  8
0
  6
CONTINUOUS
 62
     4
  0
ARC
  5
842
  8
0
  6
CONTINUOUS
 62
     4
 10
-114.0749932007801
 20
-56.82933984704005
 30
0.0
 40
3.427992406671672
 50
354.3804774177
 51
35.02360814459995
  0
POLYLINE
  5
843
  8
0
  6
CONTINUOUS
 62
     4
 66
     1
 10
0.0
 20
0.0
 30
0.0
  0
VERTEX
  5
844
  8
0
  6
CONTINUOUS
 62
     4
 10
-110.6634754086801
 20
-57.16501572374004
 30
0.0
  0
VERTEX
  5
845
  8
0
  6
CONTINUOUS
 62
     4
 10
-110.8024753028801
 20
-58.53142870474005
 30
0.0
  0
VERTEX
  5
846
  8
0
  6
CONTINUOUS
 62
     4
 10
-111.2677566105801
 20
-59.49581959934005
 30
0.0
  0
SEQEND
  5
847
  8
0
  6
CONTINUOUS
 62
     4
  0
POLYLINE
  5
848
  8
0
  6
CONTINUOUS
 62
     4
 66
     1
 10
0.0
 20
0.0
 30
0.0
  0
VERTEX
  5
849
  8
0
  6
CONTINUOUS
 62
     4
 10
-111.2677566105801
 20
-59.49581959934005
 30
0.0
  0
VERTEX
  5
84A
  8
0
  6
CONTINUOUS
 62
     4
 10
-111.6649899030801
 20
-59.79821563474005
 30
0.0
  0
VERTEX
  5
84B
  8
0
  6
CONTINUOUS
 62
     4
 10
-112.0477709317801
 20
-59.88222736574005
 30
0.0
  0
SEQEND
  5
84C
  8
0
  6
CONTINUOUS
 62
     4
  0
POLYLINE
  5
84D
  8
0
  6
CONTINUOUS
 62
     4
 66
     1
 10
0.0
 20
0.0
 30
0.0
  0
VERTEX
  5
84E
  8
0
  6
CONTINUOUS
 62
     4
 10
-112.0477709317801
 20
-59.88222736574005
 30
0.0
  0
VERTEX
  5
84F
  8
0
  6
CONTINUOUS
 62
     4
 10
-112.5262434924801
 20
-59.74783989614005
 30
0.0
  0
VERTEX
  5
850
  8
0
  6
CONTINUOUS
 62
     4
 10
-112.8288152957801
 20
-59.49581959934005
 30
0.0
  0
SEQEND
  5
851
  8
0
  6
CONTINUOUS
 62
     4
  0
ARC
  5
852
  8
0
  6
CONTINUOUS
 62
     4
 10
-109.9645292170801
 20
-57.50949119894005
 30
0.0
 40
3.485632690745688
 50
174.3283579737001
 51
214.7405788304999
  0
POLYLINE
  5
853
  8
0
  6
CONTINUOUS
 62
     4
 66
     1
 10
0.0
 20
0.0
 30
0.0
  0
VERTEX
  5
854
  8
0
  6
CONTINUOUS
 62
     4
 10
-101.1762562537801
 20
-58.27492162354005
 30
0.0
  0
VERTEX
  5
855
  8
0
  6
CONTINUOUS
 62
     4
 10
-101.1332701290801
 20
-58.79737144914004
 30
0.0
  0
VERTEX
  5
856
  8
0
  6
CONTINUOUS
 62
     4
 10
-100.9491364801801
 20
-59.16284335934004
 30
0.0
  0
SEQEND
  5
857
  8
0
  6
CONTINUOUS
 62
     4
  0
POLYLINE
  5
858
  8
0
  6
CONTINUOUS
 62
     4
 66
     1
 10
0.0
 20
0.0
 30
0.0
  0
VERTEX
  5
859
  8
0
  6
CONTINUOUS
 62
     4
 10
-100.9491364801801
 20
-59.16284335934004
 30
0.0
  0
VERTEX
  5
85A
  8
0
  6
CONTINUOUS
 62
     4
 10
-100.7018721992801
 20
-59.32316028274005
 30
0.0
  0
VERTEX
  5
85B
  8
0
  6
CONTINUOUS
 62
     4
 10
-100.4712618286801
 20
-59.35707950134005
 30
0.0
  0
SEQEND
  5
85C
  8
0
  6
CONTINUOUS
 62
     4
  0
POLYLINE
  5
85D
  8
0
  6
CONTINUOUS
 62
     4
 66
     1
 10
0.0
 20
0.0
 30
0.0
  0
VERTEX
  5
85E
  8
0
  6
CONTINUOUS
 62
     4
 10
-100.4712618286801
 20
-59.35707950134005
 30
0.0
  0
VERTEX
  5
85F
  8
0
  6
CONTINUOUS
 62
     4
 10
-100.1772712314801
 20
-59.26641957094004
 30
0.0
  0
VERTEX
  5
860
  8
0
  6
CONTINUOUS
 62
     4
 10
-99.99235899698013
 20
-59.10734732134004
 30
0.0
  0
SEQEND
  5
861
  8
0
  6
CONTINUOUS
 62
     4
  0
POLYLINE
  5
862
  8
0
  6
CONTINUOUS
 62
     4
 66
     1
 10
0.0
 20
0.0
 30
0.0
  0
VERTEX
  5
863
  8
0
  6
CONTINUOUS
 62
     4
 10
-99.99235899698013
 20
-59.10734732134004
 30
0.0
  0
VERTEX
  5
864
  8
0
  6
CONTINUOUS
 62
     4
 10
-99.79728603318011
 20
-58.66080766234005
 30
0.0
  0
VERTEX
  5
865
  8
0
  6
CONTINUOUS
 62
     4
 10
-99.76626740348013
 20
-58.27492162354005
 30
0.0
  0
SEQEND
  5
866
  8
0
  6
CONTINUOUS
 62
     4
  0
POLYLINE
  5
867
  8
0
  6
CONTINUOUS
 62
     4
 66
     1
 10
0.0
 20
0.0
 30
0.0
  0
VERTEX
  5
868
  8
0
  6
CONTINUOUS
 62
     4
 10
-99.76626740348013
 20
-58.27492162354005
 30
0.0
  0
VERTEX
  5
869
  8
0
  6
CONTINUOUS
 62
     4
 10
-99.85016280368012
 20
-57.82765901224005
 30
0.0
  0
VERTEX
  5
86A
  8
0
  6
CONTINUOUS
 62
     4
 10
-100.0427156085801
 20
-57.52573253774004
 30
0.0
  0
SEQEND
  5
86B
  8
0
  6
CONTINUOUS
 62
     4
  0
ARC
  5
86C
  8
0
  6
CONTINUOUS
 62
     4
 10
-100.5355432037801
 20
-58.02188051304005
 30
0.0
 40
0.6993152736964182
 50
45.19236375480027
 51
99.17064036370078
  0
LINE
  5
86D
  8
0
  6
CONTINUOUS
 62
     4
 10
-100.6469968105801
 20
-57.33150384374005
 30
0.0
 11
-100.6469968105801
 21
-56.85979495384005
 31
0.0
  0
POLYLINE
  5
86E
  8
0
  6
CONTINUOUS
 62
     4
 66
     1
 10
0.0
 20
0.0
 30
0.0
  0
VERTEX
  5
86F
  8
0
  6
CONTINUOUS
 62
     4
 10
-100.6469968105801
 20
-56.85979495384005
 30
0.0
  0
VERTEX
  5
870
  8
0
  6
CONTINUOUS
 62
     4
 10
-100.2823002035801
 20
-56.77850361784004
 30
0.0
  0
VERTEX
  5
871
  8
0
  6
CONTINUOUS
 62
     4
 10
-100.0427156085801
 20
-56.61006277384004
 30
0.0
  0
SEQEND
  5
872
  8
0
  6
CONTINUOUS
 62
     4
  0
POLYLINE
  5
873
  8
0
  6
CONTINUOUS
 62
     4
 66
     1
 10
0.0
 20
0.0
 30
0.0
  0
VERTEX
  5
874
  8
0
  6
CONTINUOUS
 62
     4
 10
-100.0427156085801
 20
-56.61006277384004
 30
0.0
  0
VERTEX
  5
875
  8
0
  6
CONTINUOUS
 62
     4
 10
-99.87193712538013
 20
-56.25506252194005
 30
0.0
  0
VERTEX
  5
876
  8
0
  6
CONTINUOUS
 62
     4
 10
-99.84128729948011
 20
-55.94412519604005
 30
0.0
  0
SEQEND
  5
877
  8
0
  6
CONTINUOUS
 62
     4
  0
POLYLINE
  5
878
  8
0
  6
CONTINUOUS
 62
     4
 66
     1
 10
0.0
 20
0.0
 30
0.0
  0
VERTEX
  5
879
  8
0
  6
CONTINUOUS
 62
     4
 10
-99.84128729948011
 20
-55.94412519604005
 30
0.0
  0
VERTEX
  5
87A
  8
0
  6
CONTINUOUS
 62
     4
 10
-99.89644953558013
 20
-55.47010583904004
 30
0.0
  0
VERTEX
  5
87B
  8
0
  6
CONTINUOUS
 62
     4
 10
-100.0684070730801
 20
-55.13944006614005
 30
0.0
  0
SEQEND
  5
87C
  8
0
  6
CONTINUOUS
 62
     4
  0
POLYLINE
  5
87D
  8
0
  6
CONTINUOUS
 62
     4
 66
     1
 10
0.0
 20
0.0
 30
0.0
  0
VERTEX
  5
87E
  8
0
  6
CONTINUOUS
 62
     4
 10
-100.0684070730801
 20
-55.13944006614005
 30
0.0
  0
VERTEX
  5
87F
  8
0
  6
CONTINUOUS
 62
     4
 10
-100.2619992340801
 20
-55.00427001734005
 30
0.0
  0
VERTEX
  5
880
  8
0
  6
CONTINUOUS
 62
     4
 10
-100.4455685014801
 20
-54.97295195224005
 30
0.0
  0
SEQEND
  5
881
  8
0
  6
CONTINUOUS
 62
     4
  0
POLYLINE
  5
882
  8
0
  6
CONTINUOUS
 62
     4
 66
     1
 10
0.0
 20
0.0
 30
0.0
  0
VERTEX
  5
883
  8
0
  6
CONTINUOUS
 62
     4
 10
-100.4455685014801
 20
-54.97295195224005
 30
0.0
  0
VERTEX
  5
884
  8
0
  6
CONTINUOUS
 62
     4
 10
-100.6764545435801
 20
-55.02499718874004
 30
0.0
  0
VERTEX
  5
885
  8
0
  6
CONTINUOUS
 62
     4
 10
-100.8237581098801
 20
-55.13944006614005
 30
0.0
  0
SEQEND
  5
886
  8
0
  6
CONTINUOUS
 62
     4
  0
POLYLINE
  5
887
  8
0
  6
CONTINUOUS
 62
     4
 66
     1
 10
0.0
 20
0.0
 30
0.0
  0
VERTEX
  5
888
  8
0
  6
CONTINUOUS
 62
     4
 10
-100.8237581098801
 20
-55.13944006614005
 30
0.0
  0
VERTEX
  5
889
  8
0
  6
CONTINUOUS
 62
     4
 10
-101.0468750590801
 20
-55.58249910714005
 30
0.0
  0
VERTEX
  5
88A
  8
0
  6
CONTINUOUS
 62
     4
 10
-101.1002081776801
 20
-55.97186577004005
 30
0.0
  0
SEQEND
  5
88B
  8
0
  6
CONTINUOUS
 62
     4
  0
LINE
  5
88C
  8
0
  6
CONTINUOUS
 62
     4
 10
-101.1002081776801
 20
-55.97186577004005
 30
0.0
 11
-101.6541327679801
 21
-55.97186577004005
 31
0.0
  0
POLYLINE
  5
88D
  8
0
  6
CONTINUOUS
 62
     4
 66
     1
 10
0.0
 20
0.0
 30
0.0
  0
VERTEX
  5
88E
  8
0
  6
CONTINUOUS
 62
     4
 10
-101.6541327679801
 20
-55.97186577004005
 30
0.0
  0
VERTEX
  5
88F
  8
0
  6
CONTINUOUS
 62
     4
 10
-101.5191375607801
 20
-55.27819507844005
 30
0.0
  0
VERTEX
  5
890
  8
0
  6
CONTINUOUS
 62
     4
 10
-101.2266128654801
 20
-54.80647128024005
 30
0.0
  0
SEQEND
  5
891
  8
0
  6
CONTINUOUS
 62
     4
  0
POLYLINE
  5
892
  8
0
  6
CONTINUOUS
 62
     4
 66
     1
 10
0.0
 20
0.0
 30
0.0
  0
VERTEX
  5
893
  8
0
  6
CONTINUOUS
 62
     4
 10
-101.2266128654801
 20
-54.80647128024005
 30
0.0
  0
VERTEX
  5
894
  8
0
  6
CONTINUOUS
 62
     4
 10
-100.8240877980801
 20
-54.53515482064005
 30
0.0
  0
VERTEX
  5
895
  8
0
  6
CONTINUOUS
 62
     4
 10
-100.4455685014801
 20
-54.47349504034004
 30
0.0
  0
SEQEND
  5
896
  8
0
  6
CONTINUOUS
 62
     4
  0
POLYLINE
  5
897
  8
0
  6
CONTINUOUS
 62
     4
 66
     1
 10
0.0
 20
0.0
 30
0.0
  0
VERTEX
  5
898
  8
0
  6
CONTINUOUS
 62
     4
 10
-100.4455685014801
 20
-54.47349504034004
 30
0.0
  0
VERTEX
  5
899
  8
0
  6
CONTINUOUS
 62
     4
 10
-99.95592379518013
 20
-54.57280806084005
 30
0.0
  0
VERTEX
  5
89A
  8
0
  6
CONTINUOUS
 62
     4
 10
-99.63986085308014
 20
-54.80647128024005
 30
0.0
  0
SEQEND
  5
89B
  8
0
  6
CONTINUOUS
 62
     4
  0
POLYLINE
  5
89C
  8
0
  6
CONTINUOUS
 62
     4
 66
     1
 10
0.0
 20
0.0
 30
0.0
  0
VERTEX
  5
89D
  8
0
  6
CONTINUOUS
 62
     4
 10
-99.63986085308014
 20
-54.80647128024005
 30
0.0
  0
VERTEX
  5
89E
  8
0
  6
CONTINUOUS
 62
     4
 10
-99.34714430518014
 20
-55.34927561994004
 30
0.0
  0
VERTEX
  5
89F
  8
0
  6
CONTINUOUS
 62
     4
 10
-99.28736270918012
 20
-55.83313311404005
 30
0.0
  0
SEQEND
  5
8A0
  8
0
  6
CONTINUOUS
 62
     4
  0
POLYLINE
  5
8A1
  8
0
  6
CONTINUOUS
 62
     4
 66
     1
 10
0.0
 20
0.0
 30
0.0
  0
VERTEX
  5
8A2
  8
0
  6
CONTINUOUS
 62
     4
 10
-99.28736270918012
 20
-55.83313311404005
 30
0.0
  0
VERTEX
  5
8A3
  8
0
  6
CONTINUOUS
 62
     4
 10
-99.36034859668013
 20
-56.35904120134005
 30
0.0
  0
VERTEX
  5
8A4
  8
0
  6
CONTINUOUS
 62
     4
 10
-99.56483909438012
 20
-56.72105485584005
 30
0.0
  0
SEQEND
  5
8A5
  8
0
  6
CONTINUOUS
 62
     4
  0
POLYLINE
  5
8A6
  8
0
  6
CONTINUOUS
 62
     4
 66
     1
 10
0.0
 20
0.0
 30
0.0
  0
VERTEX
  5
8A7
  8
0
  6
CONTINUOUS
 62
     4
 10
-99.56483909438012
 20
-56.72105485584005
 30
0.0
  0
VERTEX
  5
8A8
  8
0
  6
CONTINUOUS
 62
     4
 10
-99.81201396838011
 20
-56.95141634404004
 30
0.0
  0
VERTEX
  5
8A9
  8
0
  6
CONTINUOUS
 62
     4
 10
-100.0427156085801
 20
-57.08177166374004
 30
0.0
  0
SEQEND
  5
8AA
  8
0
  6
CONTINUOUS
 62
     4
  0
POLYLINE
  5
8AB
  8
0
  6
CONTINUOUS
 62
     4
 66
     1
 10
0.0
 20
0.0
 30
0.0
  0
VERTEX
  5
8AC
  8
0
  6
CONTINUOUS
 62
     4
 10
-100.0427156085801
 20
-57.08177166374004
 30
0.0
  0
VERTEX
  5
8AD
  8
0
  6
CONTINUOUS
 62
     4
 10
-99.74065603268014
 20
-57.22086206274005
 30
0.0
  0
VERTEX
  5
8AE
  8
0
  6
CONTINUOUS
 62
     4
 10
-99.53914762988012
 20
-57.38699988174005
 30
0.0
  0
SEQEND
  5
8AF
  8
0
  6
CONTINUOUS
 62
     4
  0
POLYLINE
  5
8B0
  8
0
  6
CONTINUOUS
 62
     4
 66
     1
 10
0.0
 20
0.0
 30
0.0
  0
VERTEX
  5
8B1
  8
0
  6
CONTINUOUS
 62
     4
 10
-99.53914762988012
 20
-57.38699988174005
 30
0.0
  0
VERTEX
  5
8B2
  8
0
  6
CONTINUOUS
 62
     4
 10
-99.25205813298012
 20
-57.88311033764005
 30
0.0
  0
VERTEX
  5
8B3
  8
0
  6
CONTINUOUS
 62
     4
 10
-99.18664948588014
 20
-58.33041766154005
 30
0.0
  0
SEQEND
  5
8B4
  8
0
  6
CONTINUOUS
 62
     4
  0
POLYLINE
  5
8B5
  8
0
  6
CONTINUOUS
 62
     4
 66
     1
 10
0.0
 20
0.0
 30
0.0
  0
VERTEX
  5
8B6
  8
0
  6
CONTINUOUS
 62
     4
 10
-99.18664948588014
 20
-58.33041766154005
 30
0.0
  0
VERTEX
  5
8B7
  8
0
  6
CONTINUOUS
 62
     4
 10
-99.30251160218012
 20
-59.02399891584005
 30
0.0
  0
VERTEX
  5
8B8
  8
0
  6
CONTINUOUS
 62
     4
 10
-99.58950424148011
 20
-59.49581959934005
 30
0.0
  0
SEQEND
  5
8B9
  8
0
  6
CONTINUOUS
 62
     4
  0
POLYLINE
  5
8BA
  8
0
  6
CONTINUOUS
 62
     4
 66
     1
 10
0.0
 20
0.0
 30
0.0
  0
VERTEX
  5
8BB
  8
0
  6
CONTINUOUS
 62
     4
 10
-99.58950424148011
 20
-59.49581959934005
 30
0.0
  0
VERTEX
  5
8BC
  8
0
  6
CONTINUOUS
 62
     4
 10
-100.0429093236801
 20
-59.80855313104004
 30
0.0
  0
VERTEX
  5
8BD
  8
0
  6
CONTINUOUS
 62
     4
 10
-100.4712618286801
 20
-59.88222736574005
 30
0.0
  0
SEQEND
  5
8BE
  8
0
  6
CONTINUOUS
 62
     4
  0
POLYLINE
  5
8BF
  8
0
  6
CONTINUOUS
 62
     4
 66
     1
 10
0.0
 20
0.0
 30
0.0
  0
VERTEX
  5
8C0
  8
0
  6
CONTINUOUS
 62
     4
 10
-100.4712618286801
 20
-59.88222736574005
 30
0.0
  0
VERTEX
  5
8C1
  8
0
  6
CONTINUOUS
 62
     4
 10
-101.0205540204801
 20
-59.77892692004005
 30
0.0
  0
VERTEX
  5
8C2
  8
0
  6
CONTINUOUS
 62
     4
 10
-101.3776845628801
 20
-59.52356762134005
 30
0.0
  0
SEQEND
  5
8C3
  8
0
  6
CONTINUOUS
 62
     4
  0
POLYLINE
  5
8C4
  8
0
  6
CONTINUOUS
 62
     4
 66
     1
 10
0.0
 20
0.0
 30
0.0
  0
VERTEX
  5
8C5
  8
0
  6
CONTINUOUS
 62
     4
 10
-101.3776845628801
 20
-59.52356762134005
 30
0.0
  0
VERTEX
  5
8C6
  8
0
  6
CONTINUOUS
 62
     4
 10
-101.6978099340801
 20
-58.85795053424005
 30
0.0
  0
VERTEX
  5
8C7
  8
0
  6
CONTINUOUS
 62
     4
 10
-101.7548459912801
 20
-58.27492162354005
 30
0.0
  0
SEQEND
  5
8C8
  8
0
  6
CONTINUOUS
 62
     4
  0
LINE
  5
8C9
  8
0
  6
CONTINUOUS
 62
     4
 10
-101.7548459912801
 20
-58.27492162354005
 30
0.0
 11
-101.1762562537801
 21
-58.27492162354005
 31
0.0
  0
LINE
  5
8CA
  8
0
  6
CONTINUOUS
 62
     4
 10
-119.1499288523801
 20
-54.47349504034004
 30
0.0
 11
-118.5538675034801
 21
-54.47349504034004
 31
0.0
  0
LINE
  5
8CB
  8
0
  6
CONTINUOUS
 62
     4
 10
-118.5538675034801
 20
-54.47349504034004
 30
0.0
 11
-118.5538675034801
 21
-56.74880287784005
 31
0.0
  0
LINE
  5
8CC
  8
0
  6
CONTINUOUS
 62
     4
 10
-118.5538675034801
 20
-56.74880287784005
 30
0.0
 11
-117.1192135060801
 21
-54.47349504034004
 31
0.0
  0
LINE
  5
8CD
  8
0
  6
CONTINUOUS
 62
     4
 10
-117.1192135060801
 20
-54.47349504034004
 30
0.0
 11
-116.4388860905801
 21
-54.47349504034004
 31
0.0
  0
LINE
  5
8CE
  8
0
  6
CONTINUOUS
 62
     4
 10
-116.4388860905801
 20
-54.47349504034004
 30
0.0
 11
-117.7738513196801
 21
-56.61006277384004
 31
0.0
  0
LINE
  5
8CF
  8
0
  6
CONTINUOUS
 62
     4
 10
-117.7738513196801
 20
-56.61006277384004
 30
0.0
 11
-116.3381691420801
 21
-59.88222736574005
 31
0.0
  0
LINE
  5
8D0
  8
0
  6
CONTINUOUS
 62
     4
 10
-116.3381691420801
 20
-59.88222736574005
 30
0.0
 11
-116.9928106809801
 21
-59.88222736574005
 31
0.0
  0
LINE
  5
8D1
  8
0
  6
CONTINUOUS
 62
     4
 10
-116.9928106809801
 20
-59.88222736574005
 30
0.0
 11
-118.1510146106801
 21
-57.13726770784005
 31
0.0
  0
LINE
  5
8D2
  8
0
  6
CONTINUOUS
 62
     4
 10
-118.1510146106801
 20
-57.13726770784005
 30
0.0
 11
-118.5538675034801
 21
-57.74771669564005
 31
0.0
  0
LINE
  5
8D3
  8
0
  6
CONTINUOUS
 62
     4
 10
-118.5538675034801
 20
-57.74771669564005
 30
0.0
 11
-118.5538675034801
 21
-59.88222736574005
 31
0.0
  0
LINE
  5
8D4
  8
0
  6
CONTINUOUS
 62
     4
 10
-118.5538675034801
 20
-59.88222736574005
 30
0.0
 11
-119.1499288523801
 21
-59.88222736574005
 31
0.0
  0
LINE
  5
8D5
  8
0
  6
CONTINUOUS
 62
     4
 10
-119.1499288523801
 20
-59.88222736574005
 30
0.0
 11
-119.1499288523801
 21
-54.47349504034004
 31
0.0
  0
LINE
  5
8D6
  8
0
  6
CONTINUOUS
 62
     4
 10
-132.0378314102801
 20
-44.93977675414004
 30
0.0
 11
-91.03783027778013
 21
-44.93977675414004
 31
0.0
  0
LINE
  5
8D7
  8
0
  6
CONTINUOUS
 62
     4
 10
-91.03783027778013
 20
-60.93977482404004
 30
0.0
 11
-132.0378314102801
 21
-60.93977482404004
 31
0.0
  0
LINE
  5
8D8
  8
0
  6
CONTINUOUS
 62
     4
 10
-102.1260283286801
 20
-49.62395649354005
 30
0.0
 11
-105.1140855396801
 21
-49.62395649354005
 31
0.0
  0
LINE
  5
8D9
  8
0
  6
CONTINUOUS
 62
     4
 10
-105.1140855396801
 20
-49.62395649354005
 30
0.0
 11
-105.1140855396801
 21
-49.16449310524004
 31
0.0
  0
LINE
  5
8DA
  8
0
  6
CONTINUOUS
 62
     4
 10
-105.1140855396801
 20
-49.16449310524004
 30
0.0
 11
-102.1260283286801
 21
-49.16449310524004
 31
0.0
  0
LINE
  5
8DB
  8
0
  6
CONTINUOUS
 62
     4
 10
-102.1260283286801
 20
-49.16449310524004
 30
0.0
 11
-102.1260283286801
 21
-49.62395649354005
 31
0.0
  0
LINE
  5
8DC
  8
0
  6
CONTINUOUS
 62
     4
 10
-115.0092686856801
 20
-49.16449310524004
 30
0.0
 11
-115.0092686856801
 21
-49.62395649354005
 31
0.0
  0
LINE
  5
8DD
  8
0
  6
CONTINUOUS
 62
     4
 10
-115.0092686856801
 20
-49.62395649354005
 30
0.0
 11
-117.9973240340801
 21
-49.62395649354005
 31
0.0
  0
LINE
  5
8DE
  8
0
  6
CONTINUOUS
 62
     4
 10
-117.9973240340801
 20
-49.62395649354005
 30
0.0
 11
-117.9973240340801
 21
-49.16449310524004
 31
0.0
  0
LINE
  5
8DF
  8
0
  6
CONTINUOUS
 62
     4
 10
-117.9973240340801
 20
-49.16449310524004
 30
0.0
 11
-115.0092686856801
 21
-49.16449310524004
 31
0.0
  0
LINE
  5
8E0
  8
0
  6
CONTINUOUS
 62
     4
 10
-101.9114665085801
 20
-57.62439712884004
 30
0.0
 11
-104.7818026835801
 21
-57.62439712884004
 31
0.0
  0
LINE
  5
8E1
  8
0
  6
CONTINUOUS
 62
     4
 10
-104.7818026835801
 20
-57.16501572374004
 30
0.0
 11
-101.9114665085801
 21
-57.16501572374004
 31
0.0
  0
LINE
  5
8E2
  8
0
  6
CONTINUOUS
 62
     4
 10
-104.7818026835801
 20
-57.62439712884004
 30
0.0
 11
-104.7818026835801
 21
-57.16501572374004
 31
0.0
  0
LINE
  5
8E3
  8
0
  6
CONTINUOUS
 62
     4
 10
-101.9114665085801
 20
-57.16501572374004
 30
0.0
 11
-101.9114665085801
 21
-57.62439712884004
 31
0.0
  0
POLYLINE
  5
8E4
  8
0
  6
CONTINUOUS
 62
     2
 66
     1
 10
0.0
 20
0.0
 30
0.0
  0
VERTEX
  5
8E5
  8
0
  6
CONTINUOUS
 62
     2
 10
190.7395555664617
 20
7.243653616894534
 30
0.0
  0
VERTEX
  5
8E6
  8
0
  6
CONTINUOUS
 62
     2
 10
189.4895555664617
 20
3.743653616894534
 30
0.0
  0
VERTEX
  5
8E7
  8
0
  6
CONTINUOUS
 62
     2
 10
191.9895555664617
 20
3.743653616894534
 30
0.0
  0
VERTEX
  5
8E8
  8
0
  6
CONTINUOUS
 62
     2
 10
190.7395555664617
 20
7.243653616894534
 30
0.0
  0
SEQEND
  5
8E9
  8
0
  6
CONTINUOUS
 62
     2
  0
ARC
  5
8EA
  8
0
  6
CONTINUOUS
 62
     2
 10
66.25824009047514
 20
7.243653616894534
 30
0.0
 40
124.4813154759866
 50
357.9287573655292
 51
358.3888211734956
  0
POLYLINE
  5
8EB
  8
0
  6
CONTINUOUS
 62
     2
 66
     1
 10
0.0
 20
0.0
 30
0.0
  0
VERTEX
  5
8EC
  8
0
  6
CONTINUOUS
 62
     2
 10
190.6968989286404
 20
10.50219457732532
 30
0.0
  0
VERTEX
  5
8ED
  8
0
  6
CONTINUOUS
 62
     2
 10
191.8548512657846
 20
14.03371640012386
 30
0.0
  0
VERTEX
  5
8EE
  8
0
  6
CONTINUOUS
 62
     2
 10
189.3557079533456
 20
13.96827402935579
 30
0.0
  0
VERTEX
  5
8EF
  8
0
  6
CONTINUOUS
 62
     2
 10
190.6968989286404
 20
10.50219457732532
 30
0.0
  0
SEQEND
  5
8F0
  8
0
  6
CONTINUOUS
 62
     2
  0
ARC
  5
8F1
  8
0
  6
CONTINUOUS
 62
     2
 10
66.25824009047514
 20
7.243653616894534
 30
0.0
 40
124.4813154759866
 50
3.111178826467645
 51
3.571242634433866
  0
ARC
  5
8F2
  8
0
  6
CONTINUOUS
 62
     2
 10
66.25824009047514
 20
7.243653616894534
 30
0.0
 40
124.4813154759866
 50
0.0
 51
1.499999999963088
  0
POLYLINE
  5
8F3
  8
0
  6
CONTINUOUS
 62
     2
 66
     1
 10
0.0
 20
0.0
 30
0.0
  0
VERTEX
  5
8F4
  8
0
  6
CONTINUOUS
 62
     2
 10
180.5582400906831
 20
7.243653616894534
 30
0.0
  0
VERTEX
  5
8F5
  8
0
  6
CONTINUOUS
 62
     2
 10
191.2395555664617
 20
7.243653616894534
 30
0.0
  0
SEQEND
  5
8F6
  8
0
  6
CONTINUOUS
 62
     2
  0
POLYLINE
  5
8F7
  8
0
  6
CONTINUOUS
 62
     2
 66
     1
 10
0.0
 20
0.0
 30
0.0
  0
VERTEX
  5
8F8
  8
0
  6
CONTINUOUS
 62
     2
 10
180.5581372881758
 20
10.23670176020596
 30
0.0
  0
VERTEX
  5
8F9
  8
0
  6
CONTINUOUS
 62
     2
 10
191.1967275911282
 20
10.51528305147893
 30
0.0
  0
SEQEND
  5
8FA
  8
0
  6
CONTINUOUS
 62
     2
  0
TEXT
  5
8FC
  8
0
  6
CONTINUOUS
 62
     7
 10
191.1404933438572
 20
15.62903020153413
 30
0.0
 40
4.999999999999992
  1
1
 50
270.7499999999813
 41
0.6000000000000011
 51
-0.0000000000002544
  7
EXCESS_STANDARD
  0
TEXT
  5
8FD
  8
0
  6
CONTINUOUS
 62
     7
 10
191.1797621305703
 20
12.6292872188121
 30
0.0
 40
4.999999999999992
  1
.
 50
270.7499999999813
 41
0.6000000000000008
 51
-0.0000000000002544
  7
EXCESS_STANDARD
  0
TEXT
  5
8FE
  8
0
  6
CONTINUOUS
 62
     7
 10
191.1993965239268
 20
11.12941572745108
 30
0.0
 40
4.999999999999992
  1
5
 50
270.7499999999813
 41
0.6000000000000008
 51
-0.0000000000002544
  7
EXCESS_STANDARD
  0
TEXT
  5
8FF
  8
0
  6
CONTINUOUS
 62
     7
 10
191.2386653106399
 20
8.129672744729046
 30
0.0
 40
4.999999999999992
  1
%%d
 50
270.7499999999815
 41
1.200000000000002
  7
EXCESS_STANDARD
  0
POLYLINE
  5
900
  8
0
  6
CONTINUOUS
 62
     2
 66
     1
 10
0.0
 20
0.0
 30
0.0
  0
VERTEX
  5
901
  8
0
  6
CONTINUOUS
 62
     2
 10
180.2582400906831
 20
101.202819
 30
0.0
  0
VERTEX
  5
902
  8
0
  6
CONTINUOUS
 62
     2
 10
176.7582400906831
 20
102.452819
 30
0.0
  0
VERTEX
  5
903
  8
0
  6
CONTINUOUS
 62
     2
 10
176.7582400906831
 20
99.95281899999999
 30
0.0
  0
VERTEX
  5
904
  8
0
  6
CONTINUOUS
 62
     2
 10
180.2582400906831
 20
101.202819
 30
0.0
  0
SEQEND
  5
905
  8
0
  6
CONTINUOUS
 62
     2
  0
POLYLINE
  5
906
  8
0
  6
CONTINUOUS
 62
     2
 66
     1
 10
0.0
 20
0.0
 30
0.0
  0
VERTEX
  5
907
  8
0
  6
CONTINUOUS
 62
     2
 10
66.25824016950001
 20
101.202819
 30
0.0
  0
VERTEX
  5
908
  8
0
  6
CONTINUOUS
 62
     2
 10
69.75824016950001
 20
99.952819
 30
0.0
  0
VERTEX
  5
909
  8
0
  6
CONTINUOUS
 62
     2
 10
69.75824016950001
 20
102.452819
 30
0.0
  0
VERTEX
  5
90A
  8
0
  6
CONTINUOUS
 62
     2
 10
66.25824016950001
 20
101.202819
 30
0.0
  0
SEQEND
  5
90B
  8
0
  6
CONTINUOUS
 62
     2
  0
LINE
  5
90C
  8
0
  6
CONTINUOUS
 62
     2
 10
176.7582400906831
 20
101.202819
 30
0.0
 11
69.75824016950001
 21
101.202819
 31
0.0
  0
POLYLINE
  5
90D
  8
0
  6
CONTINUOUS
 62
     2
 66
     1
 10
0.0
 20
0.0
 30
0.0
  0
VERTEX
  5
90E
  8
0
  6
CONTINUOUS
 62
     2
 10
180.2582400906831
 20
52.40448867687955
 30
0.0
  0
VERTEX
  5
90F
  8
0
  6
CONTINUOUS
 62
     2
 10
180.2582400906831
 20
101.702819
 30
0.0
  0
SEQEND
  5
910
  8
0
  6
CONTINUOUS
 62
     2
  0
POLYLINE
  5
911
  8
0
  6
CONTINUOUS
 62
     2
 66
     1
 10
0.0
 20
0.0
 30
0.0
  0
VERTEX
  5
912
  8
0
  6
CONTINUOUS
 62
     2
 10
66.2582401695
 20
83.91594078779998
 30
0.0
  0
VERTEX
  5
913
  8
0
  6
CONTINUOUS
 62
     2
 10
66.25824016950001
 20
101.702819
 30
0.0
  0
SEQEND
  5
914
  8
0
  6
CONTINUOUS
 62
     2
  0
TEXT
  5
915
  8
0
  6
CONTINUOUS
 62
     7
 10
118.7582401300916
 20
101.702819
 30
0.0
 40
5.0
  1
1
 41
0.6
  7
EXCESS_STANDARD
  0
TEXT
  5
916
  8
0
  6
CONTINUOUS
 62
     7
 10
121.7582401300916
 20
101.702819
 30
0.0
 40
5.0
  1
1
 41
0.6
  7
EXCESS_STANDARD
  0
TEXT
  5
917
  8
0
  6
CONTINUOUS
 62
     7
 10
124.7582401300916
 20
101.702819
 30
0.0
 40
5.0
  1
4
 41
0.6
  7
EXCESS_STANDARD
  0
POLYLINE
  5
918
  8
0
  6
CONTINUOUS
 62
     2
 66
     1
 10
0.0
 20
0.0
 30
0.0
  0
VERTEX
  5
919
  8
0
  6
CONTINUOUS
 62
     2
 10
32.25823852550003
 20
109.442891
 30
0.0
  0
VERTEX
  5
91A
  8
0
  6
CONTINUOUS
 62
     2
 10
35.75823852550003
 20
108.192891
 30
0.0
  0
VERTEX
  5
91B
  8
0
  6
CONTINUOUS
 62
     2
 10
35.75823852550003
 20
110.692891
 30
0.0
  0
VERTEX
  5
91C
  8
0
  6
CONTINUOUS
 62
     2
 10
32.25823852550003
 20
109.442891
 30
0.0
  0
SEQEND
  5
91D
  8
0
  6
CONTINUOUS
 62
     2
  0
POLYLINE
  5
91E
  8
0
  6
CONTINUOUS
 62
     2
 66
     1
 10
0.0
 20
0.0
 30
0.0
  0
VERTEX
  5
91F
  8
0
  6
CONTINUOUS
 62
     2
 10
180.2582400906831
 20
109.442891
 30
0.0
  0
VERTEX
  5
920
  8
0
  6
CONTINUOUS
 62
     2
 10
176.7582400906831
 20
110.692891
 30
0.0
  0
VERTEX
  5
921
  8
0
  6
CONTINUOUS
 62
     2
 10
176.7582400906831
 20
108.192891
 30
0.0
  0
VERTEX
  5
922
  8
0
  6
CONTINUOUS
 62
     2
 10
180.2582400906831
 20
109.442891
 30
0.0
  0
SEQEND
  5
923
  8
0
  6
CONTINUOUS
 62
     2
  0
LINE
  5
924
  8
0
  6
CONTINUOUS
 62
     2
 10
35.75823852550003
 20
109.442891
 30
0.0
 11
176.7582400906831
 21
109.442891
 31
0.0
  0
POLYLINE
  5
925
  8
0
  6
CONTINUOUS
 62
     2
 66
     1
 10
0.0
 20
0.0
 30
0.0
  0
VERTEX
  5
926
  8
0
  6
CONTINUOUS
 62
     2
 10
32.25823852550002
 20
48.52897224359999
 30
0.0
  0
VERTEX
  5
927
  8
0
  6
CONTINUOUS
 62
     2
 10
32.25823852550003
 20
109.942891
 30
0.0
  0
SEQEND
  5
928
  8
0
  6
CONTINUOUS
 62
     2
  0
POLYLINE
  5
929
  8
0
  6
CONTINUOUS
 62
     2
 66
     1
 10
0.0
 20
0.0
 30
0.0
  0
VERTEX
  5
92A
  8
0
  6
CONTINUOUS
 62
     2
 10
180.2582400906831
 20
52.40448867687955
 30
0.0
  0
VERTEX
  5
92B
  8
0
  6
CONTINUOUS
 62
     2
 10
180.2582400906831
 20
109.942891
 30
0.0
  0
SEQEND
  5
92C
  8
0
  6
CONTINUOUS
 62
     2
  0
TEXT
  5
92D
  8
0
  6
CONTINUOUS
 62
     7
 10
101.7582393080916
 20
109.942891
 30
0.0
 40
5.0
  1
1
 41
0.6
  7
EXCESS_STANDARD
  0
TEXT
  5
92E
  8
0
  6
CONTINUOUS
 62
     7
 10
104.7582393080916
 20
109.942891
 30
0.0
 40
5.0
  1
4
 41
0.6
  7
EXCESS_STANDARD
  0
TEXT
  5
92F
  8
0
  6
CONTINUOUS
 62
     7
 10
107.7582393080916
 20
109.942891
 30
0.0
 40
5.0
  1
8
 41
0.6
  7
EXCESS_STANDARD
  0
POLYLINE
  5
930
  8
0
  6
CONTINUOUS
 62
     2
 66
     1
 10
0.0
 20
0.0
 30
0.0
  0
VERTEX
  5
931
  8
0
  6
CONTINUOUS
 62
     2
 10
180.2582400906831
 20
-95.743106
 30
0.0
  0
VERTEX
  5
932
  8
0
  6
CONTINUOUS
 62
     2
 10
176.7582400906831
 20
-94.493106
 30
0.0
  0
VERTEX
  5
933
  8
0
  6
CONTINUOUS
 62
     2
 10
176.7582400906831
 20
-96.993106
 30
0.0
  0
VERTEX
  5
934
  8
0
  6
CONTINUOUS
 62
     2
 10
180.2582400906831
 20
-95.743106
 30
0.0
  0
SEQEND
  5
935
  8
0
  6
CONTINUOUS
 62
     2
  0
POLYLINE
  5
936
  8
0
  6
CONTINUOUS
 62
     2
 66
     1
 10
0.0
 20
0.0
 30
0.0
  0
VERTEX
  5
937
  8
0
  6
CONTINUOUS
 62
     2
 10
90.99296606190003
 20
-95.74310599999998
 30
0.0
  0
VERTEX
  5
938
  8
0
  6
CONTINUOUS
 62
     2
 10
94.49296606190003
 20
-96.99310599999998
 30
0.0
  0
VERTEX
  5
939
  8
0
  6
CONTINUOUS
 62
     2
 10
94.49296606190003
 20
-94.49310599999998
 30
0.0
  0
VERTEX
  5
93A
  8
0
  6
CONTINUOUS
 62
     2
 10
90.99296606190003
 20
-95.74310599999998
 30
0.0
  0
SEQEND
  5
93B
  8
0
  6
CONTINUOUS
 62
     2
  0
LINE
  5
93C
  8
0
  6
CONTINUOUS
 62
     2
 10
176.7582400906831
 20
-95.743106
 30
0.0
 11
94.49296606190003
 21
-95.74310599999998
 31
0.0
  0
POLYLINE
  5
93D
  8
0
  6
CONTINUOUS
 62
     2
 66
     1
 10
0.0
 20
0.0
 30
0.0
  0
VERTEX
  5
93E
  8
0
  6
CONTINUOUS
 62
     2
 10
180.2582400906831
 20
-28.22293293375406
 30
0.0
  0
VERTEX
  5
93F
  8
0
  6
CONTINUOUS
 62
     2
 10
180.2582400906831
 20
-96.243106
 30
0.0
  0
SEQEND
  5
940
  8
0
  6
CONTINUOUS
 62
     2
  0
POLYLINE
  5
941
  8
0
  6
CONTINUOUS
 62
     2
 66
     1
 10
0.0
 20
0.0
 30
0.0
  0
VERTEX
  5
942
  8
0
  6
CONTINUOUS
 62
     2
 10
90.99296606190003
 20
-28.07532400200001
 30
0.0
  0
VERTEX
  5
943
  8
0
  6
CONTINUOUS
 62
     2
 10
90.99296606190003
 20
-96.24310599999998
 30
0.0
  0
SEQEND
  5
944
  8
0
  6
CONTINUOUS
 62
     2
  0
TEXT
  5
945
  8
0
  6
CONTINUOUS
 62
     7
 10
130.3756030762916
 20
-95.243106
 30
0.0
 40
5.0
  1
8
 41
0.6
  7
EXCESS_STANDARD
  0
TEXT
  5
946
  8
0
  6
CONTINUOUS
 62
     7
 10
133.3756030762916
 20
-95.243106
 30
0.0
 40
5.0
  1
9
 41
0.6
  7
EXCESS_STANDARD
  0
TEXT
  5
947
  8
0
  6
CONTINUOUS
 62
     7
 10
136.3756030762916
 20
-95.243106
 30
0.0
 40
5.0
  1
.
 41
0.6
  7
EXCESS_STANDARD
  0
TEXT
  5
948
  8
0
  6
CONTINUOUS
 62
     7
 10
137.8756030762916
 20
-95.243106
 30
0.0
 40
5.0
  1
5
 41
0.6
  7
EXCESS_STANDARD
  0
POLYLINE
  5
949
  8
2
  6
CONTINUOUS
 62
     2
 66
     1
 10
0.0
 20
0.0
 30
0.0
  0
VERTEX
  5
94A
  8
2
  6
CONTINUOUS
 62
     2
 10
-155.0528760399
 20
109.442891
 30
0.0
  0
VERTEX
  5
94B
  8
2
  6
CONTINUOUS
 62
     2
 10
-151.5528760399
 20
108.192891
 30
0.0
  0
VERTEX
  5
94C
  8
2
  6
CONTINUOUS
 62
     2
 10
-151.5528760399
 20
110.692891
 30
0.0
  0
VERTEX
  5
94D
  8
2
  6
CONTINUOUS
 62
     2
 10
-155.0528760399
 20
109.442891
 30
0.0
  0
SEQEND
  5
94E
  8
2
  6
CONTINUOUS
 62
     2
  0
POLYLINE
  5
94F
  8
2
  6
CONTINUOUS
 62
     2
 66
     1
 10
0.0
 20
0.0
 30
0.0
  0
VERTEX
  5
950
  8
2
  6
CONTINUOUS
 62
     2
 10
-5.052952035864394
 20
109.442891
 30
0.0
  0
VERTEX
  5
951
  8
2
  6
CONTINUOUS
 62
     2
 10
-8.552952035864394
 20
110.692891
 30
0.0
  0
VERTEX
  5
952
  8
2
  6
CONTINUOUS
 62
     2
 10
-8.552952035864394
 20
108.192891
 30
0.0
  0
VERTEX
  5
953
  8
2
  6
CONTINUOUS
 62
     2
 10
-5.052952035864394
 20
109.442891
 30
0.0
  0
SEQEND
  5
954
  8
2
  6
CONTINUOUS
 62
     2
  0
LINE
  5
955
  8
2
  6
CONTINUOUS
 62
     2
 10
-151.5528760399
 20
109.442891
 30
0.0
 11
-8.552952035864394
 21
109.442891
 31
0.0
  0
POLYLINE
  5
956
  8
2
  6
CONTINUOUS
 62
     2
 66
     1
 10
0.0
 20
0.0
 30
0.0
  0
VERTEX
  5
957
  8
2
  6
CONTINUOUS
 62
     2
 10
-155.0528760399
 20
72.4079949557
 30
0.0
  0
VERTEX
  5
958
  8
2
  6
CONTINUOUS
 62
     2
 10
-155.0528760399
 20
109.942891
 30
0.0
  0
SEQEND
  5
959
  8
2
  6
CONTINUOUS
 62
     2
  0
POLYLINE
  5
95A
  8
2
  6
CONTINUOUS
 62
     2
 66
     1
 10
0.0
 20
0.0
 30
0.0
  0
VERTEX
  5
95B
  8
2
  6
CONTINUOUS
 62
     2
 10
-5.052952035864394
 20
72.45311550203193
 30
0.0
  0
VERTEX
  5
95C
  8
2
  6
CONTINUOUS
 62
     2
 10
-5.052952035864394
 20
109.942891
 30
0.0
  0
SEQEND
  5
95D
  8
2
  6
CONTINUOUS
 62
     2
  0
TEXT
  5
95E
  8
2
  6
CONTINUOUS
 62
     7
 10
-84.55291403788219
 20
109.942891
 30
0.0
 40
5.0
  1
1
 41
0.6
  7
EXCESS_STANDARD
  0
TEXT
  5
95F
  8
2
  6
CONTINUOUS
 62
     7
 10
-81.55291403788219
 20
109.942891
 30
0.0
 40
5.0
  1
5
 41
0.6
  7
EXCESS_STANDARD
  0
TEXT
  5
960
  8
2
  6
CONTINUOUS
 62
     7
 10
-78.55291403788219
 20
109.942891
 30
0.0
 40
5.0
  1
0
 41
0.6
  7
EXCESS_STANDARD
  0
POLYLINE
  5
961
  8
2
  6
CONTINUOUS
 62
     2
 66
     1
 10
0.0
 20
0.0
 30
0.0
  0
VERTEX
  5
962
  8
2
  6
CONTINUOUS
 62
     2
 10
-140.0527586089
 20
95.993532
 30
0.0
  0
VERTEX
  5
963
  8
2
  6
CONTINUOUS
 62
     2
 10
-136.5527586089
 20
94.743532
 30
0.0
  0
VERTEX
  5
964
  8
2
  6
CONTINUOUS
 62
     2
 10
-136.5527586089
 20
97.243532
 30
0.0
  0
VERTEX
  5
965
  8
2
  6
CONTINUOUS
 62
     2
 10
-140.0527586089
 20
95.993532
 30
0.0
  0
SEQEND
  5
966
  8
2
  6
CONTINUOUS
 62
     2
  0
POLYLINE
  5
967
  8
2
  6
CONTINUOUS
 62
     2
 66
     1
 10
0.0
 20
0.0
 30
0.0
  0
VERTEX
  5
968
  8
2
  6
CONTINUOUS
 62
     2
 10
-20.05220677689999
 20
95.993532
 30
0.0
  0
VERTEX
  5
969
  8
2
  6
CONTINUOUS
 62
     2
 10
-23.55220677689999
 20
97.243532
 30
0.0
  0
VERTEX
  5
96A
  8
2
  6
CONTINUOUS
 62
     2
 10
-23.55220677689999
 20
94.743532
 30
0.0
  0
VERTEX
  5
96B
  8
2
  6
CONTINUOUS
 62
     2
 10
-20.05220677689999
 20
95.993532
 30
0.0
  0
SEQEND
  5
96C
  8
2
  6
CONTINUOUS
 62
     2
  0
LINE
  5
96D
  8
2
  6
CONTINUOUS
 62
     2
 10
-136.5527586089
 20
95.993532
 30
0.0
 11
-23.55220677689999
 21
95.993532
 31
0.0
  0
POLYLINE
  5
96E
  8
2
  6
CONTINUOUS
 62
     2
 66
     1
 10
0.0
 20
0.0
 30
0.0
  0
VERTEX
  5
96F
  8
2
  6
CONTINUOUS
 62
     2
 10
-140.0527586089
 20
69.31907922819998
 30
0.0
  0
VERTEX
  5
970
  8
2
  6
CONTINUOUS
 62
     2
 10
-140.0527586089
 20
96.493532
 30
0.0
  0
SEQEND
  5
971
  8
2
  6
CONTINUOUS
 62
     2
  0
POLYLINE
  5
972
  8
2
  6
CONTINUOUS
 62
     2
 66
     1
 10
0.0
 20
0.0
 30
0.0
  0
VERTEX
  5
973
  8
2
  6
CONTINUOUS
 62
     2
 10
-20.05220677689999
 20
69.3726976244
 30
0.0
  0
VERTEX
  5
974
  8
2
  6
CONTINUOUS
 62
     2
 10
-20.05220677689999
 20
96.493532
 30
0.0
  0
SEQEND
  5
975
  8
2
  6
CONTINUOUS
 62
     2
  0
TEXT
  5
976
  8
2
  6
CONTINUOUS
 62
     7
 10
-84.55248269289999
 20
96.493532
 30
0.0
 40
5.0
  1
1
 41
0.6
  7
EXCESS_STANDARD
  0
TEXT
  5
977
  8
2
  6
CONTINUOUS
 62
     7
 10
-81.55248269289999
 20
96.493532
 30
0.0
 40
5.0
  1
2
 41
0.6
  7
EXCESS_STANDARD
  0
TEXT
  5
978
  8
2
  6
CONTINUOUS
 62
     7
 10
-78.55248269289999
 20
96.493532
 30
0.0
 40
5.0
  1
0
 41
0.6
  7
EXCESS_STANDARD
  0
POLYLINE
  5
979
  8
2
  6
CONTINUOUS
 62
     2
 66
     1
 10
0.0
 20
0.0
 30
0.0
  0
VERTEX
  5
97A
  8
2
  6
CONTINUOUS
 62
     2
 10
-178.071795
 20
84.11586452928677
 30
0.0
  0
VERTEX
  5
97B
  8
2
  6
CONTINUOUS
 62
     2
 10
-179.321795
 20
80.61586452928677
 30
0.0
  0
VERTEX
  5
97C
  8
2
  6
CONTINUOUS
 62
     2
 10
-176.821795
 20
80.61586452928677
 30
0.0
  0
VERTEX
  5
97D
  8
2
  6
CONTINUOUS
 62
     2
 10
-178.071795
 20
84.11586452928677
 30
0.0
  0
SEQEND
  5
97E
  8
2
  6
CONTINUOUS
 62
     2
  0
POLYLINE
  5
97F
  8
2
  6
CONTINUOUS
 62
     2
 66
     1
 10
0.0
 20
0.0
 30
0.0
  0
VERTEX
  5
980
  8
2
  6
CONTINUOUS
 62
     2
 10
-178.071795
 20
-65.93976904440001
 30
0.0
  0
VERTEX
  5
981
  8
2
  6
CONTINUOUS
 62
     2
 10
-176.821795
 20
-62.43976904440001
 30
0.0
  0
VERTEX
  5
982
  8
2
  6
CONTINUOUS
 62
     2
 10
-179.321795
 20
-62.43976904440001
 30
0.0
  0
VERTEX
  5
983
  8
2
  6
CONTINUOUS
 62
     2
 10
-178.071795
 20
-65.93976904440001
 30
0.0
  0
SEQEND
  5
984
  8
2
  6
CONTINUOUS
 62
     2
  0
LINE
  5
985
  8
2
  6
CONTINUOUS
 62
     2
 10
-178.071795
 20
80.61586452928677
 30
0.0
 11
-178.071795
 21
-62.43976904440001
 31
0.0
  0
POLYLINE
  5
986
  8
2
  6
CONTINUOUS
 62
     2
 66
     1
 10
0.0
 20
0.0
 30
0.0
  0
VERTEX
  5
987
  8
2
  6
CONTINUOUS
 62
     2
 10
-143.348478230421
 20
84.11586452928677
 30
0.0
  0
VERTEX
  5
988
  8
2
  6
CONTINUOUS
 62
     2
 10
-178.571795
 20
84.11586452928677
 30
0.0
  0
SEQEND
  5
989
  8
2
  6
CONTINUOUS
 62
     2
  0
POLYLINE
  5
98A
  8
2
  6
CONTINUOUS
 62
     2
 66
     1
 10
0.0
 20
0.0
 30
0.0
  0
VERTEX
  5
98B
  8
2
  6
CONTINUOUS
 62
     2
 10
-143.356070372
 20
-65.93976904440001
 30
0.0
  0
VERTEX
  5
98C
  8
2
  6
CONTINUOUS
 62
     2
 10
-178.571795
 20
-65.93976904440001
 30
0.0
  0
SEQEND
  5
98D
  8
2
  6
CONTINUOUS
 62
     2
  0
TEXT
  5
98E
  8
2
  6
CONTINUOUS
 62
     7
 10
-178.571795
 20
4.588047742443379
 30
0.0
 40
5.0
  1
1
 50
90.0
 41
0.6
  7
EXCESS_STANDARD
  0
TEXT
  5
98F
  8
2
  6
CONTINUOUS
 62
     7
 10
-178.571795
 20
7.588047742443379
 30
0.0
 40
5.0
  1
5
 50
90.0
 41
0.6
  7
EXCESS_STANDARD
  0
TEXT
  5
990
  8
2
  6
CONTINUOUS
 62
     7
 10
-178.571795
 20
10.58804774244338
 30
0.0
 40
5.0
  1
0
 50
90.0
 41
0.6
  7
EXCESS_STANDARD
  0
POLYLINE
  5
991
  8
2
  6
CONTINUOUS
 62
     2
 66
     1
 10
0.0
 20
0.0
 30
0.0
  0
VERTEX
  5
992
  8
2
  6
CONTINUOUS
 62
     2
 10
-166.588018
 20
69.01907922819998
 30
0.0
  0
VERTEX
  5
993
  8
2
  6
CONTINUOUS
 62
     2
 10
-167.838018
 20
65.51907922819998
 30
0.0
  0
VERTEX
  5
994
  8
2
  6
CONTINUOUS
 62
     2
 10
-165.338018
 20
65.51907922819998
 30
0.0
  0
VERTEX
  5
995
  8
2
  6
CONTINUOUS
 62
     2
 10
-166.588018
 20
69.01907922819998
 30
0.0
  0
SEQEND
  5
996
  8
2
  6
CONTINUOUS
 62
     2
  0
POLYLINE
  5
997
  8
2
  6
CONTINUOUS
 62
     2
 66
     1
 10
0.0
 20
0.0
 30
0.0
  0
VERTEX
  5
998
  8
2
  6
CONTINUOUS
 62
     2
 10
-166.588018
 20
-50.9273008107
 30
0.0
  0
VERTEX
  5
999
  8
2
  6
CONTINUOUS
 62
     2
 10
-165.338018
 20
-47.4273008107
 30
0.0
  0
VERTEX
  5
99A
  8
2
  6
CONTINUOUS
 62
     2
 10
-167.838018
 20
-47.4273008107
 30
0.0
  0
VERTEX
  5
99B
  8
2
  6
CONTINUOUS
 62
     2
 10
-166.588018
 20
-50.9273008107
 30
0.0
  0
SEQEND
  5
99C
  8
2
  6
CONTINUOUS
 62
     2
  0
LINE
  5
99D
  8
2
  6
CONTINUOUS
 62
     2
 10
-166.588018
 20
65.51907922819998
 30
0.0
 11
-166.588018
 21
-47.4273008107
 31
0.0
  0
POLYLINE
  5
99E
  8
2
  6
CONTINUOUS
 62
     2
 66
     1
 10
0.0
 20
0.0
 30
0.0
  0
VERTEX
  5
99F
  8
2
  6
CONTINUOUS
 62
     2
 10
-140.3527586089
 20
69.01907922819998
 30
0.0
  0
VERTEX
  5
9A0
  8
2
  6
CONTINUOUS
 62
     2
 10
-167.088018
 20
69.01907922819998
 30
0.0
  0
SEQEND
  5
9A1
  8
2
  6
CONTINUOUS
 62
     2
  0
POLYLINE
  5
9A2
  8
2
  6
CONTINUOUS
 62
     2
 66
     1
 10
0.0
 20
0.0
 30
0.0
  0
VERTEX
  5
9A3
  8
2
  6
CONTINUOUS
 62
     2
 10
-140.3522078214
 20
-50.9273008107
 30
0.0
  0
VERTEX
  5
9A4
  8
2
  6
CONTINUOUS
 62
     2
 10
-167.088018
 20
-50.9273008107
 30
0.0
  0
SEQEND
  5
9A5
  8
2
  6
CONTINUOUS
 62
     2
  0
TEXT
  5
9A6
  8
2
  6
CONTINUOUS
 62
     7
 10
-167.088018
 20
4.54588920874999
 30
0.0
 40
5.0
  1
1
 50
90.0
 41
0.6
  7
EXCESS_STANDARD
  0
TEXT
  5
9A7
  8
2
  6
CONTINUOUS
 62
     7
 10
-167.088018
 20
7.54588920874999
 30
0.0
 40
5.0
  1
2
 50
90.0
 41
0.6
  7
EXCESS_STANDARD
  0
TEXT
  5
9A8
  8
2
  6
CONTINUOUS
 62
     7
 10
-167.088018
 20
10.54588920874999
 30
0.0
 40
5.0
  1
0
 50
90.0
 41
0.6
  7
EXCESS_STANDARD
  0
POLYLINE
  5
9A9
  8
2
  6
CONTINUOUS
 62
     2
 66
     1
 10
0.0
 20
0.0
 30
0.0
  0
VERTEX
  5
9AA
  8
2
  6
CONTINUOUS
 62
     2
 10
66.25824010190004
 20
101.202819
 30
0.0
  0
VERTEX
  5
9AB
  8
2
  6
CONTINUOUS
 62
     2
 10
62.75824010190004
 20
102.452819
 30
0.0
  0
VERTEX
  5
9AC
  8
2
  6
CONTINUOUS
 62
     2
 10
62.75824010190004
 20
99.95281899999999
 30
0.0
  0
VERTEX
  5
9AD
  8
2
  6
CONTINUOUS
 62
     2
 10
66.25824010190004
 20
101.202819
 30
0.0
  0
SEQEND
  5
9AE
  8
2
  6
CONTINUOUS
 62
     2
  0
POLYLINE
  5
9AF
  8
2
  6
CONTINUOUS
 62
     2
 66
     1
 10
0.0
 20
0.0
 30
0.0
  0
VERTEX
  5
9B0
  8
2
  6
CONTINUOUS
 62
     2
 10
32.25823852550003
 20
101.202819
 30
0.0
  0
VERTEX
  5
9B1
  8
2
  6
CONTINUOUS
 62
     2
 10
35.75823852550003
 20
99.95281899999999
 30
0.0
  0
VERTEX
  5
9B2
  8
2
  6
CONTINUOUS
 62
     2
 10
35.75823852550003
 20
102.452819
 30
0.0
  0
VERTEX
  5
9B3
  8
2
  6
CONTINUOUS
 62
     2
 10
32.25823852550003
 20
101.202819
 30
0.0
  0
SEQEND
  5
9B4
  8
2
  6
CONTINUOUS
 62
     2
  0
LINE
  5
9B5
  8
2
  6
CONTINUOUS
 62
     2
 10
62.75824010190004
 20
101.202819
 30
0.0
 11
35.75823852550003
 21
101.202819
 31
0.0
  0
POLYLINE
  5
9B6
  8
2
  6
CONTINUOUS
 62
     2
 66
     1
 10
0.0
 20
0.0
 30
0.0
  0
VERTEX
  5
9B7
  8
2
  6
CONTINUOUS
 62
     2
 10
66.25824010190004
 20
83.91594041079999
 30
0.0
  0
VERTEX
  5
9B8
  8
2
  6
CONTINUOUS
 62
     2
 10
66.25824010190004
 20
101.702819
 30
0.0
  0
SEQEND
  5
9B9
  8
2
  6
CONTINUOUS
 62
     2
  0
POLYLINE
  5
9BA
  8
2
  6
CONTINUOUS
 62
     2
 66
     1
 10
0.0
 20
0.0
 30
0.0
  0
VERTEX
  5
9BB
  8
2
  6
CONTINUOUS
 62
     2
 10
32.25823852550002
 20
48.52897224359999
 30
0.0
  0
VERTEX
  5
9BC
  8
2
  6
CONTINUOUS
 62
     2
 10
32.25823852550003
 20
101.702819
 30
0.0
  0
SEQEND
  5
9BD
  8
2
  6
CONTINUOUS
 62
     2
  0
TEXT
  5
9BE
  8
2
  6
CONTINUOUS
 62
     7
 10
46.25823931370003
 20
101.702819
 30
0.0
 40
5.0
  1
3
 41
0.6
  7
EXCESS_STANDARD
  0
TEXT
  5
9BF
  8
2
  6
CONTINUOUS
 62
     7
 10
49.25823931370003
 20
101.702819
 30
0.0
 40
5.0
  1
4
 41
0.6
  7
EXCESS_STANDARD
  0
POLYLINE
  5
9C0
  8
2
  6
CONTINUOUS
 62
     2
 66
     1
 10
0.0
 20
0.0
 30
0.0
  0
VERTEX
  5
9C1
  8
2
  6
CONTINUOUS
 62
     2
 10
66.2582401695
 20
89.377256
 30
0.0
  0
VERTEX
  5
9C2
  8
2
  6
CONTINUOUS
 62
     2
 10
69.7582401695
 20
88.127256
 30
0.0
  0
VERTEX
  5
9C3
  8
2
  6
CONTINUOUS
 62
     2
 10
69.7582401695
 20
90.627256
 30
0.0
  0
VERTEX
  5
9C4
  8
2
  6
CONTINUOUS
 62
     2
 10
66.2582401695
 20
89.377256
 30
0.0
  0
SEQEND
  5
9C5
  8
2
  6
CONTINUOUS
 62
     2
  0
LINE
  5
9C6
  8
2
  6
CONTINUOUS
 62
     2
 10
69.7582401695
 20
89.377256
 30
0.0
 11
70.7582401695
 21
89.377256
 31
0.0
  0
POLYLINE
  5
9C7
  8
2
  6
CONTINUOUS
 62
     2
 66
     1
 10
0.0
 20
0.0
 30
0.0
  0
VERTEX
  5
9C8
  8
2
  6
CONTINUOUS
 62
     2
 10
63.75824010190004
 20
89.377256
 30
0.0
  0
VERTEX
  5
9C9
  8
2
  6
CONTINUOUS
 62
     2
 10
60.25824010190004
 20
90.627256
 30
0.0
  0
VERTEX
  5
9CA
  8
2
  6
CONTINUOUS
 62
     2
 10
60.25824010190004
 20
88.127256
 30
0.0
  0
VERTEX
  5
9CB
  8
2
  6
CONTINUOUS
 62
     2
 10
63.75824010190004
 20
89.377256
 30
0.0
  0
SEQEND
  5
9CC
  8
2
  6
CONTINUOUS
 62
     2
  0
LINE
  5
9CD
  8
2
  6
CONTINUOUS
 62
     2
 10
60.25824010190004
 20
89.377256
 30
0.0
 11
59.25824010190004
 21
89.377256
 31
0.0
  0
LINE
  5
9CE
  8
2
  6
CONTINUOUS
 62
     2
 10
66.2582401695
 20
89.377256
 30
0.0
 11
63.75824010190004
 21
89.377256
 31
0.0
  0
POLYLINE
  5
9CF
  8
2
  6
CONTINUOUS
 62
     2
 66
     1
 10
0.0
 20
0.0
 30
0.0
  0
VERTEX
  5
9D0
  8
2
  6
CONTINUOUS
 62
     2
 10
66.2582401695
 20
83.91594078779998
 30
0.0
  0
VERTEX
  5
9D1
  8
2
  6
CONTINUOUS
 62
     2
 10
66.2582401695
 20
89.877256
 30
0.0
  0
SEQEND
  5
9D2
  8
2
  6
CONTINUOUS
 62
     2
  0
POLYLINE
  5
9D3
  8
2
  6
CONTINUOUS
 62
     2
 66
     1
 10
0.0
 20
0.0
 30
0.0
  0
VERTEX
  5
9D4
  8
2
  6
CONTINUOUS
 62
     2
 10
63.75824010190004
 20
83.7659984319
 30
0.0
  0
VERTEX
  5
9D5
  8
2
  6
CONTINUOUS
 62
     2
 10
63.75824010190004
 20
89.877256
 30
0.0
  0
SEQEND
  5
9D6
  8
2
  6
CONTINUOUS
 62
     2
  0
TEXT
  5
9D7
  8
2
  6
CONTINUOUS
 62
     7
 10
61.25824013570002
 20
89.877256
 30
0.0
 40
5.0
  1
2
 41
0.6
  7
EXCESS_STANDARD
  0
TEXT
  5
9D8
  8
2
  6
CONTINUOUS
 62
     7
 10
64.25824013570002
 20
89.877256
 30
0.0
 40
5.0
  1
.
 41
0.6
  7
EXCESS_STANDARD
  0
TEXT
  5
9D9
  8
2
  6
CONTINUOUS
 62
     7
 10
65.75824013570002
 20
89.877256
 30
0.0
 40
5.0
  1
5
 41
0.6
  7
EXCESS_STANDARD
  0
POLYLINE
  5
9DA
  8
2
  6
CONTINUOUS
 62
     2
 66
     1
 10
0.0
 20
0.0
 30
0.0
  0
VERTEX
  5
9DB
  8
2
  6
CONTINUOUS
 62
     2
 10
90.99296606190003
 20
-95.743106
 30
0.0
  0
VERTEX
  5
9DC
  8
2
  6
CONTINUOUS
 62
     2
 10
94.49296606190003
 20
-96.993106
 30
0.0
  0
VERTEX
  5
9DD
  8
2
  6
CONTINUOUS
 62
     2
 10
94.49296606190003
 20
-94.493106
 30
0.0
  0
VERTEX
  5
9DE
  8
2
  6
CONTINUOUS
 62
     2
 10
90.99296606190003
 20
-95.743106
 30
0.0
  0
SEQEND
  5
9DF
  8
2
  6
CONTINUOUS
 62
     2
  0
LINE
  5
9E0
  8
2
  6
CONTINUOUS
 62
     2
 10
94.49296606190003
 20
-95.743106
 30
0.0
 11
95.49296606190003
 21
-95.743106
 31
0.0
  0
POLYLINE
  5
9E1
  8
2
  6
CONTINUOUS
 62
     2
 66
     1
 10
0.0
 20
0.0
 30
0.0
  0
VERTEX
  5
9E2
  8
2
  6
CONTINUOUS
 62
     2
 10
85.84062519060004
 20
-95.743106
 30
0.0
  0
VERTEX
  5
9E3
  8
2
  6
CONTINUOUS
 62
     2
 10
82.34062519060004
 20
-94.493106
 30
0.0
  0
VERTEX
  5
9E4
  8
2
  6
CONTINUOUS
 62
     2
 10
82.34062519060004
 20
-96.993106
 30
0.0
  0
VERTEX
  5
9E5
  8
2
  6
CONTINUOUS
 62
     2
 10
85.84062519060004
 20
-95.743106
 30
0.0
  0
SEQEND
  5
9E6
  8
2
  6
CONTINUOUS
 62
     2
  0
LINE
  5
9E7
  8
2
  6
CONTINUOUS
 62
     2
 10
82.34062519060004
 20
-95.743106
 30
0.0
 11
81.34062519060004
 21
-95.743106
 31
0.0
  0
LINE
  5
9E8
  8
2
  6
CONTINUOUS
 62
     2
 10
90.99296606190003
 20
-95.743106
 30
0.0
 11
85.84062519060004
 21
-95.743106
 31
0.0
  0
POLYLINE
  5
9E9
  8
2
  6
CONTINUOUS
 62
     2
 66
     1
 10
0.0
 20
0.0
 30
0.0
  0
VERTEX
  5
9EA
  8
2
  6
CONTINUOUS
 62
     2
 10
90.99296606190003
 20
-28.07532400200001
 30
0.0
  0
VERTEX
  5
9EB
  8
2
  6
CONTINUOUS
 62
     2
 10
90.99296606190003
 20
-96.243106
 30
0.0
  0
SEQEND
  5
9EC
  8
2
  6
CONTINUOUS
 62
     2
  0
POLYLINE
  5
9ED
  8
2
  6
CONTINUOUS
 62
     2
 66
     1
 10
0.0
 20
0.0
 30
0.0
  0
VERTEX
  5
9EE
  8
2
  6
CONTINUOUS
 62
     2
 10
85.84062519060004
 20
-22.7528564072
 30
0.0
  0
VERTEX
  5
9EF
  8
2
  6
CONTINUOUS
 62
     2
 10
85.84062519060004
 20
-96.243106
 30
0.0
  0
SEQEND
  5
9F0
  8
2
  6
CONTINUOUS
 62
     2
  0
TEXT
  5
9F1
  8
2
  6
CONTINUOUS
 62
     7
 10
86.91679562625004
 20
-95.243106
 30
0.0
 40
5.0
  1
5
 41
0.6
  7
EXCESS_STANDARD
  0
POLYLINE
  5
9F2
  8
2
  6
CONTINUOUS
 62
     2
 66
     1
 10
0.0
 20
0.0
 30
0.0
  0
VERTEX
  5
9F3
  8
2
  6
CONTINUOUS
 62
     2
 10
85.84062519060004
 20
-95.743106
 30
0.0
  0
VERTEX
  5
9F4
  8
2
  6
CONTINUOUS
 62
     2
 10
82.34062519060004
 20
-94.493106
 30
0.0
  0
VERTEX
  5
9F5
  8
2
  6
CONTINUOUS
 62
     2
 10
82.34062519060004
 20
-96.993106
 30
0.0
  0
VERTEX
  5
9F6
  8
2
  6
CONTINUOUS
 62
     2
 10
85.84062519060004
 20
-95.743106
 30
0.0
  0
SEQEND
  5
9F7
  8
2
  6
CONTINUOUS
 62
     2
  0
POLYLINE
  5
9F8
  8
2
  6
CONTINUOUS
 62
     2
 66
     1
 10
0.0
 20
0.0
 30
0.0
  0
VERTEX
  5
9F9
  8
2
  6
CONTINUOUS
 62
     2
 10
32.25823990790002
 20
-95.743106
 30
0.0
  0
VERTEX
  5
9FA
  8
2
  6
CONTINUOUS
 62
     2
 10
35.75823990790002
 20
-96.993106
 30
0.0
  0
VERTEX
  5
9FB
  8
2
  6
CONTINUOUS
 62
     2
 10
35.75823990790002
 20
-94.493106
 30
0.0
  0
VERTEX
  5
9FC
  8
2
  6
CONTINUOUS
 62
     2
 10
32.25823990790002
 20
-95.743106
 30
0.0
  0
SEQEND
  5
9FD
  8
2
  6
CONTINUOUS
 62
     2
  0
LINE
  5
9FE
  8
2
  6
CONTINUOUS
 62
     2
 10
82.34062519060004
 20
-95.743106
 30
0.0
 11
35.75823990790002
 21
-95.743106
 31
0.0
  0
POLYLINE
  5
9FF
  8
2
  6
CONTINUOUS
 62
     2
 66
     1
 10
0.0
 20
0.0
 30
0.0
  0
VERTEX
  5
A00
  8
2
  6
CONTINUOUS
 62
     2
 10
85.84062519060004
 20
-22.7528564072
 30
0.0
  0
VERTEX
  5
A01
  8
2
  6
CONTINUOUS
 62
     2
 10
85.84062519060004
 20
-96.243106
 30
0.0
  0
SEQEND
  5
A02
  8
2
  6
CONTINUOUS
 62
     2
  0
POLYLINE
  5
A03
  8
2
  6
CONTINUOUS
 62
     2
 66
     1
 10
0.0
 20
0.0
 30
0.0
  0
VERTEX
  5
A04
  8
2
  6
CONTINUOUS
 62
     2
 10
32.25823990790002
 20
-32.09844933070001
 30
0.0
  0
VERTEX
  5
A05
  8
2
  6
CONTINUOUS
 62
     2
 10
32.25823990790002
 20
-96.243106
 30
0.0
  0
SEQEND
  5
A06
  8
2
  6
CONTINUOUS
 62
     2
  0
TEXT
  5
A07
  8
2
  6
CONTINUOUS
 62
     7
 10
53.79943254925003
 20
-95.243106
 30
0.0
 40
5.0
  1
5
 41
0.6
  7
EXCESS_STANDARD
  0
TEXT
  5
A08
  8
2
  6
CONTINUOUS
 62
     7
 10
56.79943254925003
 20
-95.243106
 30
0.0
 40
5.0
  1
3
 41
0.6
  7
EXCESS_STANDARD
  0
TEXT
  5
A09
  8
2
  6
CONTINUOUS
 62
     7
 10
59.79943254925003
 20
-95.243106
 30
0.0
 40
5.0
  1
.
 41
0.6
  7
EXCESS_STANDARD
  0
TEXT
  5
A0A
  8
2
  6
CONTINUOUS
 62
     7
 10
61.29943254925003
 20
-95.243106
 30
0.0
 40
5.0
  1
5
 41
0.6
  7
EXCESS_STANDARD
  0
POLYLINE
  5
A0B
  8
2
  6
CONTINUOUS
 62
     2
 66
     1
 10
0.0
 20
0.0
 30
0.0
  0
VERTEX
  5
A0C
  8
2
  6
CONTINUOUS
 62
     2
 10
13.27526383723808
 20
-32.29553605324102
 30
0.0
  0
VERTEX
  5
A0D
  8
2
  6
CONTINUOUS
 62
     2
 10
14.43321617437906
 20
-28.76401423044143
 30
0.0
  0
VERTEX
  5
A0E
  8
2
  6
CONTINUOUS
 62
     2
 10
11.93407286194018
 20
-28.82945660121176
 30
0.0
  0
VERTEX
  5
A0F
  8
2
  6
CONTINUOUS
 62
     2
 10
13.27526383723808
 20
-32.29553605324102
 30
0.0
  0
SEQEND
  5
A10
  8
2
  6
CONTINUOUS
 62
     2
  0
POLYLINE
  5
A11
  8
2
  6
CONTINUOUS
 62
     2
 66
     1
 10
0.0
 20
0.0
 30
0.0
  0
VERTEX
  5
A12
  8
2
  6
CONTINUOUS
 62
     2
 10
11.18110801939606
 20
47.6770481572582
 30
0.0
  0
VERTEX
  5
A13
  8
2
  6
CONTINUOUS
 62
     2
 10
10.02315568225508
 20
44.14552633445861
 30
0.0
  0
VERTEX
  5
A14
  8
2
  6
CONTINUOUS
 62
     2
 10
12.52229899469396
 20
44.21096870522894
 30
0.0
  0
VERTEX
  5
A15
  8
2
  6
CONTINUOUS
 62
     2
 10
11.18110801939606
 20
47.6770481572582
 30
0.0
  0
SEQEND
  5
A16
  8
2
  6
CONTINUOUS
 62
     2
  0
LINE
  5
A17
  8
2
  6
CONTINUOUS
 62
     2
 10
13.18364451815962
 20
-28.7967354158266
 30
0.0
 11
11.27272733847452
 21
44.17824751984377
 31
0.0
  0
POLYLINE
  5
A18
  8
2
  6
CONTINUOUS
 62
     2
 66
     1
 10
0.0
 20
0.0
 30
0.0
  0
VERTEX
  5
A19
  8
2
  6
CONTINUOUS
 62
     2
 10
31.95834271040735
 20
-31.80630241519245
 30
0.0
  0
VERTEX
  5
A1A
  8
2
  6
CONTINUOUS
 62
     2
 10
12.7754351747503
 20
-32.30862452739509
 30
0.0
  0
SEQEND
  5
A1B
  8
2
  6
CONTINUOUS
 62
     2
  0
POLYLINE
  5
A1C
  8
2
  6
CONTINUOUS
 62
     2
 66
     1
 10
0.0
 20
0.0
 30
0.0
  0
VERTEX
  5
A1D
  8
2
  6
CONTINUOUS
 62
     2
 10
31.95834132800735
 20
48.22111915910756
 30
0.0
  0
VERTEX
  5
A1E
  8
2
  6
CONTINUOUS
 62
     2
 10
10.68127935690828
 20
47.66395968310413
 30
0.0
  0
SEQEND
  5
A1F
  8
2
  6
CONTINUOUS
 62
     2
  0
TEXT
  5
A20
  8
2
  6
CONTINUOUS
 62
     7
 10
12.64948374588047
 20
10.70281650108931
 30
0.0
 40
4.999999999999999
  1
8
 50
271.5000000000148
 41
0.6
  7
EXCESS_STANDARD
  0
TEXT
  5
A21
  8
2
  6
CONTINUOUS
 62
     7
 10
12.72801459080486
 20
7.703844526162654
 30
0.0
 40
4.999999999999999
  1
0
 50
271.5000000000148
 41
0.6
  7
EXCESS_STANDARD
  0
POLYLINE
  5
A22
  8
2
  6
CONTINUOUS
 62
     2
 66
     1
 10
0.0
 20
0.0
 30
0.0
  0
VERTEX
  5
A23
  8
2
  6
CONTINUOUS
 62
     2
 10
20.13521184117401
 20
45.41066502142493
 30
0.0
  0
VERTEX
  5
A24
  8
2
  6
CONTINUOUS
 62
     2
 10
18.97725950403662
 20
41.87914319862417
 30
0.0
  0
VERTEX
  5
A25
  8
2
  6
CONTINUOUS
 62
     2
 10
21.47640281647543
 20
41.94458556939703
 30
0.0
  0
VERTEX
  5
A26
  8
2
  6
CONTINUOUS
 62
     2
 10
20.13521184117401
 20
45.41066502142493
 30
0.0
  0
SEQEND
  5
A27
  8
2
  6
CONTINUOUS
 62
     2
  0
POLYLINE
  5
A28
  8
2
  6
CONTINUOUS
 62
     2
 66
     1
 10
0.0
 20
0.0
 30
0.0
  0
VERTEX
  5
A29
  8
2
  6
CONTINUOUS
 62
     2
 10
22.09848304237395
 20
-29.56363733097507
 30
0.0
  0
VERTEX
  5
A2A
  8
2
  6
CONTINUOUS
 62
     2
 10
23.25643537951135
 20
-26.0321155081743
 30
0.0
  0
VERTEX
  5
A2B
  8
2
  6
CONTINUOUS
 62
     2
 10
20.75729206707254
 20
-26.09755787894717
 30
0.0
  0
VERTEX
  5
A2C
  8
2
  6
CONTINUOUS
 62
     2
 10
22.09848304237395
 20
-29.56363733097507
 30
0.0
  0
SEQEND
  5
A2D
  8
2
  6
CONTINUOUS
 62
     2
  0
LINE
  5
A2E
  8
2
  6
CONTINUOUS
 62
     2
 10
20.22683116025602
 20
41.9118643840106
 30
0.0
 11
22.00686372329194
 21
-26.06483669356074
 31
0.0
  0
POLYLINE
  5
A2F
  8
2
  6
CONTINUOUS
 62
     2
 66
     1
 10
0.0
 20
0.0
 30
0.0
  0
VERTEX
  5
A30
  8
2
  6
CONTINUOUS
 62
     2
 10
84.21968303180738
 20
47.08877595790725
 30
0.0
  0
VERTEX
  5
A31
  8
2
  6
CONTINUOUS
 62
     2
 10
19.63538317868625
 20
45.39757654727036
 30
0.0
  0
SEQEND
  5
A32
  8
2
  6
CONTINUOUS
 62
     2
  0
POLYLINE
  5
A33
  8
2
  6
CONTINUOUS
 62
     2
 66
     1
 10
0.0
 20
0.0
 30
0.0
  0
VERTEX
  5
A34
  8
2
  6
CONTINUOUS
 62
     2
 10
86.18295423300735
 20
-27.88552639449275
 30
0.0
  0
VERTEX
  5
A35
  8
2
  6
CONTINUOUS
 62
     2
 10
21.59865437988619
 20
-29.57672580512964
 30
0.0
  0
SEQEND
  5
A36
  8
2
  6
CONTINUOUS
 62
     2
  0
TEXT
  5
A37
  8
2
  6
CONTINUOUS
 62
     7
 10
21.53814525933431
 20
10.93557429430608
 30
0.0
 40
5.000000000000002
  1
7
 50
271.5000000000729
 41
0.5999999999999999
 51
-0.0000000000000509
  7
EXCESS_STANDARD
  0
TEXT
  5
A38
  8
2
  6
CONTINUOUS
 62
     7
 10
21.61667610426174
 20
7.936602319379505
 30
0.0
 40
5.000000000000002
  1
5
 50
271.5000000000729
 41
0.5999999999999999
 51
-0.0000000000000509
  7
EXCESS_STANDARD
  0
POLYLINE
  5
A39
  8
2
  6
CONTINUOUS
 62
     2
 66
     1
 10
0.0
 20
0.0
 30
0.0
  0
VERTEX
  5
A3A
  8
2
  6
CONTINUOUS
 62
     2
 10
95.92318488924273
 20
49.89609753578831
 30
0.0
  0
VERTEX
  5
A3B
  8
2
  6
CONTINUOUS
 62
     2
 10
97.08113722638147
 20
53.42761935858864
 30
0.0
  0
VERTEX
  5
A3C
  8
2
  6
CONTINUOUS
 62
     2
 10
94.58199391394264
 20
53.36217698781673
 30
0.0
  0
VERTEX
  5
A3D
  8
2
  6
CONTINUOUS
 62
     2
 10
95.92318488924273
 20
49.89609753578831
 30
0.0
  0
SEQEND
  5
A3E
  8
2
  6
CONTINUOUS
 62
     2
  0
LINE
  5
A3F
  8
2
  6
CONTINUOUS
 62
     2
 10
95.83156557016206
 20
53.39489817320268
 30
0.0
 11
95.8053886218533
 21
54.39455549817822
 31
0.0
  0
POLYLINE
  5
A40
  8
2
  6
CONTINUOUS
 62
     2
 66
     1
 10
0.0
 20
0.0
 30
0.0
  0
VERTEX
  5
A41
  8
2
  6
CONTINUOUS
 62
     2
 10
95.98862719760191
 20
47.3969566067955
 30
0.0
  0
VERTEX
  5
A42
  8
2
  6
CONTINUOUS
 62
     2
 10
94.83067486046318
 20
43.86543478399518
 30
0.0
  0
VERTEX
  5
A43
  8
2
  6
CONTINUOUS
 62
     2
 10
97.32981817290201
 20
43.93087715476708
 30
0.0
  0
VERTEX
  5
A44
  8
2
  6
CONTINUOUS
 62
     2
 10
95.98862719760191
 20
47.3969566067955
 30
0.0
  0
SEQEND
  5
A45
  8
2
  6
CONTINUOUS
 62
     2
  0
LINE
  5
A46
  8
2
  6
CONTINUOUS
 62
     2
 10
96.08024651668259
 20
43.89815596938113
 30
0.0
 11
96.10642346499135
 21
42.89849864440559
 31
0.0
  0
LINE
  5
A47
  8
2
  6
CONTINUOUS
 62
     2
 10
95.92318488924273
 20
49.89609753578831
 30
0.0
 11
95.98862719760191
 21
47.3969566067955
 31
0.0
  0
POLYLINE
  5
A48
  8
2
  6
CONTINUOUS
 62
     2
 66
     1
 10
0.0
 20
0.0
 30
0.0
  0
VERTEX
  5
A49
  8
2
  6
CONTINUOUS
 62
     2
 10
84.81947742679269
 20
47.10448212689263
 30
0.0
  0
VERTEX
  5
A4A
  8
2
  6
CONTINUOUS
 62
     2
 10
96.48845586008969
 20
47.41004508094988
 30
0.0
  0
SEQEND
  5
A4B
  8
2
  6
CONTINUOUS
 62
     2
  0
TEXT
  5
A4C
  8
2
  6
CONTINUOUS
 62
     7
 10
96.35757114975223
 20
52.40833051410454
 30
0.0
 40
4.999999999999995
  1
2
 50
271.500000000051
 41
0.6000000000000012
 51
0.0000000000000509
  7
EXCESS_STANDARD
  0
TEXT
  5
A4D
  8
2
  6
CONTINUOUS
 62
     7
 10
96.43610199467852
 20
49.40935853917794
 30
0.0
 40
4.999999999999995
  1
.
 50
271.500000000051
 41
0.6000000000000012
 51
0.0000000000000509
  7
EXCESS_STANDARD
  0
TEXT
  5
A4E
  8
2
  6
CONTINUOUS
 62
     7
 10
96.47536741714167
 20
47.90987255171464
 30
0.0
 40
4.999999999999995
  1
5
 50
271.500000000051
 41
0.6000000000000012
 51
0.0000000000000509
  7
EXCESS_STANDARD
  0
ENDBLK
  5
A50
  8
0
  0
ENDSEC
  0
SECTION
  2
ENTITIES
  0
INSERT
  5
A51
  8
0
  2
0-NONE
 10
0.0
 20
0.0
 30
0.0
  0
ENDSEC
  0
EOF
